  0
SECTION
  2
HEADER
  9
$ACADVER
  1
AC1024
  9
$ACADMAINTVER
 70
     6
  9
$DWGCODEPAGE
  3
ANSI_932
  9
$INSBASE
 10
0.0
 20
0.0
 30
0.0
  9
$EXTMIN
 10
-4455.0
 20
-3150.0
 30
0.0
  9
$EXTMAX
 10
4455.0
 20
3150.0
 30
0.0
  9
$LIMMIN
 10
-4455.0
 20
-3150.0
  9
$LIMMAX
 10
4455.0
 20
3150.0
  9
$ORTHOMODE
 70
     0
  9
$REGENMODE
 70
     1
  9
$FILLMODE
 70
     1
  9
$QTEXTMODE
 70
     0
  9
$MIRRTEXT
 70
     1
  9
$LTSCALE
 40
30.0
  9
$ATTMODE
 70
     1
  9
$TEXTSIZE
 40
2.5
  9
$TRACEWID
 40
1.0
  9
$TEXTSTYLE
  7
Standard
  9
$CLAYER
  8
0
  9
$CELTYPE
  6
ByLayer
  9
$CECOLOR
 62
   256
  9
$CELTSCALE
 40
1.0
  9
$DISPSILH
 70
     0
  9
$DIMSCALE
 40
1.0
  9
$DIMASZ
 40
2.5
  9
$DIMEXO
 40
0.625
  9
$DIMDLI
 40
3.75
  9
$DIMRND
 40
0.0
  9
$DIMDLE
 40
0.0
  9
$DIMEXE
 40
1.25
  9
$DIMTP
 40
0.0
  9
$DIMTM
 40
0.0
  9
$DIMTXT
 40
2.5
  9
$DIMCEN
 40
2.5
  9
$DIMTSZ
 40
0.0
  9
$DIMTOL
 70
     0
  9
$DIMLIM
 70
     0
  9
$DIMTIH
 70
     0
  9
$DIMTOH
 70
     0
  9
$DIMSE1
 70
     0
  9
$DIMSE2
 70
     0
  9
$DIMTAD
 70
     1
  9
$DIMZIN
 70
     8
  9
$DIMBLK
  1

  9
$DIMASO
 70
     1
  9
$DIMSHO
 70
     1
  9
$DIMPOST
  1

  9
$DIMAPOST
  1

  9
$DIMALT
 70
     0
  9
$DIMALTD
 70
     3
  9
$DIMALTF
 40
0.03937007874016
  9
$DIMLFAC
 40
1.0
  9
$DIMTOFL
 70
     1
  9
$DIMTVP
 40
0.0
  9
$DIMTIX
 70
     0
  9
$DIMSOXD
 70
     0
  9
$DIMSAH
 70
     0
  9
$DIMBLK1
  1

  9
$DIMBLK2
  1

  9
$DIMSTYLE
  2
ISO-25
  9
$DIMCLRD
 70
     0
  9
$DIMCLRE
 70
     0
  9
$DIMCLRT
 70
     0
  9
$DIMTFAC
 40
1.0
  9
$DIMGAP
 40
0.625
  9
$DIMJUST
 70
     0
  9
$DIMSD1
 70
     0
  9
$DIMSD2
 70
     0
  9
$DIMTOLJ
 70
     0
  9
$DIMTZIN
 70
     8
  9
$DIMALTZ
 70
     0
  9
$DIMALTTZ
 70
     0
  9
$DIMUPT
 70
     0
  9
$DIMDEC
 70
     2
  9
$DIMTDEC
 70
     2
  9
$DIMALTU
 70
     2
  9
$DIMALTTD
 70
     3
  9
$DIMTXSTY
  7
Standard
  9
$DIMAUNIT
 70
     0
  9
$DIMADEC
 70
     0
  9
$DIMALTRND
 40
0.0
  9
$DIMAZIN
 70
     0
  9
$DIMDSEP
 70
    44
  9
$DIMATFIT
 70
     3
  9
$DIMFRAC
 70
     0
  9
$DIMLDRBLK
  1

  9
$DIMLUNIT
 70
     2
  9
$DIMLWD
 70
    -2
  9
$DIMLWE
 70
    -2
  9
$DIMTMOVE
 70
     0
  9
$DIMFXL
 40
1.0
  9
$DIMFXLON
 70
     0
  9
$DIMJOGANG
 40
0.7853981633974483
  9
$DIMTFILL
 70
     0
  9
$DIMTFILLCLR
 70
     0
  9
$DIMARCSYM
 70
     0
  9
$DIMLTYPE
  6

  9
$DIMLTEX1
  6

  9
$DIMLTEX2
  6

  9
$DIMTXTDIRECTION
 70
     0
  9
$LUNITS
 70
     2
  9
$LUPREC
 70
     4
  9
$SKETCHINC
 40
1.0
  9
$FILLETRAD
 40
10.0
  9
$AUNITS
 70
     0
  9
$AUPREC
 70
     0
  9
$MENU
  1
.
  9
$ELEVATION
 40
0.0
  9
$PELEVATION
 40
0.0
  9
$THICKNESS
 40
0.0
  9
$LIMCHECK
 70
     0
  9
$CHAMFERA
 40
10.0
  9
$CHAMFERB
 40
10.0
  9
$CHAMFERC
 40
20.0
  9
$CHAMFERD
 40
0.0
  9
$SKPOLY
 70
     0
  9
$TDCREATE
 40
2457953.399770312
  9
$TDUCREATE
 40
2457953.024770312
  9
$TDUPDATE
 40
2457953.399770324
  9
$TDUUPDATE
 40
2457953.024770324
  9
$TDINDWG
 40
0.0000000116
  9
$TDUSRTIMER
 40
0.0000000116
  9
$USRTIMER
 70
     1
  9
$ANGBASE
 50
0.0
  9
$ANGDIR
 70
     0
  9
$PDMODE
 70
     0
  9
$PDSIZE
 40
0.0
  9
$PLINEWID
 40
0.0
  9
$SPLFRAME
 70
     0
  9
$SPLINETYPE
 70
     6
  9
$SPLINESEGS
 70
     8
  9
$HANDSEED
  5
3F7
  9
$SURFTAB1
 70
     6
  9
$SURFTAB2
 70
     6
  9
$SURFTYPE
 70
     6
  9
$SURFU
 70
     6
  9
$SURFV
 70
     6
  9
$UCSBASE
  2

  9
$UCSNAME
  2

  9
$UCSORG
 10
0.0
 20
0.0
 30
0.0
  9
$UCSXDIR
 10
1.0
 20
0.0
 30
0.0
  9
$UCSYDIR
 10
0.0
 20
1.0
 30
0.0
  9
$UCSORTHOREF
  2

  9
$UCSORTHOVIEW
 70
     0
  9
$UCSORGTOP
 10
0.0
 20
0.0
 30
0.0
  9
$UCSORGBOTTOM
 10
0.0
 20
0.0
 30
0.0
  9
$UCSORGLEFT
 10
0.0
 20
0.0
 30
0.0
  9
$UCSORGRIGHT
 10
0.0
 20
0.0
 30
0.0
  9
$UCSORGFRONT
 10
0.0
 20
0.0
 30
0.0
  9
$UCSORGBACK
 10
0.0
 20
0.0
 30
0.0
  9
$PUCSBASE
  2

  9
$PUCSNAME
  2

  9
$PUCSORG
 10
0.0
 20
0.0
 30
0.0
  9
$PUCSXDIR
 10
1.0
 20
0.0
 30
0.0
  9
$PUCSYDIR
 10
0.0
 20
1.0
 30
0.0
  9
$PUCSORTHOREF
  2

  9
$PUCSORTHOVIEW
 70
     0
  9
$PUCSORGTOP
 10
0.0
 20
0.0
 30
0.0
  9
$PUCSORGBOTTOM
 10
0.0
 20
0.0
 30
0.0
  9
$PUCSORGLEFT
 10
0.0
 20
0.0
 30
0.0
  9
$PUCSORGRIGHT
 10
0.0
 20
0.0
 30
0.0
  9
$PUCSORGFRONT
 10
0.0
 20
0.0
 30
0.0
  9
$PUCSORGBACK
 10
0.0
 20
0.0
 30
0.0
  9
$USERI1
 70
     0
  9
$USERI2
 70
     0
  9
$USERI3
 70
     0
  9
$USERI4
 70
     0
  9
$USERI5
 70
     0
  9
$USERR1
 40
0.0
  9
$USERR2
 40
0.0
  9
$USERR3
 40
0.0
  9
$USERR4
 40
0.0
  9
$USERR5
 40
0.0
  9
$WORLDVIEW
 70
     1
  9
$SHADEDGE
 70
     3
  9
$SHADEDIF
 70
    70
  9
$TILEMODE
 70
     1
  9
$MAXACTVP
 70
    64
  9
$PINSBASE
 10
0.0
 20
0.0
 30
0.0
  9
$PLIMCHECK
 70
     0
  9
$PEXTMIN
 10
1.000000000000000E+20
 20
1.000000000000000E+20
 30
1.000000000000000E+20
  9
$PEXTMAX
 10
-1.000000000000000E+20
 20
-1.000000000000000E+20
 30
-1.000000000000000E+20
  9
$PLIMMIN
 10
0.0
 20
0.0
  9
$PLIMMAX
 10
420.0
 20
297.0
  9
$UNITMODE
 70
     0
  9
$VISRETAIN
 70
     1
  9
$PLINEGEN
 70
     0
  9
$PSLTSCALE
 70
     1
  9
$TREEDEPTH
 70
  3020
  9
$CMLSTYLE
  2
Standard
  9
$CMLJUST
 70
     0
  9
$CMLSCALE
 40
20.0
  9
$PROXYGRAPHICS
 70
     1
  9
$MEASUREMENT
 70
     1
  9
$CELWEIGHT
370
    -1
  9
$ENDCAPS
280
     0
  9
$JOINSTYLE
280
     0
  9
$LWDISPLAY
290
     0
  9
$INSUNITS
 70
     4
  9
$HYPERLINKBASE
  1

  9
$STYLESHEET
  1

  9
$XEDIT
290
     1
  9
$CEPSNTYPE
380
     0
  9
$PSTYLEMODE
290
     1
  9
$FINGERPRINTGUID
  2
{3C1FFF98-4FE8-4585-8212-9CFCA3A14E86}
  9
$VERSIONGUID
  2
{FAEB1C32-E019-11D5-929B-00C0DF256EC4}
  9
$EXTNAMES
290
     1
  9
$PSVPSCALE
 40
0.0
  9
$OLESTARTUP
290
     0
  9
$SORTENTS
280
   127
  9
$INDEXCTL
280
     0
  9
$HIDETEXT
280
     1
  9
$XCLIPFRAME
280
     2
  9
$HALOGAP
280
     0
  9
$OBSCOLOR
 70
   257
  9
$OBSLTYPE
280
     0
  9
$INTERSECTIONDISPLAY
280
     0
  9
$INTERSECTIONCOLOR
 70
   257
  9
$DIMASSOC
280
     2
  9
$PROJECTNAME
  1

  9
$CAMERADISPLAY
290
     0
  9
$LENSLENGTH
 40
50.0
  9
$CAMERAHEIGHT
 40
0.0
  9
$STEPSPERSEC
 40
2.0
  9
$STEPSIZE
 40
6.0
  9
$3DDWFPREC
 40
2.0
  9
$PSOLWIDTH
 40
5.0
  9
$PSOLHEIGHT
 40
80.0
  9
$LOFTANG1
 40
1.570796326794897
  9
$LOFTANG2
 40
1.570796326794897
  9
$LOFTMAG1
 40
0.0
  9
$LOFTMAG2
 40
0.0
  9
$LOFTPARAM
 70
     7
  9
$LOFTNORMALS
280
     1
  9
$LATITUDE
 40
37.795
  9
$LONGITUDE
 40
-122.394
  9
$NORTHDIRECTION
 40
0.0
  9
$TIMEZONE
 70
 -8000
  9
$LIGHTGLYPHDISPLAY
280
     1
  9
$TILEMODELIGHTSYNCH
280
     1
  9
$SOLIDHIST
280
     1
  9
$SHOWHIST
280
     1
  9
$DWFFRAME
280
     2
  9
$DGNFRAME
280
     2
  9
$REALWORLDSCALE
290
     1
  9
$INTERFERECOLOR
 62
   256
  9
$CSHADOW
280
     0
  9
$SHADOWPLANELOCATION
 40
0.0
  0
ENDSEC
  0
SECTION
  2
CLASSES
  0
CLASS
  1
ACDBDICTIONARYWDFLT
  2
AcDbDictionaryWithDefault
  3
ObjectDBX Classes
 90
        0
 91
        4
280
     0
281
     0
  0
CLASS
  1
VISUALSTYLE
  2
AcDbVisualStyle
  3
ObjectDBX Classes
 90
     4095
 91
        4
280
     0
281
     0
  0
CLASS
  1
MATERIAL
  2
AcDbMaterial
  3
ObjectDBX Classes
 90
     1153
 91
        4
280
     0
281
     0
  0
ENDSEC
  0
SECTION
  2
TABLES
  0
TABLE
  2
VPORT
  5
8
330
0
100
AcDbSymbolTable
 70
     1
  0
VPORT
  5
29
330
8
100
AcDbSymbolTableRecord
100
AcDbViewportTableRecord
  2
*Active
 70
     0
 10
0.0
 20
0.0
 11
1.0
 21
1.0
 12
0.0
 22
0.0
 13
0.0
 23
0.0
 14
10.0
 24
10.0
 15
10.0
 25
10.0
 16
0.0
 26
0.0
 36
1.0
 17
0.0
 27
0.0
 37
0.0
 40
6930.000000000001
 41
1.414285714285714
 42
50.0
 43
0.0
 44
0.0
 50
0.0
 51
0.0
 71
     0
 72
 10000
 73
     1
 74
     3
 75
     0
 76
     0
 77
     0
 78
     0
281
     0
 65
     1
110
0.0
120
0.0
130
0.0
111
1.0
121
0.0
131
0.0
112
0.0
122
1.0
132
0.0
 79
     0
146
0.0
 60
     3
 61
     5
292
     1
282
     1
141
0.0
142
0.0
 63
   250
  0
ENDTAB
  0
TABLE
  2
LTYPE
  5
5
330
0
100
AcDbSymbolTable
 70
     2
  0
LTYPE
  5
14
330
5
100
AcDbSymbolTableRecord
100
AcDbLinetypeTableRecord
  2
ByBlock
 70
     0
  3

 72
    65
 73
     0
 40
0.0
  0
LTYPE
  5
15
330
5
100
AcDbSymbolTableRecord
100
AcDbLinetypeTableRecord
  2
ByLayer
 70
     0
  3

 72
    65
 73
     0
 40
0.0
  0
LTYPE
  5
16
330
5
100
AcDbSymbolTableRecord
100
AcDbLinetypeTableRecord
  2
Continuous
 70
     0
  3
Solid line
 72
    65
 73
     0
 40
0.0
  0
LTYPE
  5
3F
330
5
100
AcDbSymbolTableRecord
100
AcDbLinetypeTableRecord
  2
JWW_DASHED1
 70
     0
  3
-  --  --  --  --  --  --  --  -
 72
    65
 73
     2
 40
1.693333333333333
 49
0.8466666666666667
 74
     0
 49
-0.8466666666666667
 74
     0
  0
ENDTAB
  0
TABLE
  2
LAYER
  5
2
330
0
100
AcDbSymbolTable
 70
     3
  0
LAYER
  5
10
330
2
100
AcDbSymbolTableRecord
100
AcDbLayerTableRecord
  2
0
 70
     0
 62
     7
  6
Continuous
370
    -3
390
F
347
3E
  0
LAYER
  5
40
330
2
100
AcDbSymbolTableRecord
100
AcDbLayerTableRecord
  2
0-0
 70
     0
 62
     7
  6
Continuous
370
    -3
390
F
347
3E
  0
LAYER
  5
41
330
2
100
AcDbSymbolTableRecord
100
AcDbLayerTableRecord
  2
寸法
 70
     0
 62
     7
  6
Continuous
370
    -3
390
F
347
3E
  0
ENDTAB
  0
TABLE
  2
STYLE
  5
3
330
0
100
AcDbSymbolTable
 70
     1
  0
STYLE
  5
11
330
3
100
AcDbSymbolTableRecord
100
AcDbTextStyleTableRecord
  2
Standard
 70
     0
 40
0.0
 41
1.0
 50
0.0
 71
     0
 42
2.5
  3
txt
  4

  0
ENDTAB
  0
TABLE
  2
VIEW
  5
6
330
0
100
AcDbSymbolTable
 70
     0
  0
ENDTAB
  0
TABLE
  2
UCS
  5
7
330
0
100
AcDbSymbolTable
 70
     0
  0
ENDTAB
  0
TABLE
  2
APPID
  5
9
330
0
100
AcDbSymbolTable
 70
     1
  0
APPID
  5
12
330
9
100
AcDbSymbolTableRecord
100
AcDbRegAppTableRecord
  2
ACAD
 70
     0
  0
ENDTAB
  0
TABLE
  2
DIMSTYLE
  5
A
330
0
100
AcDbSymbolTable
 70
     1
100
AcDbDimStyleTable
  0
DIMSTYLE
105
27
330
A
100
AcDbSymbolTableRecord
100
AcDbDimStyleTableRecord
  2
ISO-25
 70
     0
 41
2.5
 42
0.625
 43
3.75
 44
1.25
 73
     0
 74
     0
 77
     1
 78
     8
140
2.5
141
2.5
143
0.03937007874016
147
0.625
171
     3
172
     1
178
     0
271
     2
272
     2
274
     3
278
    44
283
     0
284
     8
340
11
  0
ENDTAB
  0
TABLE
  2
BLOCK_RECORD
  5
1
330
0
100
AcDbSymbolTable
 70
     1
  0
BLOCK_RECORD
  5
1F
330
1
100
AcDbSymbolTableRecord
100
AcDbBlockTableRecord
  2
*Model_Space
340
22
 70
     0
280
     1
281
     0
  0
BLOCK_RECORD
  5
1B
330
1
100
AcDbSymbolTableRecord
100
AcDbBlockTableRecord
  2
*Paper_Space
340
1E
 70
     0
280
     1
281
     0
  0
BLOCK_RECORD
  5
23
330
1
100
AcDbSymbolTableRecord
100
AcDbBlockTableRecord
  2
*Paper_Space0
340
26
 70
     0
280
     1
281
     0
  0
ENDTAB
  0
ENDSEC
  0
SECTION
  2
BLOCKS
  0
BLOCK
  5
20
330
1F
100
AcDbEntity
  8
0
100
AcDbBlockBegin
  2
*Model_Space
 70
     0
 10
0.0
 20
0.0
 30
0.0
  3
*Model_Space
  1

  0
ENDBLK
  5
21
330
1F
100
AcDbEntity
  8
0
100
AcDbBlockEnd
  0
BLOCK
  5
1C
330
1B
100
AcDbEntity
 67
     1
  8
0
100
AcDbBlockBegin
  2
*Paper_Space
 70
     0
 10
0.0
 20
0.0
 30
0.0
  3
*Paper_Space
  1

  0
ENDBLK
  5
1D
330
1B
100
AcDbEntity
 67
     1
  8
0
100
AcDbBlockEnd
  0
BLOCK
  5
24
330
23
100
AcDbEntity
  8
0
100
AcDbBlockBegin
  2
*Paper_Space0
 70
     0
 10
0.0
 20
0.0
 30
0.0
  3
*Paper_Space0
  1

  0
ENDBLK
  5
25
330
23
100
AcDbEntity
  8
0
100
AcDbBlockEnd
  0
ENDSEC
  0
SECTION
  2
ENTITIES
  0
LINE
  5
42
330
1F
100
AcDbEntity
  8
0-0
  6
Continuous
 62
    92
370
    13
100
AcDbLine
 10
-1163.265051691415
 20
-1182.445557396952
 30
0.0
 11
-1163.265051691415
 21
864.5544426030485
 31
0.0
  0
LINE
  5
43
330
1F
100
AcDbEntity
  8
0-0
  6
Continuous
 62
    92
370
    13
100
AcDbLine
 10
-1193.265051691415
 20
864.5544426030485
 30
0.0
 11
1230.734948308584
 21
864.5544426030485
 31
0.0
  0
LINE
  5
44
330
1F
100
AcDbEntity
  8
0-0
  6
Continuous
 62
    92
370
    13
100
AcDbLine
 10
-1163.265051691415
 20
828.5544426030472
 30
0.0
 11
1200.734948308584
 21
828.5544426030472
 31
0.0
  0
LINE
  5
45
330
1F
100
AcDbEntity
  8
0-0
  6
Continuous
 62
    92
370
    13
100
AcDbLine
 10
1200.734948308584
 20
-1182.445557396952
 30
0.0
 11
1200.734948308584
 21
864.5544426030485
 31
0.0
  0
LINE
  5
46
330
1F
100
AcDbEntity
  8
0-0
  6
Continuous
 62
    92
370
    13
100
AcDbLine
 10
1230.734948308584
 20
-1182.445557396952
 30
0.0
 11
1230.734948308584
 21
864.5544426030485
 31
0.0
  0
LINE
  5
47
330
1F
100
AcDbEntity
  8
0-0
  6
Continuous
 62
    92
370
    13
100
AcDbLine
 10
-1193.265051691415
 20
-1182.445557396952
 30
0.0
 11
-1193.265051691415
 21
864.5544426030485
 31
0.0
  0
LINE
  5
48
330
1F
100
AcDbEntity
  8
0-0
  6
Continuous
 62
    92
370
    13
100
AcDbLine
 10
1230.734948308584
 20
-1182.445557396952
 30
0.0
 11
-1193.265051691415
 21
-1182.445557396952
 31
0.0
  0
LINE
  5
49
330
1F
100
AcDbEntity
  8
0-0
  6
Continuous
 62
    92
370
    13
100
AcDbLine
 10
1200.734948308584
 20
-1167.445557396952
 30
0.0
 11
-1163.265051691415
 21
-1167.445557396952
 31
0.0
  0
ARC
  5
4A
330
1F
100
AcDbEntity
  8
0-0
  6
Continuous
 62
    92
370
    13
100
AcDbCircle
 10
-1134.765051691417
 20
-145.4455573969511
 30
0.0
 40
1.5
100
AcDbArc
 50
90.0
 51
180.0
  0
LINE
  5
4B
330
1F
100
AcDbEntity
  8
0-0
  6
Continuous
 62
    92
370
    13
100
AcDbLine
 10
-1095.765051691417
 20
-143.9455573969516
 30
0.0
 11
-1134.765051691417
 21
-143.9455573969516
 31
0.0
  0
ARC
  5
4C
330
1F
100
AcDbEntity
  8
0-0
  6
Continuous
 62
    92
370
    13
100
AcDbCircle
 10
-1095.765051691417
 20
-145.4455573969511
 30
0.0
 40
1.5
100
AcDbArc
 50
0.0
 51
90.00000000000001
  0
LINE
  5
4D
330
1F
100
AcDbEntity
  8
0-0
  6
Continuous
 62
    92
370
    13
100
AcDbLine
 10
-1094.26505169142
 20
-264.4455573969512
 30
0.0
 11
-1094.26505169142
 21
-145.4455573969511
 31
0.0
  0
ARC
  5
4E
330
1F
100
AcDbEntity
  8
0-0
  6
Continuous
 62
    92
370
    13
100
AcDbCircle
 10
-1095.765051691417
 20
-264.4455573969512
 30
0.0
 40
1.5
100
AcDbArc
 50
270.0
 51
0.0
  0
LINE
  5
4F
330
1F
100
AcDbEntity
  8
0-0
  6
Continuous
 62
    92
370
    13
100
AcDbLine
 10
-1134.765051691417
 20
-265.9455573969532
 30
0.0
 11
-1095.765051691417
 21
-265.9455573969532
 31
0.0
  0
LINE
  5
50
330
1F
100
AcDbEntity
  8
0-0
  6
Continuous
 62
    92
370
    13
100
AcDbLine
 10
-1136.265051691416
 20
-264.4455573969512
 30
0.0
 11
-1136.265051691416
 21
-145.4455573969511
 31
0.0
  0
ARC
  5
51
330
1F
100
AcDbEntity
  8
0-0
  6
Continuous
 62
    92
370
    13
100
AcDbCircle
 10
-1134.765051691417
 20
-264.4455573969512
 30
0.0
 40
1.5
100
AcDbArc
 50
180.0
 51
270.0
  0
ARC
  5
52
330
1F
100
AcDbEntity
  8
0-0
  6
Continuous
 62
     7
370
     9
100
AcDbCircle
 10
-1115.265051691418
 20
-234.5455573969511
 30
0.0
 40
15.0
100
AcDbArc
 50
180.0
 51
0.0
  0
ARC
  5
53
330
1F
100
AcDbEntity
  8
0-0
  6
Continuous
 62
     7
370
     9
100
AcDbCircle
 10
-1115.265051691418
 20
-175.3455573969512
 30
0.0
 40
15.0
100
AcDbArc
 50
0.0
 51
180.0
  0
LINE
  5
54
330
1F
100
AcDbEntity
  8
0-0
  6
Continuous
 62
     7
370
     9
100
AcDbLine
 10
-1100.265051691418
 20
-234.5455573969511
 30
0.0
 11
-1100.265051691418
 21
-175.3455573969512
 31
0.0
  0
LINE
  5
55
330
1F
100
AcDbEntity
  8
0-0
  6
Continuous
 62
     7
370
     9
100
AcDbLine
 10
-1130.265051691418
 20
-175.3455573969512
 30
0.0
 11
-1130.265051691418
 21
-234.5455573969511
 31
0.0
  0
ARC
  5
56
330
1F
100
AcDbEntity
  8
0-0
  6
Continuous
 62
    92
370
    13
100
AcDbCircle
 10
-354.7650516914172
 20
-145.4455573969511
 30
0.0
 40
1.5
100
AcDbArc
 50
90.0
 51
180.0
  0
LINE
  5
57
330
1F
100
AcDbEntity
  8
0-0
  6
Continuous
 62
    92
370
    13
100
AcDbLine
 10
-315.7650516914168
 20
-143.9455573969516
 30
0.0
 11
-354.7650516914172
 21
-143.9455573969516
 31
0.0
  0
ARC
  5
58
330
1F
100
AcDbEntity
  8
0-0
  6
Continuous
 62
    92
370
    13
100
AcDbCircle
 10
-315.7650516914168
 20
-145.4455573969511
 30
0.0
 40
1.5
100
AcDbArc
 50
0.0
 51
90.00000000000001
  0
LINE
  5
59
330
1F
100
AcDbEntity
  8
0-0
  6
Continuous
 62
    92
370
    13
100
AcDbLine
 10
-314.2650516914199
 20
-264.4455573969512
 30
0.0
 11
-314.2650516914199
 21
-145.4455573969511
 31
0.0
  0
ARC
  5
5A
330
1F
100
AcDbEntity
  8
0-0
  6
Continuous
 62
    92
370
    13
100
AcDbCircle
 10
-315.7650516914168
 20
-264.4455573969512
 30
0.0
 40
1.5
100
AcDbArc
 50
270.0
 51
0.0
  0
LINE
  5
5B
330
1F
100
AcDbEntity
  8
0-0
  6
Continuous
 62
    92
370
    13
100
AcDbLine
 10
-354.7650516914172
 20
-265.9455573969532
 30
0.0
 11
-315.7650516914168
 21
-265.9455573969532
 31
0.0
  0
LINE
  5
5C
330
1F
100
AcDbEntity
  8
0-0
  6
Continuous
 62
    92
370
    13
100
AcDbLine
 10
-356.2650516914158
 20
-264.4455573969512
 30
0.0
 11
-356.2650516914158
 21
-145.4455573969511
 31
0.0
  0
ARC
  5
5D
330
1F
100
AcDbEntity
  8
0-0
  6
Continuous
 62
    92
370
    13
100
AcDbCircle
 10
-354.7650516914172
 20
-264.4455573969512
 30
0.0
 40
1.5
100
AcDbArc
 50
180.0
 51
270.0
  0
ARC
  5
5E
330
1F
100
AcDbEntity
  8
0-0
  6
Continuous
 62
     7
370
     9
100
AcDbCircle
 10
-335.2650516914179
 20
-234.5455573969511
 30
0.0
 40
15.0
100
AcDbArc
 50
180.0
 51
0.0
  0
ARC
  5
5F
330
1F
100
AcDbEntity
  8
0-0
  6
Continuous
 62
     7
370
     9
100
AcDbCircle
 10
-335.2650516914179
 20
-175.3455573969512
 30
0.0
 40
15.0
100
AcDbArc
 50
0.0
 51
180.0
  0
LINE
  5
60
330
1F
100
AcDbEntity
  8
0-0
  6
Continuous
 62
     7
370
     9
100
AcDbLine
 10
-320.2650516914179
 20
-234.5455573969511
 30
0.0
 11
-320.2650516914179
 21
-175.3455573969512
 31
0.0
  0
LINE
  5
61
330
1F
100
AcDbEntity
  8
0-0
  6
Continuous
 62
     7
370
     9
100
AcDbLine
 10
-350.2650516914179
 20
-175.3455573969512
 30
0.0
 11
-350.2650516914179
 21
-234.5455573969511
 31
0.0
  0
ARC
  5
62
330
1F
100
AcDbEntity
  8
0-0
  6
Continuous
 62
    92
370
    13
100
AcDbCircle
 10
1133.234948308587
 20
-145.4455573969511
 30
0.0
 40
1.5
100
AcDbArc
 50
90.0
 51
180.0
  0
LINE
  5
63
330
1F
100
AcDbEntity
  8
0-0
  6
Continuous
 62
    92
370
    13
100
AcDbLine
 10
1172.234948308585
 20
-143.9455573969516
 30
0.0
 11
1133.234948308587
 21
-143.9455573969516
 31
0.0
  0
ARC
  5
64
330
1F
100
AcDbEntity
  8
0-0
  6
Continuous
 62
    92
370
    13
100
AcDbCircle
 10
1172.234948308585
 20
-145.4455573969511
 30
0.0
 40
1.5
100
AcDbArc
 50
0.0
 51
90.00000000000001
  0
LINE
  5
65
330
1F
100
AcDbEntity
  8
0-0
  6
Continuous
 62
    92
370
    13
100
AcDbLine
 10
1173.734948308586
 20
-264.4455573969512
 30
0.0
 11
1173.734948308586
 21
-145.4455573969511
 31
0.0
  0
ARC
  5
66
330
1F
100
AcDbEntity
  8
0-0
  6
Continuous
 62
    92
370
    13
100
AcDbCircle
 10
1172.234948308585
 20
-264.4455573969512
 30
0.0
 40
1.5
100
AcDbArc
 50
270.0
 51
0.0
  0
LINE
  5
67
330
1F
100
AcDbEntity
  8
0-0
  6
Continuous
 62
    92
370
    13
100
AcDbLine
 10
1133.234948308587
 20
-265.9455573969532
 30
0.0
 11
1172.234948308585
 21
-265.9455573969532
 31
0.0
  0
LINE
  5
68
330
1F
100
AcDbEntity
  8
0-0
  6
Continuous
 62
    92
370
    13
100
AcDbLine
 10
1131.734948308587
 20
-264.4455573969512
 30
0.0
 11
1131.734948308587
 21
-145.4455573969511
 31
0.0
  0
ARC
  5
69
330
1F
100
AcDbEntity
  8
0-0
  6
Continuous
 62
    92
370
    13
100
AcDbCircle
 10
1133.234948308587
 20
-264.4455573969512
 30
0.0
 40
1.5
100
AcDbArc
 50
180.0
 51
270.0
  0
ARC
  5
6A
330
1F
100
AcDbEntity
  8
0-0
  6
Continuous
 62
     7
370
     9
100
AcDbCircle
 10
1152.734948308586
 20
-234.5455573969511
 30
0.0
 40
15.0
100
AcDbArc
 50
180.0
 51
0.0
  0
ARC
  5
6B
330
1F
100
AcDbEntity
  8
0-0
  6
Continuous
 62
     7
370
     9
100
AcDbCircle
 10
1152.734948308586
 20
-175.3455573969512
 30
0.0
 40
15.0
100
AcDbArc
 50
0.0
 51
180.0
  0
LINE
  5
6C
330
1F
100
AcDbEntity
  8
0-0
  6
Continuous
 62
     7
370
     9
100
AcDbLine
 10
1167.734948308586
 20
-234.5455573969511
 30
0.0
 11
1167.734948308586
 21
-175.3455573969512
 31
0.0
  0
LINE
  5
6D
330
1F
100
AcDbEntity
  8
0-0
  6
Continuous
 62
     7
370
     9
100
AcDbLine
 10
1137.734948308586
 20
-175.3455573969512
 30
0.0
 11
1137.734948308586
 21
-234.5455573969511
 31
0.0
  0
LINE
  5
6E
330
1F
100
AcDbEntity
  8
0-0
  6
JWW_DASHED1
 62
   120
370
     5
100
AcDbLine
 10
-1163.265051691415
 20
-1162.445557396952
 30
0.0
 11
-1166.265051691416
 21
-1162.445557396952
 31
0.0
  0
LINE
  5
6F
330
1F
100
AcDbEntity
  8
0-0
  6
JWW_DASHED1
 62
   120
370
     5
100
AcDbLine
 10
-1166.265051691416
 20
-1162.445557396952
 30
0.0
 11
-1166.265051691416
 21
820.5544426030476
 31
0.0
  0
LINE
  5
70
330
1F
100
AcDbEntity
  8
0-0
  6
Continuous
 62
    92
370
    13
100
AcDbLine
 10
393.7349483085842
 20
-1162.445557396952
 30
0.0
 11
393.7349483085842
 21
820.5544426030476
 31
0.0
  0
LINE
  5
71
330
1F
100
AcDbEntity
  8
0-0
  6
JWW_DASHED1
 62
   120
370
     5
100
AcDbLine
 10
-1166.265051691416
 20
820.5544426030476
 30
0.0
 11
-1163.265051691415
 21
820.5544426030476
 31
0.0
  0
LINE
  5
72
330
1F
100
AcDbEntity
  8
0-0
  6
JWW_DASHED1
 62
   120
370
     5
100
AcDbLine
 10
-356.2650516914158
 20
-1162.445557396952
 30
0.0
 11
-356.2650516914158
 21
820.5544426030476
 31
0.0
  0
LINE
  5
73
330
1F
100
AcDbEntity
  8
0-0
  6
JWW_DASHED1
 62
   120
370
     5
100
AcDbLine
 10
423.7349483085842
 20
-1162.445557396952
 30
0.0
 11
423.7349483085842
 21
820.5544426030476
 31
0.0
  0
LINE
  5
74
330
1F
100
AcDbEntity
  8
0-0
  6
JWW_DASHED1
 62
   120
370
     5
100
AcDbLine
 10
1200.734948308584
 20
-1162.445557396952
 30
0.0
 11
1203.734948308584
 21
-1162.445557396952
 31
0.0
  0
LINE
  5
75
330
1F
100
AcDbEntity
  8
0-0
  6
JWW_DASHED1
 62
   120
370
     5
100
AcDbLine
 10
1203.734948308584
 20
-1162.445557396952
 30
0.0
 11
1203.734948308584
 21
820.5544426030476
 31
0.0
  0
LINE
  5
76
330
1F
100
AcDbEntity
  8
0-0
  6
JWW_DASHED1
 62
   120
370
     5
100
AcDbLine
 10
1203.734948308584
 20
820.5544426030476
 30
0.0
 11
1200.734948308584
 21
820.5544426030476
 31
0.0
  0
LINE
  5
77
330
1F
100
AcDbEntity
  8
0-0
  6
Continuous
 62
    92
370
    13
100
AcDbLine
 10
-1163.265051691415
 20
-1162.445557396952
 30
0.0
 11
1200.734948308584
 21
-1162.445557396952
 31
0.0
  0
LINE
  5
78
330
1F
100
AcDbEntity
  8
0-0
  6
Continuous
 62
    92
370
    13
100
AcDbLine
 10
-1163.265051691415
 20
820.5544426030476
 30
0.0
 11
1200.734948308584
 21
820.5544426030476
 31
0.0
  0
LINE
  5
79
330
1F
100
AcDbEntity
  8
0-0
  6
Continuous
 62
    92
370
    13
100
AcDbLine
 10
-386.2650516914158
 20
820.5544426030476
 30
0.0
 11
-386.2650516914158
 21
-1162.445557396952
 31
0.0
  0
LINE
  5
7A
330
1F
100
AcDbEntity
  8
0-0
  6
Continuous
 62
     7
370
     9
100
AcDbLine
 10
-1047.765051691416
 20
-1012.445557396952
 30
0.0
 11
-1062.765051691416
 21
-1027.445557396952
 31
0.0
  0
LINE
  5
7B
330
1F
100
AcDbEntity
  8
0-0
  6
Continuous
 62
     7
370
     9
100
AcDbLine
 10
-1062.765051691416
 20
-1162.445557396952
 30
0.0
 11
-1062.765051691416
 21
820.5544426030476
 31
0.0
  0
LINE
  5
7C
330
1F
100
AcDbEntity
  8
0-0
  6
Continuous
 62
     7
370
     9
100
AcDbLine
 10
-474.7650516914155
 20
-1012.445557396952
 30
0.0
 11
-459.7650516914155
 21
-1027.445557396952
 31
0.0
  0
LINE
  5
7D
330
1F
100
AcDbEntity
  8
0-0
  6
Continuous
 62
     7
370
     9
100
AcDbLine
 10
-459.7650516914155
 20
-1162.445557396952
 30
0.0
 11
-459.7650516914155
 21
820.5544426030476
 31
0.0
  0
LINE
  5
7E
330
1F
100
AcDbEntity
  8
0-0
  6
Continuous
 62
     7
370
     9
100
AcDbLine
 10
-1062.765051691416
 20
-1027.445557396952
 30
0.0
 11
-459.7650516914155
 21
-1027.445557396952
 31
0.0
  0
LINE
  5
7F
330
1F
100
AcDbEntity
  8
0-0
  6
Continuous
 62
     7
370
     9
100
AcDbLine
 10
-1047.765051691416
 20
-489.445557396952
 30
0.0
 11
-1062.765051691416
 21
-504.445557396952
 31
0.0
  0
LINE
  5
80
330
1F
100
AcDbEntity
  8
0-0
  6
Continuous
 62
     7
370
     9
100
AcDbLine
 10
-1062.765051691416
 20
-579.445557396952
 30
0.0
 11
-1047.765051691416
 21
-594.445557396952
 31
0.0
  0
LINE
  5
81
330
1F
100
AcDbEntity
  8
0-0
  6
Continuous
 62
     7
370
     9
100
AcDbLine
 10
-474.7650516914155
 20
-489.445557396952
 30
0.0
 11
-459.7650516914155
 21
-504.445557396952
 31
0.0
  0
LINE
  5
82
330
1F
100
AcDbEntity
  8
0-0
  6
Continuous
 62
     7
370
     9
100
AcDbLine
 10
-459.7650516914155
 20
-579.445557396952
 30
0.0
 11
-474.7650516914155
 21
-594.445557396952
 31
0.0
  0
LINE
  5
83
330
1F
100
AcDbEntity
  8
0-0
  6
Continuous
 62
     7
370
     9
100
AcDbLine
 10
-1062.765051691416
 20
-504.445557396952
 30
0.0
 11
-459.7650516914155
 21
-504.445557396952
 31
0.0
  0
LINE
  5
84
330
1F
100
AcDbEntity
  8
0-0
  6
Continuous
 62
     7
370
     9
100
AcDbLine
 10
-1062.765051691416
 20
-579.445557396952
 30
0.0
 11
-459.7650516914155
 21
-579.445557396952
 31
0.0
  0
LINE
  5
85
330
1F
100
AcDbEntity
  8
0-0
  6
Continuous
 62
     7
370
     9
100
AcDbLine
 10
-1017.765051691416
 20
-982.4455573969522
 30
0.0
 11
-1017.765051691416
 21
-624.445557396952
 31
0.0
  0
LINE
  5
86
330
1F
100
AcDbEntity
  8
0-0
  6
Continuous
 62
     7
370
     9
100
AcDbLine
 10
-1017.765051691416
 20
-982.4455573969522
 30
0.0
 11
-1032.765051691416
 21
-997.4455573969522
 31
0.0
  0
LINE
  5
87
330
1F
100
AcDbEntity
  8
0-0
  6
Continuous
 62
     7
370
     9
100
AcDbLine
 10
-1032.765051691416
 20
-609.445557396952
 30
0.0
 11
-1017.765051691416
 21
-624.445557396952
 31
0.0
  0
LINE
  5
88
330
1F
100
AcDbEntity
  8
0-0
  6
Continuous
 62
     7
370
     9
100
AcDbLine
 10
-504.7650516914155
 20
-982.4455573969522
 30
0.0
 11
-489.7650516914155
 21
-997.4455573969522
 31
0.0
  0
LINE
  5
89
330
1F
100
AcDbEntity
  8
0-0
  6
Continuous
 62
     7
370
     9
100
AcDbLine
 10
-489.7650516914155
 20
-609.445557396952
 30
0.0
 11
-504.7650516914155
 21
-624.445557396952
 31
0.0
  0
LINE
  5
8A
330
1F
100
AcDbEntity
  8
0-0
  6
Continuous
 62
     7
370
     9
100
AcDbLine
 10
-1017.765051691416
 20
-624.445557396952
 30
0.0
 11
-504.7650516914155
 21
-624.445557396952
 31
0.0
  0
LINE
  5
8B
330
1F
100
AcDbEntity
  8
0-0
  6
Continuous
 62
     7
370
     9
100
AcDbLine
 10
-504.7650516914155
 20
-982.4455573969522
 30
0.0
 11
-504.7650516914155
 21
-624.445557396952
 31
0.0
  0
LINE
  5
8C
330
1F
100
AcDbEntity
  8
0-0
  6
Continuous
 62
     7
370
     9
100
AcDbLine
 10
-1017.765051691416
 20
-982.4455573969522
 30
0.0
 11
-504.7650516914155
 21
-982.4455573969522
 31
0.0
  0
LINE
  5
8D
330
1F
100
AcDbEntity
  8
0-0
  6
Continuous
 62
     7
370
     9
100
AcDbLine
 10
-1047.765051691418
 20
625.5541750587395
 30
0.0
 11
-1062.765447600362
 21
640.5545709676805
 31
0.0
  0
LINE
  5
8E
330
1F
100
AcDbEntity
  8
0-0
  6
Continuous
 62
     7
370
     9
100
AcDbLine
 10
-474.7650516914155
 20
625.5541750587395
 30
0.0
 11
-459.7650516914155
 21
640.5541750587395
 31
0.0
  0
ARC
  5
8F
330
1F
100
AcDbEntity
  8
0-0
  6
Continuous
 62
     7
370
     9
100
AcDbCircle
 10
-998.7523891200038
 20
775.5541750587395
 30
0.0
 40
135.0
100
AcDbArc
 50
270.0
 51
298.3577011236671
  0
ARC
  5
90
330
1F
100
AcDbEntity
  8
0-0
  6
Continuous
 62
     7
370
     9
100
AcDbCircle
 10
-523.7777142628278
 20
775.5541750587395
 30
0.0
 40
135.0
100
AcDbArc
 50
241.6422988763328
 51
270.0
  0
ARC
  5
91
330
1F
100
AcDbEntity
  8
0-0
  6
Continuous
 62
     7
370
     9
100
AcDbCircle
 10
-761.2650516914158
 20
335.554442603048
 30
0.0
 40
365.0
100
AcDbArc
 50
61.64229887633292
 51
118.3577011236671
  0
LINE
  5
92
330
1F
100
AcDbEntity
  8
0-0
  6
Continuous
 62
     7
370
     9
100
AcDbLine
 10
-1062.765101179385
 20
640.5542245467035
 30
0.0
 11
-998.7523891200038
 21
640.5542245467035
 31
0.0
  0
LINE
  5
93
330
1F
100
AcDbEntity
  8
0-0
  6
Continuous
 62
     7
370
     9
100
AcDbLine
 10
-459.7650022034497
 20
640.5542245467035
 30
0.0
 11
-523.7777142628278
 21
640.5542245467035
 31
0.0
  0
LINE
  5
94
330
1F
100
AcDbEntity
  8
0-0
  6
Continuous
 62
    92
370
    13
100
AcDbLine
 10
-1047.765051691416
 20
-1012.445557396952
 30
0.0
 11
-474.7650516914155
 21
-1012.445557396952
 31
0.0
  0
LINE
  5
95
330
1F
100
AcDbEntity
  8
0-0
  6
Continuous
 62
    92
370
    13
100
AcDbLine
 10
-1047.765051691416
 20
-594.445557396952
 30
0.0
 11
-474.7650516914155
 21
-594.445557396952
 31
0.0
  0
LINE
  5
96
330
1F
100
AcDbEntity
  8
0-0
  6
Continuous
 62
    92
370
    13
100
AcDbLine
 10
-1047.765051691416
 20
-1012.445557396952
 30
0.0
 11
-1047.765051691416
 21
-594.445557396952
 31
0.0
  0
LINE
  5
97
330
1F
100
AcDbEntity
  8
0-0
  6
Continuous
 62
    92
370
    13
100
AcDbLine
 10
-474.7650516914155
 20
-1012.445557396952
 30
0.0
 11
-474.7650516914155
 21
-594.445557396952
 31
0.0
  0
LINE
  5
98
330
1F
100
AcDbEntity
  8
0-0
  6
Continuous
 62
    92
370
    13
100
AcDbLine
 10
-474.7650516914155
 20
625.5541750587395
 30
0.0
 11
-523.7777142628278
 21
625.5541750587395
 31
0.0
  0
ARC
  5
99
330
1F
100
AcDbEntity
  8
0-0
  6
Continuous
 62
    92
370
    13
100
AcDbCircle
 10
-523.7777142628278
 20
775.5541750587395
 30
0.0
 40
150.0
100
AcDbArc
 50
241.6422988763328
 51
270.0
  0
ARC
  5
9A
330
1F
100
AcDbEntity
  8
0-0
  6
Continuous
 62
    92
370
    13
100
AcDbCircle
 10
-761.2650516914158
 20
335.554442603048
 30
0.0
 40
350.0
100
AcDbArc
 50
61.64229887633292
 51
118.3577011236671
  0
ARC
  5
9B
330
1F
100
AcDbEntity
  8
0-0
  6
Continuous
 62
    92
370
    13
100
AcDbCircle
 10
-998.7523891200038
 20
775.5541750587395
 30
0.0
 40
150.0
100
AcDbArc
 50
270.0
 51
298.3577011236671
  0
LINE
  5
9C
330
1F
100
AcDbEntity
  8
0-0
  6
Continuous
 62
    92
370
    13
100
AcDbLine
 10
-1047.765051691418
 20
625.5541750587395
 30
0.0
 11
-998.7523891200038
 21
625.5541750587395
 31
0.0
  0
LINE
  5
9D
330
1F
100
AcDbEntity
  8
0-0
  6
Continuous
 62
    92
370
    13
100
AcDbLine
 10
-1047.765051691416
 20
-489.445557396952
 30
0.0
 11
-1047.765051691416
 21
625.5541750587395
 31
0.0
  0
LINE
  5
9E
330
1F
100
AcDbEntity
  8
0-0
  6
Continuous
 62
    92
370
    13
100
AcDbLine
 10
-1047.765051691416
 20
-489.445557396952
 30
0.0
 11
-474.7650516914155
 21
-489.445557396952
 31
0.0
  0
LINE
  5
9F
330
1F
100
AcDbEntity
  8
0-0
  6
Continuous
 62
    92
370
    13
100
AcDbLine
 10
-474.7650516914155
 20
-489.445557396952
 30
0.0
 11
-474.7650516914155
 21
625.5541750587395
 31
0.0
  0
LINE
  5
A0
330
1F
100
AcDbEntity
  8
0-0
  6
Continuous
 62
     7
370
     9
100
AcDbLine
 10
-267.7650516914161
 20
-1012.445557396952
 30
0.0
 11
-282.7650516914161
 21
-1027.445557396952
 31
0.0
  0
LINE
  5
A1
330
1F
100
AcDbEntity
  8
0-0
  6
Continuous
 62
     7
370
     9
100
AcDbLine
 10
-282.7650516914161
 20
-1162.445557396952
 30
0.0
 11
-282.7650516914161
 21
820.5544426030476
 31
0.0
  0
LINE
  5
A2
330
1F
100
AcDbEntity
  8
0-0
  6
Continuous
 62
     7
370
     9
100
AcDbLine
 10
305.2349483085845
 20
-1012.445557396952
 30
0.0
 11
320.2349483085845
 21
-1027.445557396952
 31
0.0
  0
LINE
  5
A3
330
1F
100
AcDbEntity
  8
0-0
  6
Continuous
 62
     7
370
     9
100
AcDbLine
 10
320.2349483085845
 20
-1162.445557396952
 30
0.0
 11
320.2349483085845
 21
820.5544426030476
 31
0.0
  0
LINE
  5
A4
330
1F
100
AcDbEntity
  8
0-0
  6
Continuous
 62
     7
370
     9
100
AcDbLine
 10
-282.7650516914161
 20
-1027.445557396952
 30
0.0
 11
320.2349483085845
 21
-1027.445557396952
 31
0.0
  0
LINE
  5
A5
330
1F
100
AcDbEntity
  8
0-0
  6
Continuous
 62
     7
370
     9
100
AcDbLine
 10
-267.7650516914161
 20
-489.445557396952
 30
0.0
 11
-282.7650516914161
 21
-504.445557396952
 31
0.0
  0
LINE
  5
A6
330
1F
100
AcDbEntity
  8
0-0
  6
Continuous
 62
     7
370
     9
100
AcDbLine
 10
-282.7650516914161
 20
-579.445557396952
 30
0.0
 11
-267.7650516914161
 21
-594.445557396952
 31
0.0
  0
LINE
  5
A7
330
1F
100
AcDbEntity
  8
0-0
  6
Continuous
 62
     7
370
     9
100
AcDbLine
 10
305.2349483085845
 20
-489.445557396952
 30
0.0
 11
320.2349483085845
 21
-504.445557396952
 31
0.0
  0
LINE
  5
A8
330
1F
100
AcDbEntity
  8
0-0
  6
Continuous
 62
     7
370
     9
100
AcDbLine
 10
320.2349483085845
 20
-579.445557396952
 30
0.0
 11
305.2349483085845
 21
-594.445557396952
 31
0.0
  0
LINE
  5
A9
330
1F
100
AcDbEntity
  8
0-0
  6
Continuous
 62
     7
370
     9
100
AcDbLine
 10
-282.7650516914161
 20
-504.445557396952
 30
0.0
 11
320.2349483085845
 21
-504.445557396952
 31
0.0
  0
LINE
  5
AA
330
1F
100
AcDbEntity
  8
0-0
  6
Continuous
 62
     7
370
     9
100
AcDbLine
 10
-282.7650516914161
 20
-579.445557396952
 30
0.0
 11
320.2349483085845
 21
-579.445557396952
 31
0.0
  0
LINE
  5
AB
330
1F
100
AcDbEntity
  8
0-0
  6
Continuous
 62
     7
370
     9
100
AcDbLine
 10
-237.7650516914161
 20
-982.4455573969522
 30
0.0
 11
-237.7650516914161
 21
-624.445557396952
 31
0.0
  0
LINE
  5
AC
330
1F
100
AcDbEntity
  8
0-0
  6
Continuous
 62
     7
370
     9
100
AcDbLine
 10
-237.7650516914161
 20
-982.4455573969522
 30
0.0
 11
-252.7650516914161
 21
-997.4455573969522
 31
0.0
  0
LINE
  5
AD
330
1F
100
AcDbEntity
  8
0-0
  6
Continuous
 62
     7
370
     9
100
AcDbLine
 10
-252.7650516914161
 20
-609.445557396952
 30
0.0
 11
-237.7650516914161
 21
-624.445557396952
 31
0.0
  0
LINE
  5
AE
330
1F
100
AcDbEntity
  8
0-0
  6
Continuous
 62
     7
370
     9
100
AcDbLine
 10
275.2349483085845
 20
-982.4455573969522
 30
0.0
 11
290.2349483085845
 21
-997.4455573969522
 31
0.0
  0
LINE
  5
AF
330
1F
100
AcDbEntity
  8
0-0
  6
Continuous
 62
     7
370
     9
100
AcDbLine
 10
290.2349483085845
 20
-609.445557396952
 30
0.0
 11
275.2349483085845
 21
-624.445557396952
 31
0.0
  0
LINE
  5
B0
330
1F
100
AcDbEntity
  8
0-0
  6
Continuous
 62
     7
370
     9
100
AcDbLine
 10
-237.7650516914161
 20
-624.445557396952
 30
0.0
 11
275.2349483085845
 21
-624.445557396952
 31
0.0
  0
LINE
  5
B1
330
1F
100
AcDbEntity
  8
0-0
  6
Continuous
 62
     7
370
     9
100
AcDbLine
 10
275.2349483085845
 20
-982.4455573969522
 30
0.0
 11
275.2349483085845
 21
-624.445557396952
 31
0.0
  0
LINE
  5
B2
330
1F
100
AcDbEntity
  8
0-0
  6
Continuous
 62
     7
370
     9
100
AcDbLine
 10
-237.7650516914161
 20
-982.4455573969522
 30
0.0
 11
275.2349483085845
 21
-982.4455573969522
 31
0.0
  0
LINE
  5
B3
330
1F
100
AcDbEntity
  8
0-0
  6
Continuous
 62
     7
370
     9
100
AcDbLine
 10
-267.7650516914179
 20
625.5541750587395
 30
0.0
 11
-282.7654476003619
 21
640.5545709676805
 31
0.0
  0
LINE
  5
B4
330
1F
100
AcDbEntity
  8
0-0
  6
Continuous
 62
     7
370
     9
100
AcDbLine
 10
305.2349483085845
 20
625.5541750587395
 30
0.0
 11
320.2349483085845
 21
640.5541750587395
 31
0.0
  0
ARC
  5
B5
330
1F
100
AcDbEntity
  8
0-0
  6
Continuous
 62
     7
370
     9
100
AcDbCircle
 10
-218.7523891200038
 20
775.5541750587395
 30
0.0
 40
135.0
100
AcDbArc
 50
270.0
 51
298.3577011236671
  0
ARC
  5
B6
330
1F
100
AcDbEntity
  8
0-0
  6
Continuous
 62
     7
370
     9
100
AcDbCircle
 10
256.2222857371722
 20
775.5541750587395
 30
0.0
 40
135.0
100
AcDbArc
 50
241.6422988763328
 51
270.0
  0
ARC
  5
B7
330
1F
100
AcDbEntity
  8
0-0
  6
Continuous
 62
     7
370
     9
100
AcDbCircle
 10
18.73494830858419
 20
335.554442603048
 30
0.0
 40
365.0
100
AcDbArc
 50
61.64229887633292
 51
118.3577011236671
  0
LINE
  5
B8
330
1F
100
AcDbEntity
  8
0-0
  6
Continuous
 62
     7
370
     9
100
AcDbLine
 10
-282.7651011793853
 20
640.5542245467035
 30
0.0
 11
-218.7523891200038
 21
640.5542245467035
 31
0.0
  0
LINE
  5
B9
330
1F
100
AcDbEntity
  8
0-0
  6
Continuous
 62
     7
370
     9
100
AcDbLine
 10
320.2349977965503
 20
640.5542245467035
 30
0.0
 11
256.2222857371722
 21
640.5542245467035
 31
0.0
  0
LINE
  5
BA
330
1F
100
AcDbEntity
  8
0-0
  6
Continuous
 62
    92
370
    13
100
AcDbLine
 10
-267.7650516914161
 20
-1012.445557396952
 30
0.0
 11
305.2349483085845
 21
-1012.445557396952
 31
0.0
  0
LINE
  5
BB
330
1F
100
AcDbEntity
  8
0-0
  6
Continuous
 62
    92
370
    13
100
AcDbLine
 10
-267.7650516914161
 20
-594.445557396952
 30
0.0
 11
305.2349483085845
 21
-594.445557396952
 31
0.0
  0
LINE
  5
BC
330
1F
100
AcDbEntity
  8
0-0
  6
Continuous
 62
    92
370
    13
100
AcDbLine
 10
-267.7650516914161
 20
-1012.445557396952
 30
0.0
 11
-267.7650516914161
 21
-594.445557396952
 31
0.0
  0
LINE
  5
BD
330
1F
100
AcDbEntity
  8
0-0
  6
Continuous
 62
    92
370
    13
100
AcDbLine
 10
305.2349483085845
 20
-1012.445557396952
 30
0.0
 11
305.2349483085845
 21
-594.445557396952
 31
0.0
  0
LINE
  5
BE
330
1F
100
AcDbEntity
  8
0-0
  6
Continuous
 62
    92
370
    13
100
AcDbLine
 10
305.2349483085845
 20
625.5541750587395
 30
0.0
 11
256.2222857371722
 21
625.5541750587395
 31
0.0
  0
ARC
  5
BF
330
1F
100
AcDbEntity
  8
0-0
  6
Continuous
 62
    92
370
    13
100
AcDbCircle
 10
256.2222857371722
 20
775.5541750587395
 30
0.0
 40
150.0
100
AcDbArc
 50
241.6422988763328
 51
270.0
  0
ARC
  5
C0
330
1F
100
AcDbEntity
  8
0-0
  6
Continuous
 62
    92
370
    13
100
AcDbCircle
 10
18.73494830858419
 20
335.554442603048
 30
0.0
 40
350.0
100
AcDbArc
 50
61.64229887633292
 51
118.3577011236671
  0
ARC
  5
C1
330
1F
100
AcDbEntity
  8
0-0
  6
Continuous
 62
    92
370
    13
100
AcDbCircle
 10
-218.7523891200038
 20
775.5541750587395
 30
0.0
 40
150.0
100
AcDbArc
 50
270.0
 51
298.3577011236671
  0
LINE
  5
C2
330
1F
100
AcDbEntity
  8
0-0
  6
Continuous
 62
    92
370
    13
100
AcDbLine
 10
-267.7650516914179
 20
625.5541750587395
 30
0.0
 11
-218.7523891200038
 21
625.5541750587395
 31
0.0
  0
LINE
  5
C3
330
1F
100
AcDbEntity
  8
0-0
  6
Continuous
 62
    92
370
    13
100
AcDbLine
 10
-267.7650516914161
 20
-489.445557396952
 30
0.0
 11
-267.7650516914161
 21
625.5541750587395
 31
0.0
  0
LINE
  5
C4
330
1F
100
AcDbEntity
  8
0-0
  6
Continuous
 62
    92
370
    13
100
AcDbLine
 10
-267.7650516914161
 20
-489.445557396952
 30
0.0
 11
305.2349483085845
 21
-489.445557396952
 31
0.0
  0
LINE
  5
C5
330
1F
100
AcDbEntity
  8
0-0
  6
Continuous
 62
    92
370
    13
100
AcDbLine
 10
305.2349483085845
 20
-489.445557396952
 30
0.0
 11
305.2349483085845
 21
625.5541750587395
 31
0.0
  0
LINE
  5
C6
330
1F
100
AcDbEntity
  8
0-0
  6
Continuous
 62
     7
370
     9
100
AcDbLine
 10
512.2349483085839
 20
-1012.445557396952
 30
0.0
 11
497.2349483085839
 21
-1027.445557396952
 31
0.0
  0
LINE
  5
C7
330
1F
100
AcDbEntity
  8
0-0
  6
Continuous
 62
     7
370
     9
100
AcDbLine
 10
497.2349483085839
 20
-1162.445557396952
 30
0.0
 11
497.2349483085839
 21
820.5544426030476
 31
0.0
  0
LINE
  5
C8
330
1F
100
AcDbEntity
  8
0-0
  6
Continuous
 62
     7
370
     9
100
AcDbLine
 10
1085.234948308585
 20
-1012.445557396952
 30
0.0
 11
1100.234948308585
 21
-1027.445557396952
 31
0.0
  0
LINE
  5
C9
330
1F
100
AcDbEntity
  8
0-0
  6
Continuous
 62
     7
370
     9
100
AcDbLine
 10
1100.234948308585
 20
-1162.445557396952
 30
0.0
 11
1100.234948308585
 21
820.5544426030476
 31
0.0
  0
LINE
  5
CA
330
1F
100
AcDbEntity
  8
0-0
  6
Continuous
 62
     7
370
     9
100
AcDbLine
 10
497.2349483085839
 20
-1027.445557396952
 30
0.0
 11
1100.234948308585
 21
-1027.445557396952
 31
0.0
  0
LINE
  5
CB
330
1F
100
AcDbEntity
  8
0-0
  6
Continuous
 62
     7
370
     9
100
AcDbLine
 10
512.2349483085839
 20
-489.445557396952
 30
0.0
 11
497.2349483085839
 21
-504.445557396952
 31
0.0
  0
LINE
  5
CC
330
1F
100
AcDbEntity
  8
0-0
  6
Continuous
 62
     7
370
     9
100
AcDbLine
 10
497.2349483085839
 20
-579.445557396952
 30
0.0
 11
512.2349483085839
 21
-594.445557396952
 31
0.0
  0
LINE
  5
CD
330
1F
100
AcDbEntity
  8
0-0
  6
Continuous
 62
     7
370
     9
100
AcDbLine
 10
1085.234948308585
 20
-489.445557396952
 30
0.0
 11
1100.234948308585
 21
-504.445557396952
 31
0.0
  0
LINE
  5
CE
330
1F
100
AcDbEntity
  8
0-0
  6
Continuous
 62
     7
370
     9
100
AcDbLine
 10
1100.234948308585
 20
-579.445557396952
 30
0.0
 11
1085.234948308585
 21
-594.445557396952
 31
0.0
  0
LINE
  5
CF
330
1F
100
AcDbEntity
  8
0-0
  6
Continuous
 62
     7
370
     9
100
AcDbLine
 10
497.2349483085839
 20
-504.445557396952
 30
0.0
 11
1100.234948308585
 21
-504.445557396952
 31
0.0
  0
LINE
  5
D0
330
1F
100
AcDbEntity
  8
0-0
  6
Continuous
 62
     7
370
     9
100
AcDbLine
 10
497.2349483085839
 20
-579.445557396952
 30
0.0
 11
1100.234948308585
 21
-579.445557396952
 31
0.0
  0
LINE
  5
D1
330
1F
100
AcDbEntity
  8
0-0
  6
Continuous
 62
     7
370
     9
100
AcDbLine
 10
542.2349483085839
 20
-982.4455573969522
 30
0.0
 11
542.2349483085839
 21
-624.445557396952
 31
0.0
  0
LINE
  5
D2
330
1F
100
AcDbEntity
  8
0-0
  6
Continuous
 62
     7
370
     9
100
AcDbLine
 10
542.2349483085839
 20
-982.4455573969522
 30
0.0
 11
527.2349483085839
 21
-997.4455573969522
 31
0.0
  0
LINE
  5
D3
330
1F
100
AcDbEntity
  8
0-0
  6
Continuous
 62
     7
370
     9
100
AcDbLine
 10
527.2349483085839
 20
-609.445557396952
 30
0.0
 11
542.2349483085839
 21
-624.445557396952
 31
0.0
  0
LINE
  5
D4
330
1F
100
AcDbEntity
  8
0-0
  6
Continuous
 62
     7
370
     9
100
AcDbLine
 10
1055.234948308585
 20
-982.4455573969522
 30
0.0
 11
1070.234948308585
 21
-997.4455573969522
 31
0.0
  0
LINE
  5
D5
330
1F
100
AcDbEntity
  8
0-0
  6
Continuous
 62
     7
370
     9
100
AcDbLine
 10
1070.234948308585
 20
-609.445557396952
 30
0.0
 11
1055.234948308585
 21
-624.445557396952
 31
0.0
  0
LINE
  5
D6
330
1F
100
AcDbEntity
  8
0-0
  6
Continuous
 62
     7
370
     9
100
AcDbLine
 10
542.2349483085839
 20
-624.445557396952
 30
0.0
 11
1055.234948308585
 21
-624.445557396952
 31
0.0
  0
LINE
  5
D7
330
1F
100
AcDbEntity
  8
0-0
  6
Continuous
 62
     7
370
     9
100
AcDbLine
 10
1055.234948308585
 20
-982.4455573969522
 30
0.0
 11
1055.234948308585
 21
-624.445557396952
 31
0.0
  0
LINE
  5
D8
330
1F
100
AcDbEntity
  8
0-0
  6
Continuous
 62
     7
370
     9
100
AcDbLine
 10
542.2349483085839
 20
-982.4455573969522
 30
0.0
 11
1055.234948308585
 21
-982.4455573969522
 31
0.0
  0
LINE
  5
D9
330
1F
100
AcDbEntity
  8
0-0
  6
Continuous
 62
     7
370
     9
100
AcDbLine
 10
512.2349483085821
 20
625.5541750587395
 30
0.0
 11
497.2345523996381
 21
640.5545709676805
 31
0.0
  0
LINE
  5
DA
330
1F
100
AcDbEntity
  8
0-0
  6
Continuous
 62
     7
370
     9
100
AcDbLine
 10
1085.234948308585
 20
625.5541750587395
 30
0.0
 11
1100.234948308585
 21
640.5541750587395
 31
0.0
  0
ARC
  5
DB
330
1F
100
AcDbEntity
  8
0-0
  6
Continuous
 62
     7
370
     9
100
AcDbCircle
 10
561.2476108799962
 20
775.5541750587395
 30
0.0
 40
135.0
100
AcDbArc
 50
270.0
 51
298.3577011236671
  0
ARC
  5
DC
330
1F
100
AcDbEntity
  8
0-0
  6
Continuous
 62
     7
370
     9
100
AcDbCircle
 10
1036.222285737172
 20
775.5541750587395
 30
0.0
 40
135.0
100
AcDbArc
 50
241.6422988763328
 51
270.0
  0
ARC
  5
DD
330
1F
100
AcDbEntity
  8
0-0
  6
Continuous
 62
     7
370
     9
100
AcDbCircle
 10
798.7349483085842
 20
335.554442603048
 30
0.0
 40
365.0
100
AcDbArc
 50
61.64229887633292
 51
118.3577011236671
  0
LINE
  5
DE
330
1F
100
AcDbEntity
  8
0-0
  6
Continuous
 62
     7
370
     9
100
AcDbLine
 10
497.2348988206147
 20
640.5542245467035
 30
0.0
 11
561.2476108799962
 21
640.5542245467035
 31
0.0
  0
LINE
  5
DF
330
1F
100
AcDbEntity
  8
0-0
  6
Continuous
 62
     7
370
     9
100
AcDbLine
 10
1100.23499779655
 20
640.5542245467035
 30
0.0
 11
1036.222285737172
 21
640.5542245467035
 31
0.0
  0
LINE
  5
E0
330
1F
100
AcDbEntity
  8
0-0
  6
Continuous
 62
    92
370
    13
100
AcDbLine
 10
512.2349483085839
 20
-1012.445557396952
 30
0.0
 11
1085.234948308585
 21
-1012.445557396952
 31
0.0
  0
LINE
  5
E1
330
1F
100
AcDbEntity
  8
0-0
  6
Continuous
 62
    92
370
    13
100
AcDbLine
 10
512.2349483085839
 20
-594.445557396952
 30
0.0
 11
1085.234948308585
 21
-594.445557396952
 31
0.0
  0
LINE
  5
E2
330
1F
100
AcDbEntity
  8
0-0
  6
Continuous
 62
    92
370
    13
100
AcDbLine
 10
512.2349483085839
 20
-1012.445557396952
 30
0.0
 11
512.2349483085839
 21
-594.445557396952
 31
0.0
  0
LINE
  5
E3
330
1F
100
AcDbEntity
  8
0-0
  6
Continuous
 62
    92
370
    13
100
AcDbLine
 10
1085.234948308585
 20
-1012.445557396952
 30
0.0
 11
1085.234948308585
 21
-594.445557396952
 31
0.0
  0
LINE
  5
E4
330
1F
100
AcDbEntity
  8
0-0
  6
Continuous
 62
    92
370
    13
100
AcDbLine
 10
1085.234948308585
 20
625.5541750587395
 30
0.0
 11
1036.222285737172
 21
625.5541750587395
 31
0.0
  0
ARC
  5
E5
330
1F
100
AcDbEntity
  8
0-0
  6
Continuous
 62
    92
370
    13
100
AcDbCircle
 10
1036.222285737172
 20
775.5541750587395
 30
0.0
 40
150.0
100
AcDbArc
 50
241.6422988763328
 51
270.0
  0
ARC
  5
E6
330
1F
100
AcDbEntity
  8
0-0
  6
Continuous
 62
    92
370
    13
100
AcDbCircle
 10
798.7349483085842
 20
335.554442603048
 30
0.0
 40
350.0
100
AcDbArc
 50
61.64229887633292
 51
118.3577011236671
  0
ARC
  5
E7
330
1F
100
AcDbEntity
  8
0-0
  6
Continuous
 62
    92
370
    13
100
AcDbCircle
 10
561.2476108799962
 20
775.5541750587395
 30
0.0
 40
150.0
100
AcDbArc
 50
270.0
 51
298.3577011236671
  0
LINE
  5
E8
330
1F
100
AcDbEntity
  8
0-0
  6
Continuous
 62
    92
370
    13
100
AcDbLine
 10
512.2349483085821
 20
625.5541750587395
 30
0.0
 11
561.2476108799962
 21
625.5541750587395
 31
0.0
  0
LINE
  5
E9
330
1F
100
AcDbEntity
  8
0-0
  6
Continuous
 62
    92
370
    13
100
AcDbLine
 10
512.2349483085839
 20
-489.445557396952
 30
0.0
 11
512.2349483085839
 21
625.5541750587395
 31
0.0
  0
LINE
  5
EA
330
1F
100
AcDbEntity
  8
0-0
  6
Continuous
 62
    92
370
    13
100
AcDbLine
 10
512.2349483085839
 20
-489.445557396952
 30
0.0
 11
1085.234948308585
 21
-489.445557396952
 31
0.0
  0
LINE
  5
EB
330
1F
100
AcDbEntity
  8
0-0
  6
Continuous
 62
    92
370
    13
100
AcDbLine
 10
1085.234948308585
 20
-489.445557396952
 30
0.0
 11
1085.234948308585
 21
625.5541750587395
 31
0.0
  0
LINE
  5
EC
330
1F
100
AcDbEntity
  8
0-0
  6
JWW_DASHED1
 62
   120
370
     5
100
AcDbLine
 10
-1047.765051691416
 20
-488.4457057108956
 30
0.0
 11
-474.7650516914155
 21
-488.4457057108956
 31
0.0
  0
LINE
  5
ED
330
1F
100
AcDbEntity
  8
0-0
  6
JWW_DASHED1
 62
   120
370
     5
100
AcDbLine
 10
-1047.765051691416
 20
-475.445705709796
 30
0.0
 11
-474.7650516914155
 21
-475.445705709796
 31
0.0
  0
LINE
  5
EE
330
1F
100
AcDbEntity
  8
0-0
  6
JWW_DASHED1
 62
   120
370
     5
100
AcDbLine
 10
-1047.765051691416
 20
-474.4457057098958
 30
0.0
 11
-474.7650516914155
 21
-474.4457057098958
 31
0.0
  0
LINE
  5
EF
330
1F
100
AcDbEntity
  8
0-0
  6
JWW_DASHED1
 62
   120
370
     5
100
AcDbLine
 10
-1047.765051691416
 20
-461.4457057087963
 30
0.0
 11
-474.7650516914155
 21
-461.4457057087963
 31
0.0
  0
LINE
  5
F0
330
1F
100
AcDbEntity
  8
0-0
  6
JWW_DASHED1
 62
   120
370
     5
100
AcDbLine
 10
-1047.765051691416
 20
-460.4457057088961
 30
0.0
 11
-474.7650516914155
 21
-460.4457057088961
 31
0.0
  0
LINE
  5
F1
330
1F
100
AcDbEntity
  8
0-0
  6
JWW_DASHED1
 62
   120
370
     5
100
AcDbLine
 10
-1047.765051691416
 20
-447.4457057077964
 30
0.0
 11
-474.7650516914155
 21
-447.4457057077964
 31
0.0
  0
LINE
  5
F2
330
1F
100
AcDbEntity
  8
0-0
  6
JWW_DASHED1
 62
   120
370
     5
100
AcDbLine
 10
-1047.765051691416
 20
-446.4457057078963
 30
0.0
 11
-474.7650516914155
 21
-446.4457057078963
 31
0.0
  0
LINE
  5
F3
330
1F
100
AcDbEntity
  8
0-0
  6
JWW_DASHED1
 62
   120
370
     5
100
AcDbLine
 10
-1047.765051691416
 20
-433.4457057067966
 30
0.0
 11
-474.7650516914155
 21
-433.4457057067966
 31
0.0
  0
LINE
  5
F4
330
1F
100
AcDbEntity
  8
0-0
  6
JWW_DASHED1
 62
   120
370
     5
100
AcDbLine
 10
-1047.765051691416
 20
-432.4457057068964
 30
0.0
 11
-474.7650516914155
 21
-432.4457057068964
 31
0.0
  0
LINE
  5
F5
330
1F
100
AcDbEntity
  8
0-0
  6
JWW_DASHED1
 62
   120
370
     5
100
AcDbLine
 10
-1047.765051691416
 20
-419.4457057057969
 30
0.0
 11
-474.7650516914155
 21
-419.4457057057969
 31
0.0
  0
LINE
  5
F6
330
1F
100
AcDbEntity
  8
0-0
  6
JWW_DASHED1
 62
   120
370
     5
100
AcDbLine
 10
-1047.765051691416
 20
-418.4457057058967
 30
0.0
 11
-474.7650516914155
 21
-418.4457057058967
 31
0.0
  0
LINE
  5
F7
330
1F
100
AcDbEntity
  8
0-0
  6
JWW_DASHED1
 62
   120
370
     5
100
AcDbLine
 10
-1047.765051691416
 20
-405.4457057047971
 30
0.0
 11
-474.7650516914155
 21
-405.4457057047971
 31
0.0
  0
LINE
  5
F8
330
1F
100
AcDbEntity
  8
0-0
  6
JWW_DASHED1
 62
   120
370
     5
100
AcDbLine
 10
-1047.765051691416
 20
-404.4457057048969
 30
0.0
 11
-474.7650516914155
 21
-404.4457057048969
 31
0.0
  0
LINE
  5
F9
330
1F
100
AcDbEntity
  8
0-0
  6
JWW_DASHED1
 62
   120
370
     5
100
AcDbLine
 10
-1047.765051691416
 20
-391.4457057037973
 30
0.0
 11
-474.7650516914155
 21
-391.4457057037973
 31
0.0
  0
LINE
  5
FA
330
1F
100
AcDbEntity
  8
0-0
  6
JWW_DASHED1
 62
   120
370
     5
100
AcDbLine
 10
-1047.765051691416
 20
-390.4457057038971
 30
0.0
 11
-474.7650516914155
 21
-390.4457057038971
 31
0.0
  0
LINE
  5
FB
330
1F
100
AcDbEntity
  8
0-0
  6
JWW_DASHED1
 62
   120
370
     5
100
AcDbLine
 10
-1047.765051691416
 20
-377.4457057027975
 30
0.0
 11
-474.7650516914155
 21
-377.4457057027975
 31
0.0
  0
LINE
  5
FC
330
1F
100
AcDbEntity
  8
0-0
  6
JWW_DASHED1
 62
   120
370
     5
100
AcDbLine
 10
-1047.765051691416
 20
-376.4457057028973
 30
0.0
 11
-474.7650516914155
 21
-376.4457057028973
 31
0.0
  0
LINE
  5
FD
330
1F
100
AcDbEntity
  8
0-0
  6
JWW_DASHED1
 62
   120
370
     5
100
AcDbLine
 10
-1047.765051691416
 20
-363.4457057017977
 30
0.0
 11
-474.7650516914155
 21
-363.4457057017977
 31
0.0
  0
LINE
  5
FE
330
1F
100
AcDbEntity
  8
0-0
  6
JWW_DASHED1
 62
   120
370
     5
100
AcDbLine
 10
-1047.765051691416
 20
-362.4457057018975
 30
0.0
 11
-474.7650516914155
 21
-362.4457057018975
 31
0.0
  0
LINE
  5
FF
330
1F
100
AcDbEntity
  8
0-0
  6
JWW_DASHED1
 62
   120
370
     5
100
AcDbLine
 10
-1047.765051691416
 20
-349.4457057007979
 30
0.0
 11
-474.7650516914155
 21
-349.4457057007979
 31
0.0
  0
LINE
  5
100
330
1F
100
AcDbEntity
  8
0-0
  6
JWW_DASHED1
 62
   120
370
     5
100
AcDbLine
 10
-1047.765051691416
 20
-348.4457057008977
 30
0.0
 11
-474.7650516914155
 21
-348.4457057008977
 31
0.0
  0
LINE
  5
101
330
1F
100
AcDbEntity
  8
0-0
  6
JWW_DASHED1
 62
   120
370
     5
100
AcDbLine
 10
-1047.765051691416
 20
-335.4457056997981
 30
0.0
 11
-474.7650516914155
 21
-335.4457056997981
 31
0.0
  0
LINE
  5
102
330
1F
100
AcDbEntity
  8
0-0
  6
JWW_DASHED1
 62
   120
370
     5
100
AcDbLine
 10
-1047.765051691416
 20
-334.4457056998979
 30
0.0
 11
-474.7650516914155
 21
-334.4457056998979
 31
0.0
  0
LINE
  5
103
330
1F
100
AcDbEntity
  8
0-0
  6
JWW_DASHED1
 62
   120
370
     5
100
AcDbLine
 10
-1047.765051691416
 20
-321.4457056987983
 30
0.0
 11
-474.7650516914155
 21
-321.4457056987983
 31
0.0
  0
LINE
  5
104
330
1F
100
AcDbEntity
  8
0-0
  6
JWW_DASHED1
 62
   120
370
     5
100
AcDbLine
 10
-1047.765051691416
 20
-320.4457056988981
 30
0.0
 11
-474.7650516914155
 21
-320.4457056988981
 31
0.0
  0
LINE
  5
105
330
1F
100
AcDbEntity
  8
0-0
  6
JWW_DASHED1
 62
   120
370
     5
100
AcDbLine
 10
-1047.765051691416
 20
-307.4457056977985
 30
0.0
 11
-474.7650516914155
 21
-307.4457056977985
 31
0.0
  0
LINE
  5
106
330
1F
100
AcDbEntity
  8
0-0
  6
JWW_DASHED1
 62
   120
370
     5
100
AcDbLine
 10
-1047.765051691416
 20
-306.4457056978983
 30
0.0
 11
-474.7650516914155
 21
-306.4457056978983
 31
0.0
  0
LINE
  5
107
330
1F
100
AcDbEntity
  8
0-0
  6
JWW_DASHED1
 62
   120
370
     5
100
AcDbLine
 10
-1047.765051691416
 20
-293.4457056967988
 30
0.0
 11
-474.7650516914155
 21
-293.4457056967988
 31
0.0
  0
LINE
  5
108
330
1F
100
AcDbEntity
  8
0-0
  6
JWW_DASHED1
 62
   120
370
     5
100
AcDbLine
 10
-1047.765051691416
 20
-292.4457056968986
 30
0.0
 11
-474.7650516914155
 21
-292.4457056968986
 31
0.0
  0
LINE
  5
109
330
1F
100
AcDbEntity
  8
0-0
  6
JWW_DASHED1
 62
   120
370
     5
100
AcDbLine
 10
-1047.765051691416
 20
-279.4457056957989
 30
0.0
 11
-474.7650516914155
 21
-279.4457056957989
 31
0.0
  0
LINE
  5
10A
330
1F
100
AcDbEntity
  8
0-0
  6
JWW_DASHED1
 62
   120
370
     5
100
AcDbLine
 10
-1047.765051691416
 20
-278.4457056958988
 30
0.0
 11
-474.7650516914155
 21
-278.4457056958988
 31
0.0
  0
LINE
  5
10B
330
1F
100
AcDbEntity
  8
0-0
  6
JWW_DASHED1
 62
   120
370
     5
100
AcDbLine
 10
-1047.765051691416
 20
-265.4457056947991
 30
0.0
 11
-474.7650516914155
 21
-265.4457056947991
 31
0.0
  0
LINE
  5
10C
330
1F
100
AcDbEntity
  8
0-0
  6
JWW_DASHED1
 62
   120
370
     5
100
AcDbLine
 10
-1047.765051691416
 20
-264.4457056948989
 30
0.0
 11
-474.7650516914155
 21
-264.4457056948989
 31
0.0
  0
LINE
  5
10D
330
1F
100
AcDbEntity
  8
0-0
  6
JWW_DASHED1
 62
   120
370
     5
100
AcDbLine
 10
-1047.765051691416
 20
-251.4457056937994
 30
0.0
 11
-474.7650516914155
 21
-251.4457056937994
 31
0.0
  0
LINE
  5
10E
330
1F
100
AcDbEntity
  8
0-0
  6
JWW_DASHED1
 62
   120
370
     5
100
AcDbLine
 10
-1047.765051691416
 20
-250.4457056938992
 30
0.0
 11
-474.7650516914155
 21
-250.4457056938992
 31
0.0
  0
LINE
  5
10F
330
1F
100
AcDbEntity
  8
0-0
  6
JWW_DASHED1
 62
   120
370
     5
100
AcDbLine
 10
-1047.765051691416
 20
-237.4457056927996
 30
0.0
 11
-474.7650516914155
 21
-237.4457056927996
 31
0.0
  0
LINE
  5
110
330
1F
100
AcDbEntity
  8
0-0
  6
JWW_DASHED1
 62
   120
370
     5
100
AcDbLine
 10
-1047.765051691416
 20
-236.4457056928994
 30
0.0
 11
-474.7650516914155
 21
-236.4457056928994
 31
0.0
  0
LINE
  5
111
330
1F
100
AcDbEntity
  8
0-0
  6
JWW_DASHED1
 62
   120
370
     5
100
AcDbLine
 10
-1047.765051691416
 20
-223.4457056917998
 30
0.0
 11
-474.7650516914155
 21
-223.4457056917998
 31
0.0
  0
LINE
  5
112
330
1F
100
AcDbEntity
  8
0-0
  6
JWW_DASHED1
 62
   120
370
     5
100
AcDbLine
 10
-1047.765051691416
 20
-222.4457056918996
 30
0.0
 11
-474.7650516914155
 21
-222.4457056918996
 31
0.0
  0
LINE
  5
113
330
1F
100
AcDbEntity
  8
0-0
  6
JWW_DASHED1
 62
   120
370
     5
100
AcDbLine
 10
-1047.765051691416
 20
-209.4457056908
 30
0.0
 11
-474.7650516914155
 21
-209.4457056908
 31
0.0
  0
LINE
  5
114
330
1F
100
AcDbEntity
  8
0-0
  6
JWW_DASHED1
 62
   120
370
     5
100
AcDbLine
 10
-1047.765051691416
 20
-208.4457056908998
 30
0.0
 11
-474.7650516914155
 21
-208.4457056908998
 31
0.0
  0
LINE
  5
115
330
1F
100
AcDbEntity
  8
0-0
  6
JWW_DASHED1
 62
   120
370
     5
100
AcDbLine
 10
-1047.765051691416
 20
-195.4457056898002
 30
0.0
 11
-474.7650516914155
 21
-195.4457056898002
 31
0.0
  0
LINE
  5
116
330
1F
100
AcDbEntity
  8
0-0
  6
JWW_DASHED1
 62
   120
370
     5
100
AcDbLine
 10
-1047.765051691416
 20
-194.4457056899
 30
0.0
 11
-474.7650516914155
 21
-194.4457056899
 31
0.0
  0
LINE
  5
117
330
1F
100
AcDbEntity
  8
0-0
  6
JWW_DASHED1
 62
   120
370
     5
100
AcDbLine
 10
-1047.765051691416
 20
-181.4457056888004
 30
0.0
 11
-474.7650516914155
 21
-181.4457056888004
 31
0.0
  0
LINE
  5
118
330
1F
100
AcDbEntity
  8
0-0
  6
JWW_DASHED1
 62
   120
370
     5
100
AcDbLine
 10
-1047.765051691416
 20
-180.4457056889002
 30
0.0
 11
-474.7650516914155
 21
-180.4457056889002
 31
0.0
  0
LINE
  5
119
330
1F
100
AcDbEntity
  8
0-0
  6
JWW_DASHED1
 62
   120
370
     5
100
AcDbLine
 10
-1047.765051691416
 20
-167.4457056878006
 30
0.0
 11
-474.7650516914155
 21
-167.4457056878006
 31
0.0
  0
LINE
  5
11A
330
1F
100
AcDbEntity
  8
0-0
  6
JWW_DASHED1
 62
   120
370
     5
100
AcDbLine
 10
-1047.765051691416
 20
-166.4457056879004
 30
0.0
 11
-474.7650516914155
 21
-166.4457056879004
 31
0.0
  0
LINE
  5
11B
330
1F
100
AcDbEntity
  8
0-0
  6
JWW_DASHED1
 62
   120
370
     5
100
AcDbLine
 10
-1047.765051691416
 20
-153.4457056868008
 30
0.0
 11
-474.7650516914155
 21
-153.4457056868008
 31
0.0
  0
LINE
  5
11C
330
1F
100
AcDbEntity
  8
0-0
  6
JWW_DASHED1
 62
   120
370
     5
100
AcDbLine
 10
-1047.765051691416
 20
-152.4457056869007
 30
0.0
 11
-474.7650516914155
 21
-152.4457056869007
 31
0.0
  0
LINE
  5
11D
330
1F
100
AcDbEntity
  8
0-0
  6
JWW_DASHED1
 62
   120
370
     5
100
AcDbLine
 10
-1047.765051691416
 20
-139.445705685801
 30
0.0
 11
-474.7650516914155
 21
-139.445705685801
 31
0.0
  0
LINE
  5
11E
330
1F
100
AcDbEntity
  8
0-0
  6
JWW_DASHED1
 62
   120
370
     5
100
AcDbLine
 10
-1047.765051691416
 20
-138.4457056859009
 30
0.0
 11
-474.7650516914155
 21
-138.4457056859009
 31
0.0
  0
LINE
  5
11F
330
1F
100
AcDbEntity
  8
0-0
  6
JWW_DASHED1
 62
   120
370
     5
100
AcDbLine
 10
-1047.765051691416
 20
-125.4457056848013
 30
0.0
 11
-474.7650516914155
 21
-125.4457056848013
 31
0.0
  0
LINE
  5
120
330
1F
100
AcDbEntity
  8
0-0
  6
JWW_DASHED1
 62
   120
370
     5
100
AcDbLine
 10
-1047.765051691416
 20
-124.4457056849011
 30
0.0
 11
-474.7650516914155
 21
-124.4457056849011
 31
0.0
  0
LINE
  5
121
330
1F
100
AcDbEntity
  8
0-0
  6
JWW_DASHED1
 62
   120
370
     5
100
AcDbLine
 10
-1047.765051691416
 20
-111.4457056838015
 30
0.0
 11
-474.7650516914155
 21
-111.4457056838015
 31
0.0
  0
LINE
  5
122
330
1F
100
AcDbEntity
  8
0-0
  6
JWW_DASHED1
 62
   120
370
     5
100
AcDbLine
 10
-1047.765051691416
 20
-110.4457056839013
 30
0.0
 11
-474.7650516914155
 21
-110.4457056839013
 31
0.0
  0
LINE
  5
123
330
1F
100
AcDbEntity
  8
0-0
  6
JWW_DASHED1
 62
   120
370
     5
100
AcDbLine
 10
-1047.765051691416
 20
-97.44570568280167
 30
0.0
 11
-474.7650516914155
 21
-97.44570568280167
 31
0.0
  0
LINE
  5
124
330
1F
100
AcDbEntity
  8
0-0
  6
JWW_DASHED1
 62
   120
370
     5
100
AcDbLine
 10
-1047.765051691416
 20
-96.44570568290149
 30
0.0
 11
-474.7650516914155
 21
-96.44570568290149
 31
0.0
  0
LINE
  5
125
330
1F
100
AcDbEntity
  8
0-0
  6
JWW_DASHED1
 62
   120
370
     5
100
AcDbLine
 10
-1047.765051691416
 20
-83.44570568180188
 30
0.0
 11
-474.7650516914155
 21
-83.44570568180188
 31
0.0
  0
LINE
  5
126
330
1F
100
AcDbEntity
  8
0-0
  6
JWW_DASHED1
 62
   120
370
     5
100
AcDbLine
 10
-1047.765051691416
 20
-82.4457056819017
 30
0.0
 11
-474.7650516914155
 21
-82.4457056819017
 31
0.0
  0
LINE
  5
127
330
1F
100
AcDbEntity
  8
0-0
  6
JWW_DASHED1
 62
   120
370
     5
100
AcDbLine
 10
-1047.765051691416
 20
-69.44570568080209
 30
0.0
 11
-474.7650516914155
 21
-69.44570568080209
 31
0.0
  0
LINE
  5
128
330
1F
100
AcDbEntity
  8
0-0
  6
JWW_DASHED1
 62
   120
370
     5
100
AcDbLine
 10
-1047.765051691416
 20
-68.44570568090191
 30
0.0
 11
-474.7650516914155
 21
-68.44570568090191
 31
0.0
  0
LINE
  5
129
330
1F
100
AcDbEntity
  8
0-0
  6
JWW_DASHED1
 62
   120
370
     5
100
AcDbLine
 10
-1047.765051691416
 20
-55.4457056798023
 30
0.0
 11
-474.7650516914155
 21
-55.4457056798023
 31
0.0
  0
LINE
  5
12A
330
1F
100
AcDbEntity
  8
0-0
  6
JWW_DASHED1
 62
   120
370
     5
100
AcDbLine
 10
-1047.765051691416
 20
-54.44570567990212
 30
0.0
 11
-474.7650516914155
 21
-54.44570567990212
 31
0.0
  0
LINE
  5
12B
330
1F
100
AcDbEntity
  8
0-0
  6
JWW_DASHED1
 62
   120
370
     5
100
AcDbLine
 10
-1047.765051691416
 20
-41.44570567880251
 30
0.0
 11
-474.7650516914155
 21
-41.44570567880251
 31
0.0
  0
LINE
  5
12C
330
1F
100
AcDbEntity
  8
0-0
  6
JWW_DASHED1
 62
   120
370
     5
100
AcDbLine
 10
-1047.765051691416
 20
-40.44570567890233
 30
0.0
 11
-474.7650516914155
 21
-40.44570567890233
 31
0.0
  0
LINE
  5
12D
330
1F
100
AcDbEntity
  8
0-0
  6
JWW_DASHED1
 62
   120
370
     5
100
AcDbLine
 10
-1047.765051691416
 20
-27.44570567780272
 30
0.0
 11
-474.7650516914155
 21
-27.44570567780272
 31
0.0
  0
LINE
  5
12E
330
1F
100
AcDbEntity
  8
0-0
  6
JWW_DASHED1
 62
   120
370
     5
100
AcDbLine
 10
-1047.765051691416
 20
-26.44570567790254
 30
0.0
 11
-474.7650516914155
 21
-26.44570567790254
 31
0.0
  0
LINE
  5
12F
330
1F
100
AcDbEntity
  8
0-0
  6
JWW_DASHED1
 62
   120
370
     5
100
AcDbLine
 10
-1047.765051691416
 20
-13.44570567680293
 30
0.0
 11
-474.7650516914155
 21
-13.44570567680293
 31
0.0
  0
LINE
  5
130
330
1F
100
AcDbEntity
  8
0-0
  6
JWW_DASHED1
 62
   120
370
     5
100
AcDbLine
 10
-1047.765051691416
 20
-12.44570567690275
 30
0.0
 11
-474.7650516914155
 21
-12.44570567690275
 31
0.0
  0
LINE
  5
131
330
1F
100
AcDbEntity
  8
0-0
  6
JWW_DASHED1
 62
   120
370
     5
100
AcDbLine
 10
-1047.765051691416
 20
0.5542943241968601
 30
0.0
 11
-474.7650516914155
 21
0.5542943241968601
 31
0.0
  0
LINE
  5
132
330
1F
100
AcDbEntity
  8
0-0
  6
JWW_DASHED1
 62
   120
370
     5
100
AcDbLine
 10
-1047.765051691416
 20
1.554294324097043
 30
0.0
 11
-474.7650516914155
 21
1.554294324097043
 31
0.0
  0
LINE
  5
133
330
1F
100
AcDbEntity
  8
0-0
  6
JWW_DASHED1
 62
   120
370
     5
100
AcDbLine
 10
-1047.765051691416
 20
14.55429432519665
 30
0.0
 11
-474.7650516914155
 21
14.55429432519665
 31
0.0
  0
LINE
  5
134
330
1F
100
AcDbEntity
  8
0-0
  6
JWW_DASHED1
 62
   120
370
     5
100
AcDbLine
 10
-1047.765051691416
 20
15.55429432509683
 30
0.0
 11
-474.7650516914155
 21
15.55429432509683
 31
0.0
  0
LINE
  5
135
330
1F
100
AcDbEntity
  8
0-0
  6
JWW_DASHED1
 62
   120
370
     5
100
AcDbLine
 10
-1047.765051691416
 20
28.55429432619644
 30
0.0
 11
-474.7650516914155
 21
28.55429432619644
 31
0.0
  0
LINE
  5
136
330
1F
100
AcDbEntity
  8
0-0
  6
JWW_DASHED1
 62
   120
370
     5
100
AcDbLine
 10
-1047.765051691416
 20
29.55429432609662
 30
0.0
 11
-474.7650516914155
 21
29.55429432609662
 31
0.0
  0
LINE
  5
137
330
1F
100
AcDbEntity
  8
0-0
  6
JWW_DASHED1
 62
   120
370
     5
100
AcDbLine
 10
-1047.765051691416
 20
42.55429432719623
 30
0.0
 11
-474.7650516914155
 21
42.55429432719623
 31
0.0
  0
LINE
  5
138
330
1F
100
AcDbEntity
  8
0-0
  6
JWW_DASHED1
 62
   120
370
     5
100
AcDbLine
 10
-1047.765051691416
 20
43.55429432709641
 30
0.0
 11
-474.7650516914155
 21
43.55429432709641
 31
0.0
  0
LINE
  5
139
330
1F
100
AcDbEntity
  8
0-0
  6
JWW_DASHED1
 62
   120
370
     5
100
AcDbLine
 10
-1047.765051691416
 20
56.55429432819602
 30
0.0
 11
-474.7650516914155
 21
56.55429432819602
 31
0.0
  0
LINE
  5
13A
330
1F
100
AcDbEntity
  8
0-0
  6
JWW_DASHED1
 62
   120
370
     5
100
AcDbLine
 10
-1047.765051691416
 20
57.5542943280962
 30
0.0
 11
-474.7650516914155
 21
57.5542943280962
 31
0.0
  0
LINE
  5
13B
330
1F
100
AcDbEntity
  8
0-0
  6
JWW_DASHED1
 62
   120
370
     5
100
AcDbLine
 10
-1047.765051691416
 20
70.55429432919581
 30
0.0
 11
-474.7650516914155
 21
70.55429432919581
 31
0.0
  0
LINE
  5
13C
330
1F
100
AcDbEntity
  8
0-0
  6
JWW_DASHED1
 62
   120
370
     5
100
AcDbLine
 10
-1047.765051691416
 20
71.554294329096
 30
0.0
 11
-474.7650516914155
 21
71.554294329096
 31
0.0
  0
LINE
  5
13D
330
1F
100
AcDbEntity
  8
0-0
  6
JWW_DASHED1
 62
   120
370
     5
100
AcDbLine
 10
-1047.765051691416
 20
84.5542943301956
 30
0.0
 11
-474.7650516914155
 21
84.5542943301956
 31
0.0
  0
LINE
  5
13E
330
1F
100
AcDbEntity
  8
0-0
  6
JWW_DASHED1
 62
   120
370
     5
100
AcDbLine
 10
-1047.765051691416
 20
85.55429433009579
 30
0.0
 11
-474.7650516914155
 21
85.55429433009579
 31
0.0
  0
LINE
  5
13F
330
1F
100
AcDbEntity
  8
0-0
  6
JWW_DASHED1
 62
   120
370
     5
100
AcDbLine
 10
-1047.765051691416
 20
98.5542943311954
 30
0.0
 11
-474.7650516914155
 21
98.5542943311954
 31
0.0
  0
LINE
  5
140
330
1F
100
AcDbEntity
  8
0-0
  6
JWW_DASHED1
 62
   120
370
     5
100
AcDbLine
 10
-1047.765051691416
 20
99.55429433109558
 30
0.0
 11
-474.7650516914155
 21
99.55429433109558
 31
0.0
  0
LINE
  5
141
330
1F
100
AcDbEntity
  8
0-0
  6
JWW_DASHED1
 62
   120
370
     5
100
AcDbLine
 10
-1047.765051691416
 20
112.5542943321952
 30
0.0
 11
-474.7650516914155
 21
112.5542943321952
 31
0.0
  0
LINE
  5
142
330
1F
100
AcDbEntity
  8
0-0
  6
JWW_DASHED1
 62
   120
370
     5
100
AcDbLine
 10
-1047.765051691416
 20
113.5542943320954
 30
0.0
 11
-474.7650516914155
 21
113.5542943320954
 31
0.0
  0
LINE
  5
143
330
1F
100
AcDbEntity
  8
0-0
  6
JWW_DASHED1
 62
   120
370
     5
100
AcDbLine
 10
-1047.765051691416
 20
126.554294333195
 30
0.0
 11
-474.7650516914155
 21
126.554294333195
 31
0.0
  0
LINE
  5
144
330
1F
100
AcDbEntity
  8
0-0
  6
JWW_DASHED1
 62
   120
370
     5
100
AcDbLine
 10
-1047.765051691416
 20
127.5542943330952
 30
0.0
 11
-474.7650516914155
 21
127.5542943330952
 31
0.0
  0
LINE
  5
145
330
1F
100
AcDbEntity
  8
0-0
  6
JWW_DASHED1
 62
   120
370
     5
100
AcDbLine
 10
-1047.765051691416
 20
140.5542943341948
 30
0.0
 11
-474.7650516914155
 21
140.5542943341948
 31
0.0
  0
LINE
  5
146
330
1F
100
AcDbEntity
  8
0-0
  6
JWW_DASHED1
 62
   120
370
     5
100
AcDbLine
 10
-1047.765051691416
 20
141.5542943340949
 30
0.0
 11
-474.7650516914155
 21
141.5542943340949
 31
0.0
  0
LINE
  5
147
330
1F
100
AcDbEntity
  8
0-0
  6
JWW_DASHED1
 62
   120
370
     5
100
AcDbLine
 10
-1047.765051691416
 20
154.5542943351946
 30
0.0
 11
-474.7650516914155
 21
154.5542943351946
 31
0.0
  0
LINE
  5
148
330
1F
100
AcDbEntity
  8
0-0
  6
JWW_DASHED1
 62
   120
370
     5
100
AcDbLine
 10
-1047.765051691416
 20
155.5542943350947
 30
0.0
 11
-474.7650516914155
 21
155.5542943350947
 31
0.0
  0
LINE
  5
149
330
1F
100
AcDbEntity
  8
0-0
  6
JWW_DASHED1
 62
   120
370
     5
100
AcDbLine
 10
-1047.765051691416
 20
168.5542943361943
 30
0.0
 11
-474.7650516914155
 21
168.5542943361943
 31
0.0
  0
LINE
  5
14A
330
1F
100
AcDbEntity
  8
0-0
  6
JWW_DASHED1
 62
   120
370
     5
100
AcDbLine
 10
-1047.765051691416
 20
169.5542943360945
 30
0.0
 11
-474.7650516914155
 21
169.5542943360945
 31
0.0
  0
LINE
  5
14B
330
1F
100
AcDbEntity
  8
0-0
  6
JWW_DASHED1
 62
   120
370
     5
100
AcDbLine
 10
-1047.765051691416
 20
182.5542943371941
 30
0.0
 11
-474.7650516914155
 21
182.5542943371941
 31
0.0
  0
LINE
  5
14C
330
1F
100
AcDbEntity
  8
0-0
  6
JWW_DASHED1
 62
   120
370
     5
100
AcDbLine
 10
-1047.765051691416
 20
183.5542943370943
 30
0.0
 11
-474.7650516914155
 21
183.5542943370943
 31
0.0
  0
LINE
  5
14D
330
1F
100
AcDbEntity
  8
0-0
  6
JWW_DASHED1
 62
   120
370
     5
100
AcDbLine
 10
-1047.765051691416
 20
196.5542943381939
 30
0.0
 11
-474.7650516914155
 21
196.5542943381939
 31
0.0
  0
LINE
  5
14E
330
1F
100
AcDbEntity
  8
0-0
  6
JWW_DASHED1
 62
   120
370
     5
100
AcDbLine
 10
-1047.765051691416
 20
197.5542943380941
 30
0.0
 11
-474.7650516914155
 21
197.5542943380941
 31
0.0
  0
LINE
  5
14F
330
1F
100
AcDbEntity
  8
0-0
  6
JWW_DASHED1
 62
   120
370
     5
100
AcDbLine
 10
-1047.765051691416
 20
210.5542943391937
 30
0.0
 11
-474.7650516914155
 21
210.5542943391937
 31
0.0
  0
LINE
  5
150
330
1F
100
AcDbEntity
  8
0-0
  6
JWW_DASHED1
 62
   120
370
     5
100
AcDbLine
 10
-1047.765051691416
 20
211.5542943390939
 30
0.0
 11
-474.7650516914155
 21
211.5542943390939
 31
0.0
  0
LINE
  5
151
330
1F
100
AcDbEntity
  8
0-0
  6
JWW_DASHED1
 62
   120
370
     5
100
AcDbLine
 10
-1047.765051691416
 20
224.5542943401935
 30
0.0
 11
-474.7650516914155
 21
224.5542943401935
 31
0.0
  0
LINE
  5
152
330
1F
100
AcDbEntity
  8
0-0
  6
JWW_DASHED1
 62
   120
370
     5
100
AcDbLine
 10
-1047.765051691416
 20
225.5542943400937
 30
0.0
 11
-474.7650516914155
 21
225.5542943400937
 31
0.0
  0
LINE
  5
153
330
1F
100
AcDbEntity
  8
0-0
  6
JWW_DASHED1
 62
   120
370
     5
100
AcDbLine
 10
-1047.765051691416
 20
238.5542943411933
 30
0.0
 11
-474.7650516914155
 21
238.5542943411933
 31
0.0
  0
LINE
  5
154
330
1F
100
AcDbEntity
  8
0-0
  6
JWW_DASHED1
 62
   120
370
     5
100
AcDbLine
 10
-1047.765051691416
 20
239.5542943410935
 30
0.0
 11
-474.7650516914155
 21
239.5542943410935
 31
0.0
  0
LINE
  5
155
330
1F
100
AcDbEntity
  8
0-0
  6
JWW_DASHED1
 62
   120
370
     5
100
AcDbLine
 10
-1047.765051691416
 20
252.5542943421931
 30
0.0
 11
-474.7650516914155
 21
252.5542943421931
 31
0.0
  0
LINE
  5
156
330
1F
100
AcDbEntity
  8
0-0
  6
JWW_DASHED1
 62
   120
370
     5
100
AcDbLine
 10
-1047.765051691416
 20
253.5542943420933
 30
0.0
 11
-474.7650516914155
 21
253.5542943420933
 31
0.0
  0
LINE
  5
157
330
1F
100
AcDbEntity
  8
0-0
  6
JWW_DASHED1
 62
   120
370
     5
100
AcDbLine
 10
-1047.765051691416
 20
266.5542943431929
 30
0.0
 11
-474.7650516914155
 21
266.5542943431929
 31
0.0
  0
LINE
  5
158
330
1F
100
AcDbEntity
  8
0-0
  6
JWW_DASHED1
 62
   120
370
     5
100
AcDbLine
 10
-1047.765051691416
 20
267.554294343093
 30
0.0
 11
-474.7650516914155
 21
267.554294343093
 31
0.0
  0
LINE
  5
159
330
1F
100
AcDbEntity
  8
0-0
  6
JWW_DASHED1
 62
   120
370
     5
100
AcDbLine
 10
-1047.765051691416
 20
280.5542943441927
 30
0.0
 11
-474.7650516914155
 21
280.5542943441927
 31
0.0
  0
LINE
  5
15A
330
1F
100
AcDbEntity
  8
0-0
  6
JWW_DASHED1
 62
   120
370
     5
100
AcDbLine
 10
-1047.765051691416
 20
281.5542943440929
 30
0.0
 11
-474.7650516914155
 21
281.5542943440929
 31
0.0
  0
LINE
  5
15B
330
1F
100
AcDbEntity
  8
0-0
  6
JWW_DASHED1
 62
   120
370
     5
100
AcDbLine
 10
-1047.765051691416
 20
294.5542943451925
 30
0.0
 11
-474.7650516914155
 21
294.5542943451925
 31
0.0
  0
LINE
  5
15C
330
1F
100
AcDbEntity
  8
0-0
  6
JWW_DASHED1
 62
   120
370
     5
100
AcDbLine
 10
-1047.765051691416
 20
295.5542943450927
 30
0.0
 11
-474.7650516914155
 21
295.5542943450927
 31
0.0
  0
LINE
  5
15D
330
1F
100
AcDbEntity
  8
0-0
  6
JWW_DASHED1
 62
   120
370
     5
100
AcDbLine
 10
-1047.765051691416
 20
308.5542943461923
 30
0.0
 11
-474.7650516914155
 21
308.5542943461923
 31
0.0
  0
LINE
  5
15E
330
1F
100
AcDbEntity
  8
0-0
  6
JWW_DASHED1
 62
   120
370
     5
100
AcDbLine
 10
-1047.765051691416
 20
309.5542943460924
 30
0.0
 11
-474.7650516914155
 21
309.5542943460924
 31
0.0
  0
LINE
  5
15F
330
1F
100
AcDbEntity
  8
0-0
  6
JWW_DASHED1
 62
   120
370
     5
100
AcDbLine
 10
-1047.765051691416
 20
322.554294347192
 30
0.0
 11
-474.7650516914155
 21
322.554294347192
 31
0.0
  0
LINE
  5
160
330
1F
100
AcDbEntity
  8
0-0
  6
JWW_DASHED1
 62
   120
370
     5
100
AcDbLine
 10
-1047.765051691416
 20
323.5542943470922
 30
0.0
 11
-474.7650516914155
 21
323.5542943470922
 31
0.0
  0
LINE
  5
161
330
1F
100
AcDbEntity
  8
0-0
  6
JWW_DASHED1
 62
   120
370
     5
100
AcDbLine
 10
-1047.765051691416
 20
336.5542943481918
 30
0.0
 11
-474.7650516914155
 21
336.5542943481918
 31
0.0
  0
LINE
  5
162
330
1F
100
AcDbEntity
  8
0-0
  6
JWW_DASHED1
 62
   120
370
     5
100
AcDbLine
 10
-1047.765051691416
 20
337.554294348092
 30
0.0
 11
-474.7650516914155
 21
337.554294348092
 31
0.0
  0
LINE
  5
163
330
1F
100
AcDbEntity
  8
0-0
  6
JWW_DASHED1
 62
   120
370
     5
100
AcDbLine
 10
-1047.765051691416
 20
350.5542943491917
 30
0.0
 11
-474.7650516914155
 21
350.5542943491917
 31
0.0
  0
LINE
  5
164
330
1F
100
AcDbEntity
  8
0-0
  6
JWW_DASHED1
 62
   120
370
     5
100
AcDbLine
 10
-1047.765051691416
 20
351.5542943490918
 30
0.0
 11
-474.7650516914155
 21
351.5542943490918
 31
0.0
  0
LINE
  5
165
330
1F
100
AcDbEntity
  8
0-0
  6
JWW_DASHED1
 62
   120
370
     5
100
AcDbLine
 10
-1047.765051691416
 20
364.5542943501914
 30
0.0
 11
-474.7650516914155
 21
364.5542943501914
 31
0.0
  0
LINE
  5
166
330
1F
100
AcDbEntity
  8
0-0
  6
JWW_DASHED1
 62
   120
370
     5
100
AcDbLine
 10
-1047.765051691416
 20
365.5542943500916
 30
0.0
 11
-474.7650516914155
 21
365.5542943500916
 31
0.0
  0
LINE
  5
167
330
1F
100
AcDbEntity
  8
0-0
  6
JWW_DASHED1
 62
   120
370
     5
100
AcDbLine
 10
-1047.765051691416
 20
378.5542943511912
 30
0.0
 11
-474.7650516914155
 21
378.5542943511912
 31
0.0
  0
LINE
  5
168
330
1F
100
AcDbEntity
  8
0-0
  6
JWW_DASHED1
 62
   120
370
     5
100
AcDbLine
 10
-1047.765051691416
 20
379.5542943510914
 30
0.0
 11
-474.7650516914155
 21
379.5542943510914
 31
0.0
  0
LINE
  5
169
330
1F
100
AcDbEntity
  8
0-0
  6
JWW_DASHED1
 62
   120
370
     5
100
AcDbLine
 10
-1047.765051691416
 20
392.554294352191
 30
0.0
 11
-474.7650516914155
 21
392.554294352191
 31
0.0
  0
LINE
  5
16A
330
1F
100
AcDbEntity
  8
0-0
  6
JWW_DASHED1
 62
   120
370
     5
100
AcDbLine
 10
-1047.765051691416
 20
393.5542943520912
 30
0.0
 11
-474.7650516914155
 21
393.5542943520912
 31
0.0
  0
LINE
  5
16B
330
1F
100
AcDbEntity
  8
0-0
  6
JWW_DASHED1
 62
   120
370
     5
100
AcDbLine
 10
-1047.765051691416
 20
406.5542943531908
 30
0.0
 11
-474.7650516914155
 21
406.5542943531908
 31
0.0
  0
LINE
  5
16C
330
1F
100
AcDbEntity
  8
0-0
  6
JWW_DASHED1
 62
   120
370
     5
100
AcDbLine
 10
-1047.765051691416
 20
407.554294353091
 30
0.0
 11
-474.7650516914155
 21
407.554294353091
 31
0.0
  0
LINE
  5
16D
330
1F
100
AcDbEntity
  8
0-0
  6
JWW_DASHED1
 62
   120
370
     5
100
AcDbLine
 10
-1047.765051691416
 20
420.5542943541906
 30
0.0
 11
-474.7650516914155
 21
420.5542943541906
 31
0.0
  0
LINE
  5
16E
330
1F
100
AcDbEntity
  8
0-0
  6
JWW_DASHED1
 62
   120
370
     5
100
AcDbLine
 10
-1047.765051691416
 20
421.5542943540908
 30
0.0
 11
-474.7650516914155
 21
421.5542943540908
 31
0.0
  0
LINE
  5
16F
330
1F
100
AcDbEntity
  8
0-0
  6
JWW_DASHED1
 62
   120
370
     5
100
AcDbLine
 10
-1047.765051691416
 20
434.5542943551903
 30
0.0
 11
-474.7650516914155
 21
434.5542943551903
 31
0.0
  0
LINE
  5
170
330
1F
100
AcDbEntity
  8
0-0
  6
JWW_DASHED1
 62
   120
370
     5
100
AcDbLine
 10
-1047.765051691416
 20
435.5542943550905
 30
0.0
 11
-474.7650516914155
 21
435.5542943550905
 31
0.0
  0
LINE
  5
171
330
1F
100
AcDbEntity
  8
0-0
  6
JWW_DASHED1
 62
   120
370
     5
100
AcDbLine
 10
-1047.765051691416
 20
448.5542943561902
 30
0.0
 11
-474.7650516914155
 21
448.5542943561902
 31
0.0
  0
LINE
  5
172
330
1F
100
AcDbEntity
  8
0-0
  6
JWW_DASHED1
 62
   120
370
     5
100
AcDbLine
 10
-1047.765051691416
 20
449.5542943560903
 30
0.0
 11
-474.7650516914155
 21
449.5542943560903
 31
0.0
  0
LINE
  5
173
330
1F
100
AcDbEntity
  8
0-0
  6
JWW_DASHED1
 62
   120
370
     5
100
AcDbLine
 10
-1047.765051691416
 20
462.55429435719
 30
0.0
 11
-474.7650516914155
 21
462.55429435719
 31
0.0
  0
LINE
  5
174
330
1F
100
AcDbEntity
  8
0-0
  6
JWW_DASHED1
 62
   120
370
     5
100
AcDbLine
 10
-1047.765051691416
 20
463.5542943570902
 30
0.0
 11
-474.7650516914155
 21
463.5542943570902
 31
0.0
  0
LINE
  5
175
330
1F
100
AcDbEntity
  8
0-0
  6
JWW_DASHED1
 62
   120
370
     5
100
AcDbLine
 10
-1047.765051691416
 20
476.5542943581897
 30
0.0
 11
-474.7650516914155
 21
476.5542943581897
 31
0.0
  0
LINE
  5
176
330
1F
100
AcDbEntity
  8
0-0
  6
JWW_DASHED1
 62
   120
370
     5
100
AcDbLine
 10
-1047.765051691416
 20
477.5542943580899
 30
0.0
 11
-474.7650516914155
 21
477.5542943580899
 31
0.0
  0
LINE
  5
177
330
1F
100
AcDbEntity
  8
0-0
  6
JWW_DASHED1
 62
   120
370
     5
100
AcDbLine
 10
-1047.765051691416
 20
490.5542943591895
 30
0.0
 11
-474.7650516914155
 21
490.5542943591895
 31
0.0
  0
LINE
  5
178
330
1F
100
AcDbEntity
  8
0-0
  6
JWW_DASHED1
 62
   120
370
     5
100
AcDbLine
 10
-1047.765051691416
 20
491.5542943590897
 30
0.0
 11
-474.7650516914155
 21
491.5542943590897
 31
0.0
  0
LINE
  5
179
330
1F
100
AcDbEntity
  8
0-0
  6
JWW_DASHED1
 62
   120
370
     5
100
AcDbLine
 10
-1047.765051691416
 20
504.5542943601893
 30
0.0
 11
-474.7650516914155
 21
504.5542943601893
 31
0.0
  0
LINE
  5
17A
330
1F
100
AcDbEntity
  8
0-0
  6
JWW_DASHED1
 62
   120
370
     5
100
AcDbLine
 10
-1047.765051691416
 20
505.5542943600895
 30
0.0
 11
-474.7650516914155
 21
505.5542943600895
 31
0.0
  0
LINE
  5
17B
330
1F
100
AcDbEntity
  8
0-0
  6
JWW_DASHED1
 62
   120
370
     5
100
AcDbLine
 10
-1047.765051691416
 20
518.5542943611891
 30
0.0
 11
-474.7650516914155
 21
518.5542943611891
 31
0.0
  0
LINE
  5
17C
330
1F
100
AcDbEntity
  8
0-0
  6
JWW_DASHED1
 62
   120
370
     5
100
AcDbLine
 10
-1047.765051691416
 20
519.5542943610893
 30
0.0
 11
-474.7650516914155
 21
519.5542943610893
 31
0.0
  0
LINE
  5
17D
330
1F
100
AcDbEntity
  8
0-0
  6
JWW_DASHED1
 62
   120
370
     5
100
AcDbLine
 10
-1047.765051691416
 20
532.5542943621889
 30
0.0
 11
-474.7650516914155
 21
532.5542943621889
 31
0.0
  0
LINE
  5
17E
330
1F
100
AcDbEntity
  8
0-0
  6
JWW_DASHED1
 62
   120
370
     5
100
AcDbLine
 10
-1047.765051691416
 20
533.5542943620891
 30
0.0
 11
-474.7650516914155
 21
533.5542943620891
 31
0.0
  0
LINE
  5
17F
330
1F
100
AcDbEntity
  8
0-0
  6
JWW_DASHED1
 62
   120
370
     5
100
AcDbLine
 10
-1047.765051691416
 20
546.5542943631887
 30
0.0
 11
-474.7650516914155
 21
546.5542943631887
 31
0.0
  0
LINE
  5
180
330
1F
100
AcDbEntity
  8
0-0
  6
JWW_DASHED1
 62
   120
370
     5
100
AcDbLine
 10
-1047.765051691416
 20
547.5542943630888
 30
0.0
 11
-474.7650516914155
 21
547.5542943630888
 31
0.0
  0
LINE
  5
181
330
1F
100
AcDbEntity
  8
0-0
  6
JWW_DASHED1
 62
   120
370
     5
100
AcDbLine
 10
-1047.765051691416
 20
560.5542943641885
 30
0.0
 11
-474.7650516914155
 21
560.5542943641885
 31
0.0
  0
LINE
  5
182
330
1F
100
AcDbEntity
  8
0-0
  6
JWW_DASHED1
 62
   120
370
     5
100
AcDbLine
 10
-1047.765051691416
 20
561.5542943640887
 30
0.0
 11
-474.7650516914155
 21
561.5542943640887
 31
0.0
  0
LINE
  5
183
330
1F
100
AcDbEntity
  8
0-0
  6
JWW_DASHED1
 62
   120
370
     5
100
AcDbLine
 10
-1047.765051691416
 20
574.5542943651883
 30
0.0
 11
-474.7650516914155
 21
574.5542943651883
 31
0.0
  0
LINE
  5
184
330
1F
100
AcDbEntity
  8
0-0
  6
JWW_DASHED1
 62
   120
370
     5
100
AcDbLine
 10
-1047.765051691416
 20
575.5542943650885
 30
0.0
 11
-474.7650516914155
 21
575.5542943650885
 31
0.0
  0
LINE
  5
185
330
1F
100
AcDbEntity
  8
0-0
  6
JWW_DASHED1
 62
   120
370
     5
100
AcDbLine
 10
-1047.765051691416
 20
588.5542943661881
 30
0.0
 11
-474.7650516914155
 21
588.5542943661881
 31
0.0
  0
LINE
  5
186
330
1F
100
AcDbEntity
  8
0-0
  6
JWW_DASHED1
 62
   120
370
     5
100
AcDbLine
 10
-1047.765051691416
 20
589.5542943660882
 30
0.0
 11
-474.7650516914155
 21
589.5542943660882
 31
0.0
  0
LINE
  5
187
330
1F
100
AcDbEntity
  8
0-0
  6
JWW_DASHED1
 62
   120
370
     5
100
AcDbLine
 10
-1047.765051691416
 20
602.5542943671878
 30
0.0
 11
-474.7650516914155
 21
602.5542943671878
 31
0.0
  0
LINE
  5
188
330
1F
100
AcDbEntity
  8
0-0
  6
JWW_DASHED1
 62
   120
370
     5
100
AcDbLine
 10
-1047.765051691416
 20
603.554294367088
 30
0.0
 11
-474.7650516914155
 21
603.554294367088
 31
0.0
  0
LINE
  5
189
330
1F
100
AcDbEntity
  8
0-0
  6
JWW_DASHED1
 62
   120
370
     5
100
AcDbLine
 10
-1047.765051691416
 20
616.5542943681876
 30
0.0
 11
-474.7650516914155
 21
616.5542943681876
 31
0.0
  0
LINE
  5
18A
330
1F
100
AcDbEntity
  8
0-0
  6
JWW_DASHED1
 62
   120
370
     5
100
AcDbLine
 10
-1047.765051691416
 20
617.5542943680878
 30
0.0
 11
-474.7650516914155
 21
617.5542943680878
 31
0.0
  0
LINE
  5
18B
330
1F
100
AcDbEntity
  8
0-0
  6
JWW_DASHED1
 62
   120
370
     5
100
AcDbLine
 10
-960.3462099294524
 20
630.5542943691875
 30
0.0
 11
-562.1838934533793
 21
630.5542943691875
 31
0.0
  0
LINE
  5
18C
330
1F
100
AcDbEntity
  8
0-0
  6
JWW_DASHED1
 62
   120
370
     5
100
AcDbLine
 10
-956.7519800580925
 20
631.5542943690876
 30
0.0
 11
-565.7781233247391
 21
631.5542943690876
 31
0.0
  0
LINE
  5
18D
330
1F
100
AcDbEntity
  8
0-0
  6
JWW_DASHED1
 62
   120
370
     5
100
AcDbLine
 10
-925.6399025898367
 20
644.5542943701872
 30
0.0
 11
-596.8902007929958
 21
644.5542943701872
 31
0.0
  0
LINE
  5
18E
330
1F
100
AcDbEntity
  8
0-0
  6
JWW_DASHED1
 62
   120
370
     5
100
AcDbLine
 10
-923.7461026001705
 20
645.5542943700874
 30
0.0
 11
-598.7840007826619
 21
645.5542943700874
 31
0.0
  0
LINE
  5
18F
330
1F
100
AcDbEntity
  8
0-0
  6
JWW_DASHED1
 62
   120
370
     5
100
AcDbLine
 10
-896.0652585078509
 20
658.554294371187
 30
0.0
 11
-626.4648448749815
 21
658.554294371187
 31
0.0
  0
LINE
  5
190
330
1F
100
AcDbEntity
  8
0-0
  6
JWW_DASHED1
 62
   120
370
     5
100
AcDbLine
 10
-893.6436604402746
 20
659.5542943710872
 30
0.0
 11
-628.8864429425578
 21
659.5542943710872
 31
0.0
  0
LINE
  5
191
330
1F
100
AcDbEntity
  8
0-0
  6
JWW_DASHED1
 62
   120
370
     5
100
AcDbLine
 10
-855.7695484499067
 20
672.5542943721869
 30
0.0
 11
-666.7605549329257
 21
672.5542943721869
 31
0.0
  0
LINE
  5
192
330
1F
100
AcDbEntity
  8
0-0
  6
JWW_DASHED1
 62
   120
370
     5
100
AcDbLine
 10
-852.1281366275338
 20
673.554294372087
 30
0.0
 11
-670.4019667552986
 21
673.554294372087
 31
0.0
  0
LINE
  5
193
330
1F
100
AcDbEntity
  8
0-0
  6
JWW_DASHED1
 62
   120
370
     5
100
AcDbLine
 10
-480.765033193484
 20
-489.445557396952
 30
0.0
 11
-480.765033193484
 21
625.5541750587395
 31
0.0
  0
LINE
  5
194
330
1F
100
AcDbEntity
  8
0-0
  6
JWW_DASHED1
 62
   120
370
     5
100
AcDbLine
 10
-481.7650331933842
 20
-489.445557396952
 30
0.0
 11
-481.7650331933842
 21
625.5541750587395
 31
0.0
  0
LINE
  5
195
330
1F
100
AcDbEntity
  8
0-0
  6
JWW_DASHED1
 62
   120
370
     5
100
AcDbLine
 10
-494.7650331944843
 20
-489.445557396952
 30
0.0
 11
-494.7650331944843
 21
625.5541750587395
 31
0.0
  0
LINE
  5
196
330
1F
100
AcDbEntity
  8
0-0
  6
JWW_DASHED1
 62
   120
370
     5
100
AcDbLine
 10
-495.7650331943844
 20
-489.445557396952
 30
0.0
 11
-495.7650331943836
 21
625.5541750587395
 31
0.0
  0
LINE
  5
197
330
1F
100
AcDbEntity
  8
0-0
  6
JWW_DASHED1
 62
   120
370
     5
100
AcDbLine
 10
-508.7650331954845
 20
-489.445557396952
 30
0.0
 11
-508.7650331954836
 21
625.5541750587395
 31
0.0
  0
LINE
  5
198
330
1F
100
AcDbEntity
  8
0-0
  6
JWW_DASHED1
 62
   120
370
     5
100
AcDbLine
 10
-509.7650331953838
 20
-489.445557396952
 30
0.0
 11
-509.7650331953838
 21
625.5541750587395
 31
0.0
  0
LINE
  5
199
330
1F
100
AcDbEntity
  8
0-0
  6
JWW_DASHED1
 62
   120
370
     5
100
AcDbLine
 10
-522.7650331964838
 20
-489.445557396952
 30
0.0
 11
-522.7650331964838
 21
625.5541750587395
 31
0.0
  0
LINE
  5
19A
330
1F
100
AcDbEntity
  8
0-0
  6
JWW_DASHED1
 62
   120
370
     5
100
AcDbLine
 10
-523.765033196384
 20
-489.445557396952
 30
0.0
 11
-523.765033196384
 21
625.5541750587395
 31
0.0
  0
LINE
  5
19B
330
1F
100
AcDbEntity
  8
0-0
  6
JWW_DASHED1
 62
   120
370
     5
100
AcDbLine
 10
-536.7650331974841
 20
-489.445557396952
 30
0.0
 11
-536.7650331974841
 21
626.1174675639518
 31
0.0
  0
LINE
  5
19C
330
1F
100
AcDbEntity
  8
0-0
  6
JWW_DASHED1
 62
   120
370
     5
100
AcDbLine
 10
-537.7650331973842
 20
-489.445557396952
 30
0.0
 11
-537.7650331973842
 21
626.2077492259846
 31
0.0
  0
LINE
  5
19D
330
1F
100
AcDbEntity
  8
0-0
  6
JWW_DASHED1
 62
   120
370
     5
100
AcDbLine
 10
-550.7650331984843
 20
-489.445557396952
 30
0.0
 11
-550.7650331984843
 21
628.0018636005184
 31
0.0
  0
LINE
  5
19E
330
1F
100
AcDbEntity
  8
0-0
  6
JWW_DASHED1
 62
   120
370
     5
100
AcDbLine
 10
-551.7650331983845
 20
-489.445557396952
 30
0.0
 11
-551.7650331983845
 21
628.1882699829544
 31
0.0
  0
LINE
  5
19F
330
1F
100
AcDbEntity
  8
0-0
  6
JWW_DASHED1
 62
   120
370
     5
100
AcDbLine
 10
-564.7650331994845
 20
-489.445557396952
 30
0.0
 11
-564.7650331994845
 21
631.26266565371
 31
0.0
  0
LINE
  5
1A0
330
1F
100
AcDbEntity
  8
0-0
  6
JWW_DASHED1
 62
   120
370
     5
100
AcDbLine
 10
-565.7650331993839
 20
-489.445557396952
 30
0.0
 11
-565.7650331993839
 21
631.5504770210896
 31
0.0
  0
LINE
  5
1A1
330
1F
100
AcDbEntity
  8
0-0
  6
JWW_DASHED1
 62
   120
370
     5
100
AcDbLine
 10
-578.7650332004847
 20
-489.445557396952
 30
0.0
 11
-578.7650332004839
 21
635.9963205465533
 31
0.0
  0
LINE
  5
1A2
330
1F
100
AcDbEntity
  8
0-0
  6
JWW_DASHED1
 62
   120
370
     5
100
AcDbLine
 10
-579.7650332003841
 20
-489.445557396952
 30
0.0
 11
-579.7650332003841
 21
636.3944821940709
 31
0.0
  0
LINE
  5
1A3
330
1F
100
AcDbEntity
  8
0-0
  6
JWW_DASHED1
 62
   120
370
     5
100
AcDbLine
 10
-592.7650332014841
 20
-489.445557396952
 30
0.0
 11
-592.7650332014841
 21
642.3597689237135
 31
0.0
  0
LINE
  5
1A4
330
1F
100
AcDbEntity
  8
0-0
  6
JWW_DASHED1
 62
   120
370
     5
100
AcDbLine
 10
-593.7650332013843
 20
-489.445557396952
 30
0.0
 11
-593.7650332013843
 21
642.8824931225131
 31
0.0
  0
LINE
  5
1A5
330
1F
100
AcDbEntity
  8
0-0
  6
JWW_DASHED1
 62
   120
370
     5
100
AcDbLine
 10
-606.7650332024843
 20
-489.445557396952
 30
0.0
 11
-606.7650332024843
 21
649.6081709472725
 31
0.0
  0
LINE
  5
1A6
330
1F
100
AcDbEntity
  8
0-0
  6
JWW_DASHED1
 62
   120
370
     5
100
AcDbLine
 10
-607.7650332023845
 20
-489.445557396952
 30
0.0
 11
-607.7650332023845
 21
650.0981507325793
 31
0.0
  0
LINE
  5
1A7
330
1F
100
AcDbEntity
  8
0-0
  6
JWW_DASHED1
 62
   120
370
     5
100
AcDbLine
 10
-620.7650332034837
 20
-489.445557396952
 30
0.0
 11
-620.7650332034837
 21
656.1160510419046
 31
0.0
  0
LINE
  5
1A8
330
1F
100
AcDbEntity
  8
0-0
  6
JWW_DASHED1
 62
   120
370
     5
100
AcDbLine
 10
-621.7650332033838
 20
-489.445557396952
 30
0.0
 11
-621.7650332033838
 21
656.5524875220814
 31
0.0
  0
LINE
  5
1A9
330
1F
100
AcDbEntity
  8
0-0
  6
JWW_DASHED1
 62
   120
370
     5
100
AcDbLine
 10
-634.7650332044839
 20
-489.445557396952
 30
0.0
 11
-634.7650332044839
 21
661.8943655711388
 31
0.0
  0
LINE
  5
1AA
330
1F
100
AcDbEntity
  8
0-0
  6
JWW_DASHED1
 62
   120
370
     5
100
AcDbLine
 10
-635.765033204384
 20
-489.445557396952
 30
0.0
 11
-635.765033204384
 21
662.280237972414
 31
0.0
  0
LINE
  5
1AB
330
1F
100
AcDbEntity
  8
0-0
  6
JWW_DASHED1
 62
   120
370
     5
100
AcDbLine
 10
-648.7650332054841
 20
-489.445557396952
 30
0.0
 11
-648.7650332054841
 21
666.9812759172106
 31
0.0
  0
LINE
  5
1AC
330
1F
100
AcDbEntity
  8
0-0
  6
JWW_DASHED1
 62
   120
370
     5
100
AcDbLine
 10
-649.7650332053843
 20
-489.445557396952
 30
0.0
 11
-649.7650332053843
 21
667.3190366718205
 31
0.0
  0
LINE
  5
1AD
330
1F
100
AcDbEntity
  8
0-0
  6
JWW_DASHED1
 62
   120
370
     5
100
AcDbLine
 10
-662.7650332064843
 20
-489.445557396952
 30
0.0
 11
-662.7650332064843
 21
671.4082000012291
 31
0.0
  0
LINE
  5
1AE
330
1F
100
AcDbEntity
  8
0-0
  6
JWW_DASHED1
 62
   120
370
     5
100
AcDbLine
 10
-663.7650332063845
 20
-489.445557396952
 30
0.0
 11
-663.7650332063845
 21
671.6998670779554
 31
0.0
  0
LINE
  5
1AF
330
1F
100
AcDbEntity
  8
0-0
  6
JWW_DASHED1
 62
   120
370
     5
100
AcDbLine
 10
-676.7650332074836
 20
-489.445557396952
 30
0.0
 11
-676.7650332074836
 21
675.2009454206069
 31
0.0
  0
LINE
  5
1B0
330
1F
100
AcDbEntity
  8
0-0
  6
JWW_DASHED1
 62
   120
370
     5
100
AcDbLine
 10
-677.7650332073838
 20
-489.445557396952
 30
0.0
 11
-677.7650332073838
 21
675.4481714553964
 31
0.0
  0
LINE
  5
1B1
330
1F
100
AcDbEntity
  8
0-0
  6
JWW_DASHED1
 62
   120
370
     5
100
AcDbLine
 10
-690.7650332084838
 20
-489.445557396952
 30
0.0
 11
-690.7650332084838
 21
678.3805609107236
 31
0.0
  0
LINE
  5
1B2
330
1F
100
AcDbEntity
  8
0-0
  6
JWW_DASHED1
 62
   120
370
     5
100
AcDbLine
 10
-691.765033208384
 20
-489.445557396952
 30
0.0
 11
-691.765033208384
 21
678.5846853380878
 31
0.0
  0
LINE
  5
1B3
330
1F
100
AcDbEntity
  8
0-0
  6
JWW_DASHED1
 62
   120
370
     5
100
AcDbLine
 10
-704.765033209484
 20
-489.445557396952
 30
0.0
 11
-704.765033209484
 21
680.9639791123169
 31
0.0
  0
LINE
  5
1B4
330
1F
100
AcDbEntity
  8
0-0
  6
JWW_DASHED1
 62
   120
370
     5
100
AcDbLine
 10
-705.7650332093842
 20
-489.445557396952
 30
0.0
 11
-705.7650332093842
 21
681.1260675210957
 31
0.0
  0
LINE
  5
1B5
330
1F
100
AcDbEntity
  8
0-0
  6
JWW_DASHED1
 62
   120
370
     5
100
AcDbLine
 10
-718.7650332104843
 20
-489.445557396952
 30
0.0
 11
-718.7650332104843
 21
682.9645006455991
 31
0.0
  0
LINE
  5
1B6
330
1F
100
AcDbEntity
  8
0-0
  6
JWW_DASHED1
 62
   120
370
     5
100
AcDbLine
 10
-719.7650332103844
 20
-489.445557396952
 30
0.0
 11
-719.7650332103844
 21
683.0853742710912
 31
0.0
  0
LINE
  5
1B7
330
1F
100
AcDbEntity
  8
0-0
  6
JWW_DASHED1
 62
   120
370
     5
100
AcDbLine
 10
-732.7650332114837
 20
-489.445557396952
 30
0.0
 11
-732.7650332114837
 21
684.3921540773641
 31
0.0
  0
LINE
  5
1B8
330
1F
100
AcDbEntity
  8
0-0
  6
JWW_DASHED1
 62
   120
370
     5
100
AcDbLine
 10
-733.7650332113839
 20
-489.445557396952
 30
0.0
 11
-733.7650332113839
 21
684.4724114490106
 31
0.0
  0
LINE
  5
1B9
330
1F
100
AcDbEntity
  8
0-0
  6
JWW_DASHED1
 62
   120
370
     5
100
AcDbLine
 10
-746.7650332124839
 20
-489.445557396952
 30
0.0
 11
-746.7650332124839
 21
685.2539557055258
 31
0.0
  0
LINE
  5
1BA
330
1F
100
AcDbEntity
  8
0-0
  6
JWW_DASHED1
 62
   120
370
     5
100
AcDbLine
 10
-747.7650332123841
 20
-489.445557396952
 30
0.0
 11
-747.7650332123841
 21
685.2939878378544
 31
0.0
  0
LINE
  5
1BB
330
1F
100
AcDbEntity
  8
0-0
  6
JWW_DASHED1
 62
   120
370
     5
100
AcDbLine
 10
-760.7650332134841
 20
-489.445557396952
 30
0.0
 11
-760.7650332134841
 21
685.554085433601
 31
0.0
  0
LINE
  5
1BC
330
1F
100
AcDbEntity
  8
0-0
  6
JWW_DASHED1
 62
   120
370
     5
100
AcDbLine
 10
-761.7650332133843
 20
-489.445557396952
 30
0.0
 11
-761.7650332133843
 21
685.5540854864245
 31
0.0
  0
LINE
  5
1BD
330
1F
100
AcDbEntity
  8
0-0
  6
JWW_DASHED1
 62
   120
370
     5
100
AcDbLine
 10
-774.7650332144843
 20
-489.445557396952
 30
0.0
 11
-774.7650332144843
 21
685.2939892643604
 31
0.0
  0
LINE
  5
1BE
330
1F
100
AcDbEntity
  8
0-0
  6
JWW_DASHED1
 62
   120
370
     5
100
AcDbLine
 10
-775.7650332143845
 20
-489.445557396952
 30
0.0
 11
-775.7650332143845
 21
685.253957237897
 31
0.0
  0
LINE
  5
1BF
330
1F
100
AcDbEntity
  8
0-0
  6
JWW_DASHED1
 62
   120
370
     5
100
AcDbLine
 10
-788.7650332154838
 20
-489.445557396952
 30
0.0
 11
-788.7650332154838
 21
684.4724143617219
 31
0.0
  0
LINE
  5
1C0
330
1F
100
AcDbEntity
  8
0-0
  6
JWW_DASHED1
 62
   120
370
     5
100
AcDbLine
 10
-789.7650332153839
 20
-489.445557396952
 30
0.0
 11
-789.7650332153839
 21
684.3921570966501
 31
0.0
  0
LINE
  5
1C1
330
1F
100
AcDbEntity
  8
0-0
  6
JWW_DASHED1
 62
   120
370
     5
100
AcDbLine
 10
-802.765033216484
 20
-489.445557396952
 30
0.0
 11
-802.765033216484
 21
683.0853786841413
 31
0.0
  0
LINE
  5
1C2
330
1F
100
AcDbEntity
  8
0-0
  6
JWW_DASHED1
 62
   120
370
     5
100
AcDbLine
 10
-803.7650332163842
 20
-489.445557396952
 30
0.0
 11
-803.7650332163842
 21
682.9645051665335
 31
0.0
  0
LINE
  5
1C3
330
1F
100
AcDbEntity
  8
0-0
  6
JWW_DASHED1
 62
   120
370
     5
100
AcDbLine
 10
-816.7650332174842
 20
-489.445557396952
 30
0.0
 11
-816.7650332174842
 21
681.1260734563672
 31
0.0
  0
LINE
  5
1C4
330
1F
100
AcDbEntity
  8
0-0
  6
JWW_DASHED1
 62
   120
370
     5
100
AcDbLine
 10
-817.7650332173844
 20
-489.445557396952
 30
0.0
 11
-817.7650332173844
 21
680.963985157328
 31
0.0
  0
LINE
  5
1C5
330
1F
100
AcDbEntity
  8
0-0
  6
JWW_DASHED1
 62
   120
370
     5
100
AcDbLine
 10
-830.7650332184835
 20
-489.445557396952
 30
0.0
 11
-830.7650332184835
 21
678.5846928255938
 31
0.0
  0
LINE
  5
1C6
330
1F
100
AcDbEntity
  8
0-0
  6
JWW_DASHED1
 62
   120
370
     5
100
AcDbLine
 10
-831.7650332183837
 20
-489.445557396952
 30
0.0
 11
-831.7650332183837
 21
678.3805685104795
 31
0.0
  0
LINE
  5
1C7
330
1F
100
AcDbEntity
  8
0-0
  6
JWW_DASHED1
 62
   120
370
     5
100
AcDbLine
 10
-844.7650332194837
 20
-489.445557396952
 30
0.0
 11
-844.7650332194837
 21
675.448180534209
 31
0.0
  0
LINE
  5
1C8
330
1F
100
AcDbEntity
  8
0-0
  6
JWW_DASHED1
 62
   120
370
     5
100
AcDbLine
 10
-845.7650332193839
 20
-489.445557396952
 30
0.0
 11
-845.7650332193839
 21
675.2009546148344
 31
0.0
  0
LINE
  5
1C9
330
1F
100
AcDbEntity
  8
0-0
  6
JWW_DASHED1
 62
   120
370
     5
100
AcDbLine
 10
-858.7650332204839
 20
-489.445557396952
 30
0.0
 11
-858.7650332204839
 21
671.6998777971327
 31
0.0
  0
LINE
  5
1CA
330
1F
100
AcDbEntity
  8
0-0
  6
JWW_DASHED1
 62
   120
370
     5
100
AcDbLine
 10
-859.7650332203841
 20
-489.445557396952
 30
0.0
 11
-859.7650332203841
 21
671.4082108397503
 31
0.0
  0
LINE
  5
1CB
330
1F
100
AcDbEntity
  8
0-0
  6
JWW_DASHED1
 62
   120
370
     5
100
AcDbLine
 10
-872.7650332214841
 20
-489.445557396952
 30
0.0
 11
-872.7650332214841
 21
667.3190490920439
 31
0.0
  0
LINE
  5
1CC
330
1F
100
AcDbEntity
  8
0-0
  6
JWW_DASHED1
 62
   120
370
     5
100
AcDbLine
 10
-873.7650332213843
 20
-489.445557396952
 30
0.0
 11
-873.7650332213843
 21
666.9812884616346
 31
0.0
  0
LINE
  5
1CD
330
1F
100
AcDbEntity
  8
0-0
  6
JWW_DASHED1
 62
   120
370
     5
100
AcDbLine
 10
-886.7650332224844
 20
-489.445557396952
 30
0.0
 11
-886.7650332224844
 21
662.2802521677346
 31
0.0
  0
LINE
  5
1CE
330
1F
100
AcDbEntity
  8
0-0
  6
JWW_DASHED1
 62
   120
370
     5
100
AcDbLine
 10
-887.7650332223845
 20
-489.445557396952
 30
0.0
 11
-887.7650332223845
 21
661.8943798964443
 31
0.0
  0
LINE
  5
1CF
330
1F
100
AcDbEntity
  8
0-0
  6
JWW_DASHED1
 62
   120
370
     5
100
AcDbLine
 10
-900.7650332234837
 20
-489.445557396952
 30
0.0
 11
-900.7650332234837
 21
656.5525035824845
 31
0.0
  0
LINE
  5
1D0
330
1F
100
AcDbEntity
  8
0-0
  6
JWW_DASHED1
 62
   120
370
     5
100
AcDbLine
 10
-901.7650332233839
 20
-489.445557396952
 30
0.0
 11
-901.7650332233839
 21
656.1160672394413
 31
0.0
  0
LINE
  5
1D1
330
1F
100
AcDbEntity
  8
0-0
  6
JWW_DASHED1
 62
   120
370
     5
100
AcDbLine
 10
-914.7650332244839
 20
-489.445557396952
 30
0.0
 11
-914.7650332244839
 21
650.0981687673681
 31
0.0
  0
LINE
  5
1D2
330
1F
100
AcDbEntity
  8
0-0
  6
JWW_DASHED1
 62
   120
370
     5
100
AcDbLine
 10
-915.7650332243841
 20
-489.445557396952
 30
0.0
 11
-915.7650332243841
 21
649.608189127926
 31
0.0
  0
LINE
  5
1D3
330
1F
100
AcDbEntity
  8
0-0
  6
JWW_DASHED1
 62
   120
370
     5
100
AcDbLine
 10
-928.7650332254841
 20
-489.445557396952
 30
0.0
 11
-928.7650332254841
 21
642.8825126175866
 31
0.0
  0
LINE
  5
1D4
330
1F
100
AcDbEntity
  8
0-0
  6
JWW_DASHED1
 62
   120
370
     5
100
AcDbLine
 10
-929.7650332253843
 20
-489.445557396952
 30
0.0
 11
-929.7650332253843
 21
642.3597880649027
 31
0.0
  0
LINE
  5
1D5
330
1F
100
AcDbEntity
  8
0-0
  6
JWW_DASHED1
 62
   120
370
     5
100
AcDbLine
 10
-942.7650332264835
 20
-489.445557396952
 30
0.0
 11
-942.7650332264835
 21
636.3944970623993
 31
0.0
  0
LINE
  5
1D6
330
1F
100
AcDbEntity
  8
0-0
  6
JWW_DASHED1
 62
   120
370
     5
100
AcDbLine
 10
-943.7650332263837
 20
-489.445557396952
 30
0.0
 11
-943.7650332263837
 21
635.9963351075999
 31
0.0
  0
LINE
  5
1D7
330
1F
100
AcDbEntity
  8
0-0
  6
JWW_DASHED1
 62
   120
370
     5
100
AcDbLine
 10
-956.7650332274837
 20
-489.445557396952
 30
0.0
 11
-956.7650332274837
 21
631.5504877963645
 31
0.0
  0
LINE
  5
1D8
330
1F
100
AcDbEntity
  8
0-0
  6
JWW_DASHED1
 62
   120
370
     5
100
AcDbLine
 10
-957.7650332273839
 20
-489.445557396952
 30
0.0
 11
-957.7650332273839
 21
631.2626761513889
 31
0.0
  0
LINE
  5
1D9
330
1F
100
AcDbEntity
  8
0-0
  6
JWW_DASHED1
 62
   120
370
     5
100
AcDbLine
 10
-970.765033228484
 20
-489.445557396952
 30
0.0
 11
-970.765033228484
 21
628.1882770015432
 31
0.0
  0
LINE
  5
1DA
330
1F
100
AcDbEntity
  8
0-0
  6
JWW_DASHED1
 62
   120
370
     5
100
AcDbLine
 10
-971.7650332283841
 20
-489.445557396952
 30
0.0
 11
-971.7650332283841
 21
628.0018703597921
 31
0.0
  0
LINE
  5
1DB
330
1F
100
AcDbEntity
  8
0-0
  6
JWW_DASHED1
 62
   120
370
     5
100
AcDbLine
 10
-984.7650332294842
 20
-489.445557396952
 30
0.0
 11
-984.7650332294842
 21
626.2077526871758
 31
0.0
  0
LINE
  5
1DC
330
1F
100
AcDbEntity
  8
0-0
  6
JWW_DASHED1
 62
   120
370
     5
100
AcDbLine
 10
-985.7650332293844
 20
-489.445557396952
 30
0.0
 11
-985.7650332293844
 21
626.117470775705
 31
0.0
  0
LINE
  5
1DD
330
1F
100
AcDbEntity
  8
0-0
  6
JWW_DASHED1
 62
   120
370
     5
100
AcDbLine
 10
-998.7650332304844
 20
-489.445557396952
 30
0.0
 11
-998.7650332304844
 21
625.5541750587395
 31
0.0
  0
LINE
  5
1DE
330
1F
100
AcDbEntity
  8
0-0
  6
JWW_DASHED1
 62
   120
370
     5
100
AcDbLine
 10
-999.7650332303846
 20
-489.445557396952
 30
0.0
 11
-999.7650332303846
 21
625.5541750587395
 31
0.0
  0
LINE
  5
1DF
330
1F
100
AcDbEntity
  8
0-0
  6
JWW_DASHED1
 62
   120
370
     5
100
AcDbLine
 10
-1012.765033231484
 20
-489.445557396952
 30
0.0
 11
-1012.765033231484
 21
625.5541750587395
 31
0.0
  0
LINE
  5
1E0
330
1F
100
AcDbEntity
  8
0-0
  6
JWW_DASHED1
 62
   120
370
     5
100
AcDbLine
 10
-1013.765033231384
 20
-489.445557396952
 30
0.0
 11
-1013.765033231384
 21
625.5541750587395
 31
0.0
  0
LINE
  5
1E1
330
1F
100
AcDbEntity
  8
0-0
  6
JWW_DASHED1
 62
   120
370
     5
100
AcDbLine
 10
-1026.765033232484
 20
-489.445557396952
 30
0.0
 11
-1026.765033232484
 21
625.5541750587395
 31
0.0
  0
LINE
  5
1E2
330
1F
100
AcDbEntity
  8
0-0
  6
JWW_DASHED1
 62
   120
370
     5
100
AcDbLine
 10
-1027.765033232384
 20
-489.445557396952
 30
0.0
 11
-1027.765033232384
 21
625.5541750587395
 31
0.0
  0
LINE
  5
1E3
330
1F
100
AcDbEntity
  8
0-0
  6
JWW_DASHED1
 62
   120
370
     5
100
AcDbLine
 10
-1040.765033233484
 20
-489.445557396952
 30
0.0
 11
-1040.765033233484
 21
625.5541750587395
 31
0.0
  0
LINE
  5
1E4
330
1F
100
AcDbEntity
  8
0-0
  6
JWW_DASHED1
 62
   120
370
     5
100
AcDbLine
 10
-1041.765033233384
 20
-489.445557396952
 30
0.0
 11
-1041.765033233384
 21
625.5541750587395
 31
0.0
  0
LINE
  5
1E5
330
1F
100
AcDbEntity
  8
0-0
  6
JWW_DASHED1
 62
   120
370
     5
100
AcDbLine
 10
-267.7650516914161
 20
-488.4457057108956
 30
0.0
 11
305.2349483085845
 21
-488.4457057108956
 31
0.0
  0
LINE
  5
1E6
330
1F
100
AcDbEntity
  8
0-0
  6
JWW_DASHED1
 62
   120
370
     5
100
AcDbLine
 10
-267.7650516914161
 20
-475.445705709796
 30
0.0
 11
305.2349483085845
 21
-475.445705709796
 31
0.0
  0
LINE
  5
1E7
330
1F
100
AcDbEntity
  8
0-0
  6
JWW_DASHED1
 62
   120
370
     5
100
AcDbLine
 10
-267.7650516914161
 20
-474.4457057098958
 30
0.0
 11
305.2349483085845
 21
-474.4457057098958
 31
0.0
  0
LINE
  5
1E8
330
1F
100
AcDbEntity
  8
0-0
  6
JWW_DASHED1
 62
   120
370
     5
100
AcDbLine
 10
-267.7650516914161
 20
-461.4457057087963
 30
0.0
 11
305.2349483085845
 21
-461.4457057087963
 31
0.0
  0
LINE
  5
1E9
330
1F
100
AcDbEntity
  8
0-0
  6
JWW_DASHED1
 62
   120
370
     5
100
AcDbLine
 10
-267.7650516914161
 20
-460.4457057088961
 30
0.0
 11
305.2349483085845
 21
-460.4457057088961
 31
0.0
  0
LINE
  5
1EA
330
1F
100
AcDbEntity
  8
0-0
  6
JWW_DASHED1
 62
   120
370
     5
100
AcDbLine
 10
-267.7650516914161
 20
-447.4457057077964
 30
0.0
 11
305.2349483085845
 21
-447.4457057077964
 31
0.0
  0
LINE
  5
1EB
330
1F
100
AcDbEntity
  8
0-0
  6
JWW_DASHED1
 62
   120
370
     5
100
AcDbLine
 10
-267.7650516914161
 20
-446.4457057078963
 30
0.0
 11
305.2349483085845
 21
-446.4457057078963
 31
0.0
  0
LINE
  5
1EC
330
1F
100
AcDbEntity
  8
0-0
  6
JWW_DASHED1
 62
   120
370
     5
100
AcDbLine
 10
-267.7650516914161
 20
-433.4457057067966
 30
0.0
 11
305.2349483085845
 21
-433.4457057067966
 31
0.0
  0
LINE
  5
1ED
330
1F
100
AcDbEntity
  8
0-0
  6
JWW_DASHED1
 62
   120
370
     5
100
AcDbLine
 10
-267.7650516914161
 20
-432.4457057068964
 30
0.0
 11
305.2349483085845
 21
-432.4457057068964
 31
0.0
  0
LINE
  5
1EE
330
1F
100
AcDbEntity
  8
0-0
  6
JWW_DASHED1
 62
   120
370
     5
100
AcDbLine
 10
-267.7650516914161
 20
-419.4457057057969
 30
0.0
 11
305.2349483085845
 21
-419.4457057057969
 31
0.0
  0
LINE
  5
1EF
330
1F
100
AcDbEntity
  8
0-0
  6
JWW_DASHED1
 62
   120
370
     5
100
AcDbLine
 10
-267.7650516914161
 20
-418.4457057058967
 30
0.0
 11
305.2349483085845
 21
-418.4457057058967
 31
0.0
  0
LINE
  5
1F0
330
1F
100
AcDbEntity
  8
0-0
  6
JWW_DASHED1
 62
   120
370
     5
100
AcDbLine
 10
-267.7650516914161
 20
-405.4457057047971
 30
0.0
 11
305.2349483085845
 21
-405.4457057047971
 31
0.0
  0
LINE
  5
1F1
330
1F
100
AcDbEntity
  8
0-0
  6
JWW_DASHED1
 62
   120
370
     5
100
AcDbLine
 10
-267.7650516914161
 20
-404.4457057048969
 30
0.0
 11
305.2349483085845
 21
-404.4457057048969
 31
0.0
  0
LINE
  5
1F2
330
1F
100
AcDbEntity
  8
0-0
  6
JWW_DASHED1
 62
   120
370
     5
100
AcDbLine
 10
-267.7650516914161
 20
-391.4457057037973
 30
0.0
 11
305.2349483085845
 21
-391.4457057037973
 31
0.0
  0
LINE
  5
1F3
330
1F
100
AcDbEntity
  8
0-0
  6
JWW_DASHED1
 62
   120
370
     5
100
AcDbLine
 10
-267.7650516914161
 20
-390.4457057038971
 30
0.0
 11
305.2349483085845
 21
-390.4457057038971
 31
0.0
  0
LINE
  5
1F4
330
1F
100
AcDbEntity
  8
0-0
  6
JWW_DASHED1
 62
   120
370
     5
100
AcDbLine
 10
-267.7650516914161
 20
-377.4457057027975
 30
0.0
 11
305.2349483085845
 21
-377.4457057027975
 31
0.0
  0
LINE
  5
1F5
330
1F
100
AcDbEntity
  8
0-0
  6
JWW_DASHED1
 62
   120
370
     5
100
AcDbLine
 10
-267.7650516914161
 20
-376.4457057028973
 30
0.0
 11
305.2349483085845
 21
-376.4457057028973
 31
0.0
  0
LINE
  5
1F6
330
1F
100
AcDbEntity
  8
0-0
  6
JWW_DASHED1
 62
   120
370
     5
100
AcDbLine
 10
-267.7650516914161
 20
-363.4457057017977
 30
0.0
 11
305.2349483085845
 21
-363.4457057017977
 31
0.0
  0
LINE
  5
1F7
330
1F
100
AcDbEntity
  8
0-0
  6
JWW_DASHED1
 62
   120
370
     5
100
AcDbLine
 10
-267.7650516914161
 20
-362.4457057018975
 30
0.0
 11
305.2349483085845
 21
-362.4457057018975
 31
0.0
  0
LINE
  5
1F8
330
1F
100
AcDbEntity
  8
0-0
  6
JWW_DASHED1
 62
   120
370
     5
100
AcDbLine
 10
-267.7650516914161
 20
-349.4457057007979
 30
0.0
 11
305.2349483085845
 21
-349.4457057007979
 31
0.0
  0
LINE
  5
1F9
330
1F
100
AcDbEntity
  8
0-0
  6
JWW_DASHED1
 62
   120
370
     5
100
AcDbLine
 10
-267.7650516914161
 20
-348.4457057008977
 30
0.0
 11
305.2349483085845
 21
-348.4457057008977
 31
0.0
  0
LINE
  5
1FA
330
1F
100
AcDbEntity
  8
0-0
  6
JWW_DASHED1
 62
   120
370
     5
100
AcDbLine
 10
-267.7650516914161
 20
-335.4457056997981
 30
0.0
 11
305.2349483085845
 21
-335.4457056997981
 31
0.0
  0
LINE
  5
1FB
330
1F
100
AcDbEntity
  8
0-0
  6
JWW_DASHED1
 62
   120
370
     5
100
AcDbLine
 10
-267.7650516914161
 20
-334.4457056998979
 30
0.0
 11
305.2349483085845
 21
-334.4457056998979
 31
0.0
  0
LINE
  5
1FC
330
1F
100
AcDbEntity
  8
0-0
  6
JWW_DASHED1
 62
   120
370
     5
100
AcDbLine
 10
-267.7650516914161
 20
-321.4457056987983
 30
0.0
 11
305.2349483085845
 21
-321.4457056987983
 31
0.0
  0
LINE
  5
1FD
330
1F
100
AcDbEntity
  8
0-0
  6
JWW_DASHED1
 62
   120
370
     5
100
AcDbLine
 10
-267.7650516914161
 20
-320.4457056988981
 30
0.0
 11
305.2349483085845
 21
-320.4457056988981
 31
0.0
  0
LINE
  5
1FE
330
1F
100
AcDbEntity
  8
0-0
  6
JWW_DASHED1
 62
   120
370
     5
100
AcDbLine
 10
-267.7650516914161
 20
-307.4457056977985
 30
0.0
 11
305.2349483085845
 21
-307.4457056977985
 31
0.0
  0
LINE
  5
1FF
330
1F
100
AcDbEntity
  8
0-0
  6
JWW_DASHED1
 62
   120
370
     5
100
AcDbLine
 10
-267.7650516914161
 20
-306.4457056978983
 30
0.0
 11
305.2349483085845
 21
-306.4457056978983
 31
0.0
  0
LINE
  5
200
330
1F
100
AcDbEntity
  8
0-0
  6
JWW_DASHED1
 62
   120
370
     5
100
AcDbLine
 10
-267.7650516914161
 20
-293.4457056967988
 30
0.0
 11
305.2349483085845
 21
-293.4457056967988
 31
0.0
  0
LINE
  5
201
330
1F
100
AcDbEntity
  8
0-0
  6
JWW_DASHED1
 62
   120
370
     5
100
AcDbLine
 10
-267.7650516914161
 20
-292.4457056968986
 30
0.0
 11
305.2349483085845
 21
-292.4457056968986
 31
0.0
  0
LINE
  5
202
330
1F
100
AcDbEntity
  8
0-0
  6
JWW_DASHED1
 62
   120
370
     5
100
AcDbLine
 10
-267.7650516914161
 20
-279.4457056957989
 30
0.0
 11
305.2349483085845
 21
-279.4457056957989
 31
0.0
  0
LINE
  5
203
330
1F
100
AcDbEntity
  8
0-0
  6
JWW_DASHED1
 62
   120
370
     5
100
AcDbLine
 10
-267.7650516914161
 20
-278.4457056958988
 30
0.0
 11
305.2349483085845
 21
-278.4457056958988
 31
0.0
  0
LINE
  5
204
330
1F
100
AcDbEntity
  8
0-0
  6
JWW_DASHED1
 62
   120
370
     5
100
AcDbLine
 10
-267.7650516914161
 20
-265.4457056947991
 30
0.0
 11
305.2349483085845
 21
-265.4457056947991
 31
0.0
  0
LINE
  5
205
330
1F
100
AcDbEntity
  8
0-0
  6
JWW_DASHED1
 62
   120
370
     5
100
AcDbLine
 10
-267.7650516914161
 20
-264.4457056948989
 30
0.0
 11
305.2349483085845
 21
-264.4457056948989
 31
0.0
  0
LINE
  5
206
330
1F
100
AcDbEntity
  8
0-0
  6
JWW_DASHED1
 62
   120
370
     5
100
AcDbLine
 10
-267.7650516914161
 20
-251.4457056937994
 30
0.0
 11
305.2349483085845
 21
-251.4457056937994
 31
0.0
  0
LINE
  5
207
330
1F
100
AcDbEntity
  8
0-0
  6
JWW_DASHED1
 62
   120
370
     5
100
AcDbLine
 10
-267.7650516914161
 20
-250.4457056938992
 30
0.0
 11
305.2349483085845
 21
-250.4457056938992
 31
0.0
  0
LINE
  5
208
330
1F
100
AcDbEntity
  8
0-0
  6
JWW_DASHED1
 62
   120
370
     5
100
AcDbLine
 10
-267.7650516914161
 20
-237.4457056927996
 30
0.0
 11
305.2349483085845
 21
-237.4457056927996
 31
0.0
  0
LINE
  5
209
330
1F
100
AcDbEntity
  8
0-0
  6
JWW_DASHED1
 62
   120
370
     5
100
AcDbLine
 10
-267.7650516914161
 20
-236.4457056928994
 30
0.0
 11
305.2349483085845
 21
-236.4457056928994
 31
0.0
  0
LINE
  5
20A
330
1F
100
AcDbEntity
  8
0-0
  6
JWW_DASHED1
 62
   120
370
     5
100
AcDbLine
 10
-267.7650516914161
 20
-223.4457056917998
 30
0.0
 11
305.2349483085845
 21
-223.4457056917998
 31
0.0
  0
LINE
  5
20B
330
1F
100
AcDbEntity
  8
0-0
  6
JWW_DASHED1
 62
   120
370
     5
100
AcDbLine
 10
-267.7650516914161
 20
-222.4457056918996
 30
0.0
 11
305.2349483085845
 21
-222.4457056918996
 31
0.0
  0
LINE
  5
20C
330
1F
100
AcDbEntity
  8
0-0
  6
JWW_DASHED1
 62
   120
370
     5
100
AcDbLine
 10
-267.7650516914161
 20
-209.4457056908
 30
0.0
 11
305.2349483085845
 21
-209.4457056908
 31
0.0
  0
LINE
  5
20D
330
1F
100
AcDbEntity
  8
0-0
  6
JWW_DASHED1
 62
   120
370
     5
100
AcDbLine
 10
-267.7650516914161
 20
-208.4457056908998
 30
0.0
 11
305.2349483085845
 21
-208.4457056908998
 31
0.0
  0
LINE
  5
20E
330
1F
100
AcDbEntity
  8
0-0
  6
JWW_DASHED1
 62
   120
370
     5
100
AcDbLine
 10
-267.7650516914161
 20
-195.4457056898002
 30
0.0
 11
305.2349483085845
 21
-195.4457056898002
 31
0.0
  0
LINE
  5
20F
330
1F
100
AcDbEntity
  8
0-0
  6
JWW_DASHED1
 62
   120
370
     5
100
AcDbLine
 10
-267.7650516914161
 20
-194.4457056899
 30
0.0
 11
305.2349483085845
 21
-194.4457056899
 31
0.0
  0
LINE
  5
210
330
1F
100
AcDbEntity
  8
0-0
  6
JWW_DASHED1
 62
   120
370
     5
100
AcDbLine
 10
-267.7650516914161
 20
-181.4457056888004
 30
0.0
 11
305.2349483085845
 21
-181.4457056888004
 31
0.0
  0
LINE
  5
211
330
1F
100
AcDbEntity
  8
0-0
  6
JWW_DASHED1
 62
   120
370
     5
100
AcDbLine
 10
-267.7650516914161
 20
-180.4457056889002
 30
0.0
 11
305.2349483085845
 21
-180.4457056889002
 31
0.0
  0
LINE
  5
212
330
1F
100
AcDbEntity
  8
0-0
  6
JWW_DASHED1
 62
   120
370
     5
100
AcDbLine
 10
-267.7650516914161
 20
-167.4457056878006
 30
0.0
 11
305.2349483085845
 21
-167.4457056878006
 31
0.0
  0
LINE
  5
213
330
1F
100
AcDbEntity
  8
0-0
  6
JWW_DASHED1
 62
   120
370
     5
100
AcDbLine
 10
-267.7650516914161
 20
-166.4457056879004
 30
0.0
 11
305.2349483085845
 21
-166.4457056879004
 31
0.0
  0
LINE
  5
214
330
1F
100
AcDbEntity
  8
0-0
  6
JWW_DASHED1
 62
   120
370
     5
100
AcDbLine
 10
-267.7650516914161
 20
-153.4457056868008
 30
0.0
 11
305.2349483085845
 21
-153.4457056868008
 31
0.0
  0
LINE
  5
215
330
1F
100
AcDbEntity
  8
0-0
  6
JWW_DASHED1
 62
   120
370
     5
100
AcDbLine
 10
-267.7650516914161
 20
-152.4457056869007
 30
0.0
 11
305.2349483085845
 21
-152.4457056869007
 31
0.0
  0
LINE
  5
216
330
1F
100
AcDbEntity
  8
0-0
  6
JWW_DASHED1
 62
   120
370
     5
100
AcDbLine
 10
-267.7650516914161
 20
-139.445705685801
 30
0.0
 11
305.2349483085845
 21
-139.445705685801
 31
0.0
  0
LINE
  5
217
330
1F
100
AcDbEntity
  8
0-0
  6
JWW_DASHED1
 62
   120
370
     5
100
AcDbLine
 10
-267.7650516914161
 20
-138.4457056859009
 30
0.0
 11
305.2349483085845
 21
-138.4457056859009
 31
0.0
  0
LINE
  5
218
330
1F
100
AcDbEntity
  8
0-0
  6
JWW_DASHED1
 62
   120
370
     5
100
AcDbLine
 10
-267.7650516914161
 20
-125.4457056848013
 30
0.0
 11
305.2349483085845
 21
-125.4457056848013
 31
0.0
  0
LINE
  5
219
330
1F
100
AcDbEntity
  8
0-0
  6
JWW_DASHED1
 62
   120
370
     5
100
AcDbLine
 10
-267.7650516914161
 20
-124.4457056849011
 30
0.0
 11
305.2349483085845
 21
-124.4457056849011
 31
0.0
  0
LINE
  5
21A
330
1F
100
AcDbEntity
  8
0-0
  6
JWW_DASHED1
 62
   120
370
     5
100
AcDbLine
 10
-267.7650516914161
 20
-111.4457056838015
 30
0.0
 11
305.2349483085845
 21
-111.4457056838015
 31
0.0
  0
LINE
  5
21B
330
1F
100
AcDbEntity
  8
0-0
  6
JWW_DASHED1
 62
   120
370
     5
100
AcDbLine
 10
-267.7650516914161
 20
-110.4457056839013
 30
0.0
 11
305.2349483085845
 21
-110.4457056839013
 31
0.0
  0
LINE
  5
21C
330
1F
100
AcDbEntity
  8
0-0
  6
JWW_DASHED1
 62
   120
370
     5
100
AcDbLine
 10
-267.7650516914161
 20
-97.44570568280167
 30
0.0
 11
305.2349483085845
 21
-97.44570568280167
 31
0.0
  0
LINE
  5
21D
330
1F
100
AcDbEntity
  8
0-0
  6
JWW_DASHED1
 62
   120
370
     5
100
AcDbLine
 10
-267.7650516914161
 20
-96.44570568290149
 30
0.0
 11
305.2349483085845
 21
-96.44570568290149
 31
0.0
  0
LINE
  5
21E
330
1F
100
AcDbEntity
  8
0-0
  6
JWW_DASHED1
 62
   120
370
     5
100
AcDbLine
 10
-267.7650516914161
 20
-83.44570568180188
 30
0.0
 11
305.2349483085845
 21
-83.44570568180188
 31
0.0
  0
LINE
  5
21F
330
1F
100
AcDbEntity
  8
0-0
  6
JWW_DASHED1
 62
   120
370
     5
100
AcDbLine
 10
-267.7650516914161
 20
-82.4457056819017
 30
0.0
 11
305.2349483085845
 21
-82.4457056819017
 31
0.0
  0
LINE
  5
220
330
1F
100
AcDbEntity
  8
0-0
  6
JWW_DASHED1
 62
   120
370
     5
100
AcDbLine
 10
-267.7650516914161
 20
-69.44570568080209
 30
0.0
 11
305.2349483085845
 21
-69.44570568080209
 31
0.0
  0
LINE
  5
221
330
1F
100
AcDbEntity
  8
0-0
  6
JWW_DASHED1
 62
   120
370
     5
100
AcDbLine
 10
-267.7650516914161
 20
-68.44570568090191
 30
0.0
 11
305.2349483085845
 21
-68.44570568090191
 31
0.0
  0
LINE
  5
222
330
1F
100
AcDbEntity
  8
0-0
  6
JWW_DASHED1
 62
   120
370
     5
100
AcDbLine
 10
-267.7650516914161
 20
-55.4457056798023
 30
0.0
 11
305.2349483085845
 21
-55.4457056798023
 31
0.0
  0
LINE
  5
223
330
1F
100
AcDbEntity
  8
0-0
  6
JWW_DASHED1
 62
   120
370
     5
100
AcDbLine
 10
-267.7650516914161
 20
-54.44570567990212
 30
0.0
 11
305.2349483085845
 21
-54.44570567990212
 31
0.0
  0
LINE
  5
224
330
1F
100
AcDbEntity
  8
0-0
  6
JWW_DASHED1
 62
   120
370
     5
100
AcDbLine
 10
-267.7650516914161
 20
-41.44570567880251
 30
0.0
 11
305.2349483085845
 21
-41.44570567880251
 31
0.0
  0
LINE
  5
225
330
1F
100
AcDbEntity
  8
0-0
  6
JWW_DASHED1
 62
   120
370
     5
100
AcDbLine
 10
-267.7650516914161
 20
-40.44570567890233
 30
0.0
 11
305.2349483085845
 21
-40.44570567890233
 31
0.0
  0
LINE
  5
226
330
1F
100
AcDbEntity
  8
0-0
  6
JWW_DASHED1
 62
   120
370
     5
100
AcDbLine
 10
-267.7650516914161
 20
-27.44570567780272
 30
0.0
 11
305.2349483085845
 21
-27.44570567780272
 31
0.0
  0
LINE
  5
227
330
1F
100
AcDbEntity
  8
0-0
  6
JWW_DASHED1
 62
   120
370
     5
100
AcDbLine
 10
-267.7650516914161
 20
-26.44570567790254
 30
0.0
 11
305.2349483085845
 21
-26.44570567790254
 31
0.0
  0
LINE
  5
228
330
1F
100
AcDbEntity
  8
0-0
  6
JWW_DASHED1
 62
   120
370
     5
100
AcDbLine
 10
-267.7650516914161
 20
-13.44570567680293
 30
0.0
 11
305.2349483085845
 21
-13.44570567680293
 31
0.0
  0
LINE
  5
229
330
1F
100
AcDbEntity
  8
0-0
  6
JWW_DASHED1
 62
   120
370
     5
100
AcDbLine
 10
-267.7650516914161
 20
-12.44570567690275
 30
0.0
 11
305.2349483085845
 21
-12.44570567690275
 31
0.0
  0
LINE
  5
22A
330
1F
100
AcDbEntity
  8
0-0
  6
JWW_DASHED1
 62
   120
370
     5
100
AcDbLine
 10
-267.7650516914161
 20
0.5542943241968601
 30
0.0
 11
305.2349483085845
 21
0.5542943241968601
 31
0.0
  0
LINE
  5
22B
330
1F
100
AcDbEntity
  8
0-0
  6
JWW_DASHED1
 62
   120
370
     5
100
AcDbLine
 10
-267.7650516914161
 20
1.554294324097043
 30
0.0
 11
305.2349483085845
 21
1.554294324097043
 31
0.0
  0
LINE
  5
22C
330
1F
100
AcDbEntity
  8
0-0
  6
JWW_DASHED1
 62
   120
370
     5
100
AcDbLine
 10
-267.7650516914161
 20
14.55429432519665
 30
0.0
 11
305.2349483085845
 21
14.55429432519665
 31
0.0
  0
LINE
  5
22D
330
1F
100
AcDbEntity
  8
0-0
  6
JWW_DASHED1
 62
   120
370
     5
100
AcDbLine
 10
-267.7650516914161
 20
15.55429432509683
 30
0.0
 11
305.2349483085845
 21
15.55429432509683
 31
0.0
  0
LINE
  5
22E
330
1F
100
AcDbEntity
  8
0-0
  6
JWW_DASHED1
 62
   120
370
     5
100
AcDbLine
 10
-267.7650516914161
 20
28.55429432619644
 30
0.0
 11
305.2349483085845
 21
28.55429432619644
 31
0.0
  0
LINE
  5
22F
330
1F
100
AcDbEntity
  8
0-0
  6
JWW_DASHED1
 62
   120
370
     5
100
AcDbLine
 10
-267.7650516914161
 20
29.55429432609662
 30
0.0
 11
305.2349483085845
 21
29.55429432609662
 31
0.0
  0
LINE
  5
230
330
1F
100
AcDbEntity
  8
0-0
  6
JWW_DASHED1
 62
   120
370
     5
100
AcDbLine
 10
-267.7650516914161
 20
42.55429432719623
 30
0.0
 11
305.2349483085845
 21
42.55429432719623
 31
0.0
  0
LINE
  5
231
330
1F
100
AcDbEntity
  8
0-0
  6
JWW_DASHED1
 62
   120
370
     5
100
AcDbLine
 10
-267.7650516914161
 20
43.55429432709641
 30
0.0
 11
305.2349483085845
 21
43.55429432709641
 31
0.0
  0
LINE
  5
232
330
1F
100
AcDbEntity
  8
0-0
  6
JWW_DASHED1
 62
   120
370
     5
100
AcDbLine
 10
-267.7650516914161
 20
56.55429432819602
 30
0.0
 11
305.2349483085845
 21
56.55429432819602
 31
0.0
  0
LINE
  5
233
330
1F
100
AcDbEntity
  8
0-0
  6
JWW_DASHED1
 62
   120
370
     5
100
AcDbLine
 10
-267.7650516914161
 20
57.5542943280962
 30
0.0
 11
305.2349483085845
 21
57.5542943280962
 31
0.0
  0
LINE
  5
234
330
1F
100
AcDbEntity
  8
0-0
  6
JWW_DASHED1
 62
   120
370
     5
100
AcDbLine
 10
-267.7650516914161
 20
70.55429432919581
 30
0.0
 11
305.2349483085845
 21
70.55429432919581
 31
0.0
  0
LINE
  5
235
330
1F
100
AcDbEntity
  8
0-0
  6
JWW_DASHED1
 62
   120
370
     5
100
AcDbLine
 10
-267.7650516914161
 20
71.554294329096
 30
0.0
 11
305.2349483085845
 21
71.554294329096
 31
0.0
  0
LINE
  5
236
330
1F
100
AcDbEntity
  8
0-0
  6
JWW_DASHED1
 62
   120
370
     5
100
AcDbLine
 10
-267.7650516914161
 20
84.5542943301956
 30
0.0
 11
305.2349483085845
 21
84.5542943301956
 31
0.0
  0
LINE
  5
237
330
1F
100
AcDbEntity
  8
0-0
  6
JWW_DASHED1
 62
   120
370
     5
100
AcDbLine
 10
-267.7650516914161
 20
85.55429433009579
 30
0.0
 11
305.2349483085845
 21
85.55429433009579
 31
0.0
  0
LINE
  5
238
330
1F
100
AcDbEntity
  8
0-0
  6
JWW_DASHED1
 62
   120
370
     5
100
AcDbLine
 10
-267.7650516914161
 20
98.5542943311954
 30
0.0
 11
305.2349483085845
 21
98.5542943311954
 31
0.0
  0
LINE
  5
239
330
1F
100
AcDbEntity
  8
0-0
  6
JWW_DASHED1
 62
   120
370
     5
100
AcDbLine
 10
-267.7650516914161
 20
99.55429433109558
 30
0.0
 11
305.2349483085845
 21
99.55429433109558
 31
0.0
  0
LINE
  5
23A
330
1F
100
AcDbEntity
  8
0-0
  6
JWW_DASHED1
 62
   120
370
     5
100
AcDbLine
 10
-267.7650516914161
 20
112.5542943321952
 30
0.0
 11
305.2349483085845
 21
112.5542943321952
 31
0.0
  0
LINE
  5
23B
330
1F
100
AcDbEntity
  8
0-0
  6
JWW_DASHED1
 62
   120
370
     5
100
AcDbLine
 10
-267.7650516914161
 20
113.5542943320954
 30
0.0
 11
305.2349483085845
 21
113.5542943320954
 31
0.0
  0
LINE
  5
23C
330
1F
100
AcDbEntity
  8
0-0
  6
JWW_DASHED1
 62
   120
370
     5
100
AcDbLine
 10
-267.7650516914161
 20
126.554294333195
 30
0.0
 11
305.2349483085845
 21
126.554294333195
 31
0.0
  0
LINE
  5
23D
330
1F
100
AcDbEntity
  8
0-0
  6
JWW_DASHED1
 62
   120
370
     5
100
AcDbLine
 10
-267.7650516914161
 20
127.5542943330952
 30
0.0
 11
305.2349483085845
 21
127.5542943330952
 31
0.0
  0
LINE
  5
23E
330
1F
100
AcDbEntity
  8
0-0
  6
JWW_DASHED1
 62
   120
370
     5
100
AcDbLine
 10
-267.7650516914161
 20
140.5542943341948
 30
0.0
 11
305.2349483085845
 21
140.5542943341948
 31
0.0
  0
LINE
  5
23F
330
1F
100
AcDbEntity
  8
0-0
  6
JWW_DASHED1
 62
   120
370
     5
100
AcDbLine
 10
-267.7650516914161
 20
141.5542943340949
 30
0.0
 11
305.2349483085845
 21
141.5542943340949
 31
0.0
  0
LINE
  5
240
330
1F
100
AcDbEntity
  8
0-0
  6
JWW_DASHED1
 62
   120
370
     5
100
AcDbLine
 10
-267.7650516914161
 20
154.5542943351946
 30
0.0
 11
305.2349483085845
 21
154.5542943351946
 31
0.0
  0
LINE
  5
241
330
1F
100
AcDbEntity
  8
0-0
  6
JWW_DASHED1
 62
   120
370
     5
100
AcDbLine
 10
-267.7650516914161
 20
155.5542943350947
 30
0.0
 11
305.2349483085845
 21
155.5542943350947
 31
0.0
  0
LINE
  5
242
330
1F
100
AcDbEntity
  8
0-0
  6
JWW_DASHED1
 62
   120
370
     5
100
AcDbLine
 10
-267.7650516914161
 20
168.5542943361943
 30
0.0
 11
305.2349483085845
 21
168.5542943361943
 31
0.0
  0
LINE
  5
243
330
1F
100
AcDbEntity
  8
0-0
  6
JWW_DASHED1
 62
   120
370
     5
100
AcDbLine
 10
-267.7650516914161
 20
169.5542943360945
 30
0.0
 11
305.2349483085845
 21
169.5542943360945
 31
0.0
  0
LINE
  5
244
330
1F
100
AcDbEntity
  8
0-0
  6
JWW_DASHED1
 62
   120
370
     5
100
AcDbLine
 10
-267.7650516914161
 20
182.5542943371941
 30
0.0
 11
305.2349483085845
 21
182.5542943371941
 31
0.0
  0
LINE
  5
245
330
1F
100
AcDbEntity
  8
0-0
  6
JWW_DASHED1
 62
   120
370
     5
100
AcDbLine
 10
-267.7650516914161
 20
183.5542943370943
 30
0.0
 11
305.2349483085845
 21
183.5542943370943
 31
0.0
  0
LINE
  5
246
330
1F
100
AcDbEntity
  8
0-0
  6
JWW_DASHED1
 62
   120
370
     5
100
AcDbLine
 10
-267.7650516914161
 20
196.5542943381939
 30
0.0
 11
305.2349483085845
 21
196.5542943381939
 31
0.0
  0
LINE
  5
247
330
1F
100
AcDbEntity
  8
0-0
  6
JWW_DASHED1
 62
   120
370
     5
100
AcDbLine
 10
-267.7650516914161
 20
197.5542943380941
 30
0.0
 11
305.2349483085845
 21
197.5542943380941
 31
0.0
  0
LINE
  5
248
330
1F
100
AcDbEntity
  8
0-0
  6
JWW_DASHED1
 62
   120
370
     5
100
AcDbLine
 10
-267.7650516914161
 20
210.5542943391937
 30
0.0
 11
305.2349483085845
 21
210.5542943391937
 31
0.0
  0
LINE
  5
249
330
1F
100
AcDbEntity
  8
0-0
  6
JWW_DASHED1
 62
   120
370
     5
100
AcDbLine
 10
-267.7650516914161
 20
211.5542943390939
 30
0.0
 11
305.2349483085845
 21
211.5542943390939
 31
0.0
  0
LINE
  5
24A
330
1F
100
AcDbEntity
  8
0-0
  6
JWW_DASHED1
 62
   120
370
     5
100
AcDbLine
 10
-267.7650516914161
 20
224.5542943401935
 30
0.0
 11
305.2349483085845
 21
224.5542943401935
 31
0.0
  0
LINE
  5
24B
330
1F
100
AcDbEntity
  8
0-0
  6
JWW_DASHED1
 62
   120
370
     5
100
AcDbLine
 10
-267.7650516914161
 20
225.5542943400937
 30
0.0
 11
305.2349483085845
 21
225.5542943400937
 31
0.0
  0
LINE
  5
24C
330
1F
100
AcDbEntity
  8
0-0
  6
JWW_DASHED1
 62
   120
370
     5
100
AcDbLine
 10
-267.7650516914161
 20
238.5542943411933
 30
0.0
 11
305.2349483085845
 21
238.5542943411933
 31
0.0
  0
LINE
  5
24D
330
1F
100
AcDbEntity
  8
0-0
  6
JWW_DASHED1
 62
   120
370
     5
100
AcDbLine
 10
-267.7650516914161
 20
239.5542943410935
 30
0.0
 11
305.2349483085845
 21
239.5542943410935
 31
0.0
  0
LINE
  5
24E
330
1F
100
AcDbEntity
  8
0-0
  6
JWW_DASHED1
 62
   120
370
     5
100
AcDbLine
 10
-267.7650516914161
 20
252.5542943421931
 30
0.0
 11
305.2349483085845
 21
252.5542943421931
 31
0.0
  0
LINE
  5
24F
330
1F
100
AcDbEntity
  8
0-0
  6
JWW_DASHED1
 62
   120
370
     5
100
AcDbLine
 10
-267.7650516914161
 20
253.5542943420933
 30
0.0
 11
305.2349483085845
 21
253.5542943420933
 31
0.0
  0
LINE
  5
250
330
1F
100
AcDbEntity
  8
0-0
  6
JWW_DASHED1
 62
   120
370
     5
100
AcDbLine
 10
-267.7650516914161
 20
266.5542943431929
 30
0.0
 11
305.2349483085845
 21
266.5542943431929
 31
0.0
  0
LINE
  5
251
330
1F
100
AcDbEntity
  8
0-0
  6
JWW_DASHED1
 62
   120
370
     5
100
AcDbLine
 10
-267.7650516914161
 20
267.554294343093
 30
0.0
 11
305.2349483085845
 21
267.554294343093
 31
0.0
  0
LINE
  5
252
330
1F
100
AcDbEntity
  8
0-0
  6
JWW_DASHED1
 62
   120
370
     5
100
AcDbLine
 10
-267.7650516914161
 20
280.5542943441927
 30
0.0
 11
305.2349483085845
 21
280.5542943441927
 31
0.0
  0
LINE
  5
253
330
1F
100
AcDbEntity
  8
0-0
  6
JWW_DASHED1
 62
   120
370
     5
100
AcDbLine
 10
-267.7650516914161
 20
281.5542943440929
 30
0.0
 11
305.2349483085845
 21
281.5542943440929
 31
0.0
  0
LINE
  5
254
330
1F
100
AcDbEntity
  8
0-0
  6
JWW_DASHED1
 62
   120
370
     5
100
AcDbLine
 10
-267.7650516914161
 20
294.5542943451925
 30
0.0
 11
305.2349483085845
 21
294.5542943451925
 31
0.0
  0
LINE
  5
255
330
1F
100
AcDbEntity
  8
0-0
  6
JWW_DASHED1
 62
   120
370
     5
100
AcDbLine
 10
-267.7650516914161
 20
295.5542943450927
 30
0.0
 11
305.2349483085845
 21
295.5542943450927
 31
0.0
  0
LINE
  5
256
330
1F
100
AcDbEntity
  8
0-0
  6
JWW_DASHED1
 62
   120
370
     5
100
AcDbLine
 10
-267.7650516914161
 20
308.5542943461923
 30
0.0
 11
305.2349483085845
 21
308.5542943461923
 31
0.0
  0
LINE
  5
257
330
1F
100
AcDbEntity
  8
0-0
  6
JWW_DASHED1
 62
   120
370
     5
100
AcDbLine
 10
-267.7650516914161
 20
309.5542943460924
 30
0.0
 11
305.2349483085845
 21
309.5542943460924
 31
0.0
  0
LINE
  5
258
330
1F
100
AcDbEntity
  8
0-0
  6
JWW_DASHED1
 62
   120
370
     5
100
AcDbLine
 10
-267.7650516914161
 20
322.554294347192
 30
0.0
 11
305.2349483085845
 21
322.554294347192
 31
0.0
  0
LINE
  5
259
330
1F
100
AcDbEntity
  8
0-0
  6
JWW_DASHED1
 62
   120
370
     5
100
AcDbLine
 10
-267.7650516914161
 20
323.5542943470922
 30
0.0
 11
305.2349483085845
 21
323.5542943470922
 31
0.0
  0
LINE
  5
25A
330
1F
100
AcDbEntity
  8
0-0
  6
JWW_DASHED1
 62
   120
370
     5
100
AcDbLine
 10
-267.7650516914161
 20
336.5542943481918
 30
0.0
 11
305.2349483085845
 21
336.5542943481918
 31
0.0
  0
LINE
  5
25B
330
1F
100
AcDbEntity
  8
0-0
  6
JWW_DASHED1
 62
   120
370
     5
100
AcDbLine
 10
-267.7650516914161
 20
337.554294348092
 30
0.0
 11
305.2349483085845
 21
337.554294348092
 31
0.0
  0
LINE
  5
25C
330
1F
100
AcDbEntity
  8
0-0
  6
JWW_DASHED1
 62
   120
370
     5
100
AcDbLine
 10
-267.7650516914161
 20
350.5542943491917
 30
0.0
 11
305.2349483085845
 21
350.5542943491917
 31
0.0
  0
LINE
  5
25D
330
1F
100
AcDbEntity
  8
0-0
  6
JWW_DASHED1
 62
   120
370
     5
100
AcDbLine
 10
-267.7650516914161
 20
351.5542943490918
 30
0.0
 11
305.2349483085845
 21
351.5542943490918
 31
0.0
  0
LINE
  5
25E
330
1F
100
AcDbEntity
  8
0-0
  6
JWW_DASHED1
 62
   120
370
     5
100
AcDbLine
 10
-267.7650516914161
 20
364.5542943501914
 30
0.0
 11
305.2349483085845
 21
364.5542943501914
 31
0.0
  0
LINE
  5
25F
330
1F
100
AcDbEntity
  8
0-0
  6
JWW_DASHED1
 62
   120
370
     5
100
AcDbLine
 10
-267.7650516914161
 20
365.5542943500916
 30
0.0
 11
305.2349483085845
 21
365.5542943500916
 31
0.0
  0
LINE
  5
260
330
1F
100
AcDbEntity
  8
0-0
  6
JWW_DASHED1
 62
   120
370
     5
100
AcDbLine
 10
-267.7650516914161
 20
378.5542943511912
 30
0.0
 11
305.2349483085845
 21
378.5542943511912
 31
0.0
  0
LINE
  5
261
330
1F
100
AcDbEntity
  8
0-0
  6
JWW_DASHED1
 62
   120
370
     5
100
AcDbLine
 10
-267.7650516914161
 20
379.5542943510914
 30
0.0
 11
305.2349483085845
 21
379.5542943510914
 31
0.0
  0
LINE
  5
262
330
1F
100
AcDbEntity
  8
0-0
  6
JWW_DASHED1
 62
   120
370
     5
100
AcDbLine
 10
-267.7650516914161
 20
392.554294352191
 30
0.0
 11
305.2349483085845
 21
392.554294352191
 31
0.0
  0
LINE
  5
263
330
1F
100
AcDbEntity
  8
0-0
  6
JWW_DASHED1
 62
   120
370
     5
100
AcDbLine
 10
-267.7650516914161
 20
393.5542943520912
 30
0.0
 11
305.2349483085845
 21
393.5542943520912
 31
0.0
  0
LINE
  5
264
330
1F
100
AcDbEntity
  8
0-0
  6
JWW_DASHED1
 62
   120
370
     5
100
AcDbLine
 10
-267.7650516914161
 20
406.5542943531908
 30
0.0
 11
305.2349483085845
 21
406.5542943531908
 31
0.0
  0
LINE
  5
265
330
1F
100
AcDbEntity
  8
0-0
  6
JWW_DASHED1
 62
   120
370
     5
100
AcDbLine
 10
-267.7650516914161
 20
407.554294353091
 30
0.0
 11
305.2349483085845
 21
407.554294353091
 31
0.0
  0
LINE
  5
266
330
1F
100
AcDbEntity
  8
0-0
  6
JWW_DASHED1
 62
   120
370
     5
100
AcDbLine
 10
-267.7650516914161
 20
420.5542943541906
 30
0.0
 11
305.2349483085845
 21
420.5542943541906
 31
0.0
  0
LINE
  5
267
330
1F
100
AcDbEntity
  8
0-0
  6
JWW_DASHED1
 62
   120
370
     5
100
AcDbLine
 10
-267.7650516914161
 20
421.5542943540908
 30
0.0
 11
305.2349483085845
 21
421.5542943540908
 31
0.0
  0
LINE
  5
268
330
1F
100
AcDbEntity
  8
0-0
  6
JWW_DASHED1
 62
   120
370
     5
100
AcDbLine
 10
-267.7650516914161
 20
434.5542943551903
 30
0.0
 11
305.2349483085845
 21
434.5542943551903
 31
0.0
  0
LINE
  5
269
330
1F
100
AcDbEntity
  8
0-0
  6
JWW_DASHED1
 62
   120
370
     5
100
AcDbLine
 10
-267.7650516914161
 20
435.5542943550905
 30
0.0
 11
305.2349483085845
 21
435.5542943550905
 31
0.0
  0
LINE
  5
26A
330
1F
100
AcDbEntity
  8
0-0
  6
JWW_DASHED1
 62
   120
370
     5
100
AcDbLine
 10
-267.7650516914161
 20
448.5542943561902
 30
0.0
 11
305.2349483085845
 21
448.5542943561902
 31
0.0
  0
LINE
  5
26B
330
1F
100
AcDbEntity
  8
0-0
  6
JWW_DASHED1
 62
   120
370
     5
100
AcDbLine
 10
-267.7650516914161
 20
449.5542943560903
 30
0.0
 11
305.2349483085845
 21
449.5542943560903
 31
0.0
  0
LINE
  5
26C
330
1F
100
AcDbEntity
  8
0-0
  6
JWW_DASHED1
 62
   120
370
     5
100
AcDbLine
 10
-267.7650516914161
 20
462.55429435719
 30
0.0
 11
305.2349483085845
 21
462.55429435719
 31
0.0
  0
LINE
  5
26D
330
1F
100
AcDbEntity
  8
0-0
  6
JWW_DASHED1
 62
   120
370
     5
100
AcDbLine
 10
-267.7650516914161
 20
463.5542943570902
 30
0.0
 11
305.2349483085845
 21
463.5542943570902
 31
0.0
  0
LINE
  5
26E
330
1F
100
AcDbEntity
  8
0-0
  6
JWW_DASHED1
 62
   120
370
     5
100
AcDbLine
 10
-267.7650516914161
 20
476.5542943581897
 30
0.0
 11
305.2349483085845
 21
476.5542943581897
 31
0.0
  0
LINE
  5
26F
330
1F
100
AcDbEntity
  8
0-0
  6
JWW_DASHED1
 62
   120
370
     5
100
AcDbLine
 10
-267.7650516914161
 20
477.5542943580899
 30
0.0
 11
305.2349483085845
 21
477.5542943580899
 31
0.0
  0
LINE
  5
270
330
1F
100
AcDbEntity
  8
0-0
  6
JWW_DASHED1
 62
   120
370
     5
100
AcDbLine
 10
-267.7650516914161
 20
490.5542943591895
 30
0.0
 11
305.2349483085845
 21
490.5542943591895
 31
0.0
  0
LINE
  5
271
330
1F
100
AcDbEntity
  8
0-0
  6
JWW_DASHED1
 62
   120
370
     5
100
AcDbLine
 10
-267.7650516914161
 20
491.5542943590897
 30
0.0
 11
305.2349483085845
 21
491.5542943590897
 31
0.0
  0
LINE
  5
272
330
1F
100
AcDbEntity
  8
0-0
  6
JWW_DASHED1
 62
   120
370
     5
100
AcDbLine
 10
-267.7650516914161
 20
504.5542943601893
 30
0.0
 11
305.2349483085845
 21
504.5542943601893
 31
0.0
  0
LINE
  5
273
330
1F
100
AcDbEntity
  8
0-0
  6
JWW_DASHED1
 62
   120
370
     5
100
AcDbLine
 10
-267.7650516914161
 20
505.5542943600895
 30
0.0
 11
305.2349483085845
 21
505.5542943600895
 31
0.0
  0
LINE
  5
274
330
1F
100
AcDbEntity
  8
0-0
  6
JWW_DASHED1
 62
   120
370
     5
100
AcDbLine
 10
-267.7650516914161
 20
518.5542943611891
 30
0.0
 11
305.2349483085845
 21
518.5542943611891
 31
0.0
  0
LINE
  5
275
330
1F
100
AcDbEntity
  8
0-0
  6
JWW_DASHED1
 62
   120
370
     5
100
AcDbLine
 10
-267.7650516914161
 20
519.5542943610893
 30
0.0
 11
305.2349483085845
 21
519.5542943610893
 31
0.0
  0
LINE
  5
276
330
1F
100
AcDbEntity
  8
0-0
  6
JWW_DASHED1
 62
   120
370
     5
100
AcDbLine
 10
-267.7650516914161
 20
532.5542943621889
 30
0.0
 11
305.2349483085845
 21
532.5542943621889
 31
0.0
  0
LINE
  5
277
330
1F
100
AcDbEntity
  8
0-0
  6
JWW_DASHED1
 62
   120
370
     5
100
AcDbLine
 10
-267.7650516914161
 20
533.5542943620891
 30
0.0
 11
305.2349483085845
 21
533.5542943620891
 31
0.0
  0
LINE
  5
278
330
1F
100
AcDbEntity
  8
0-0
  6
JWW_DASHED1
 62
   120
370
     5
100
AcDbLine
 10
-267.7650516914161
 20
546.5542943631887
 30
0.0
 11
305.2349483085845
 21
546.5542943631887
 31
0.0
  0
LINE
  5
279
330
1F
100
AcDbEntity
  8
0-0
  6
JWW_DASHED1
 62
   120
370
     5
100
AcDbLine
 10
-267.7650516914161
 20
547.5542943630888
 30
0.0
 11
305.2349483085845
 21
547.5542943630888
 31
0.0
  0
LINE
  5
27A
330
1F
100
AcDbEntity
  8
0-0
  6
JWW_DASHED1
 62
   120
370
     5
100
AcDbLine
 10
-267.7650516914161
 20
560.5542943641885
 30
0.0
 11
305.2349483085845
 21
560.5542943641885
 31
0.0
  0
LINE
  5
27B
330
1F
100
AcDbEntity
  8
0-0
  6
JWW_DASHED1
 62
   120
370
     5
100
AcDbLine
 10
-267.7650516914161
 20
561.5542943640887
 30
0.0
 11
305.2349483085845
 21
561.5542943640887
 31
0.0
  0
LINE
  5
27C
330
1F
100
AcDbEntity
  8
0-0
  6
JWW_DASHED1
 62
   120
370
     5
100
AcDbLine
 10
-267.7650516914161
 20
574.5542943651883
 30
0.0
 11
305.2349483085845
 21
574.5542943651883
 31
0.0
  0
LINE
  5
27D
330
1F
100
AcDbEntity
  8
0-0
  6
JWW_DASHED1
 62
   120
370
     5
100
AcDbLine
 10
-267.7650516914161
 20
575.5542943650885
 30
0.0
 11
305.2349483085845
 21
575.5542943650885
 31
0.0
  0
LINE
  5
27E
330
1F
100
AcDbEntity
  8
0-0
  6
JWW_DASHED1
 62
   120
370
     5
100
AcDbLine
 10
-267.7650516914161
 20
588.5542943661881
 30
0.0
 11
305.2349483085845
 21
588.5542943661881
 31
0.0
  0
LINE
  5
27F
330
1F
100
AcDbEntity
  8
0-0
  6
JWW_DASHED1
 62
   120
370
     5
100
AcDbLine
 10
-267.7650516914161
 20
589.5542943660882
 30
0.0
 11
305.2349483085845
 21
589.5542943660882
 31
0.0
  0
LINE
  5
280
330
1F
100
AcDbEntity
  8
0-0
  6
JWW_DASHED1
 62
   120
370
     5
100
AcDbLine
 10
-267.7650516914161
 20
602.5542943671878
 30
0.0
 11
305.2349483085845
 21
602.5542943671878
 31
0.0
  0
LINE
  5
281
330
1F
100
AcDbEntity
  8
0-0
  6
JWW_DASHED1
 62
   120
370
     5
100
AcDbLine
 10
-267.7650516914161
 20
603.554294367088
 30
0.0
 11
305.2349483085845
 21
603.554294367088
 31
0.0
  0
LINE
  5
282
330
1F
100
AcDbEntity
  8
0-0
  6
JWW_DASHED1
 62
   120
370
     5
100
AcDbLine
 10
-267.7650516914161
 20
616.5542943681876
 30
0.0
 11
305.2349483085845
 21
616.5542943681876
 31
0.0
  0
LINE
  5
283
330
1F
100
AcDbEntity
  8
0-0
  6
JWW_DASHED1
 62
   120
370
     5
100
AcDbLine
 10
-267.7650516914161
 20
617.5542943680878
 30
0.0
 11
305.2349483085845
 21
617.5542943680878
 31
0.0
  0
LINE
  5
284
330
1F
100
AcDbEntity
  8
0-0
  6
JWW_DASHED1
 62
   120
370
     5
100
AcDbLine
 10
-180.3462099294524
 20
630.5542943691875
 30
0.0
 11
217.8161065466203
 21
630.5542943691875
 31
0.0
  0
LINE
  5
285
330
1F
100
AcDbEntity
  8
0-0
  6
JWW_DASHED1
 62
   120
370
     5
100
AcDbLine
 10
-176.7519800580925
 20
631.5542943690876
 30
0.0
 11
214.2218766752605
 21
631.5542943690876
 31
0.0
  0
LINE
  5
286
330
1F
100
AcDbEntity
  8
0-0
  6
JWW_DASHED1
 62
   120
370
     5
100
AcDbLine
 10
-145.6399025898367
 20
644.5542943701872
 30
0.0
 11
183.1097992070046
 21
644.5542943701872
 31
0.0
  0
LINE
  5
287
330
1F
100
AcDbEntity
  8
0-0
  6
JWW_DASHED1
 62
   120
370
     5
100
AcDbLine
 10
-143.7461026001705
 20
645.5542943700874
 30
0.0
 11
181.2159992173385
 21
645.5542943700874
 31
0.0
  0
LINE
  5
288
330
1F
100
AcDbEntity
  8
0-0
  6
JWW_DASHED1
 62
   120
370
     5
100
AcDbLine
 10
-116.0652585078513
 20
658.554294371187
 30
0.0
 11
153.5351551250189
 21
658.554294371187
 31
0.0
  0
LINE
  5
289
330
1F
100
AcDbEntity
  8
0-0
  6
JWW_DASHED1
 62
   120
370
     5
100
AcDbLine
 10
-113.6436604402751
 20
659.5542943710872
 30
0.0
 11
151.1135570574426
 21
659.5542943710872
 31
0.0
  0
LINE
  5
28A
330
1F
100
AcDbEntity
  8
0-0
  6
JWW_DASHED1
 62
   120
370
     5
100
AcDbLine
 10
-75.76954844990709
 20
672.5542943721869
 30
0.0
 11
113.2394450670746
 21
672.5542943721869
 31
0.0
  0
LINE
  5
28B
330
1F
100
AcDbEntity
  8
0-0
  6
JWW_DASHED1
 62
   120
370
     5
100
AcDbLine
 10
-72.12813662753419
 20
673.554294372087
 30
0.0
 11
109.5980332447017
 21
673.554294372087
 31
0.0
  0
LINE
  5
28C
330
1F
100
AcDbEntity
  8
0-0
  6
JWW_DASHED1
 62
   120
370
     5
100
AcDbLine
 10
299.234966806516
 20
-489.445557396952
 30
0.0
 11
299.234966806516
 21
625.5541750587395
 31
0.0
  0
LINE
  5
28D
330
1F
100
AcDbEntity
  8
0-0
  6
JWW_DASHED1
 62
   120
370
     5
100
AcDbLine
 10
298.2349668066158
 20
-489.445557396952
 30
0.0
 11
298.2349668066158
 21
625.5541750587395
 31
0.0
  0
LINE
  5
28E
330
1F
100
AcDbEntity
  8
0-0
  6
JWW_DASHED1
 62
   120
370
     5
100
AcDbLine
 10
285.2349668055157
 20
-489.445557396952
 30
0.0
 11
285.2349668055157
 21
625.5541750587395
 31
0.0
  0
LINE
  5
28F
330
1F
100
AcDbEntity
  8
0-0
  6
JWW_DASHED1
 62
   120
370
     5
100
AcDbLine
 10
284.234966805616
 20
-489.445557396952
 30
0.0
 11
284.234966805616
 21
625.5541750587395
 31
0.0
  0
LINE
  5
290
330
1F
100
AcDbEntity
  8
0-0
  6
JWW_DASHED1
 62
   120
370
     5
100
AcDbLine
 10
271.2349668045159
 20
-489.445557396952
 30
0.0
 11
271.2349668045159
 21
625.5541750587395
 31
0.0
  0
LINE
  5
291
330
1F
100
AcDbEntity
  8
0-0
  6
JWW_DASHED1
 62
   120
370
     5
100
AcDbLine
 10
270.2349668046157
 20
-489.445557396952
 30
0.0
 11
270.2349668046162
 21
625.5541750587395
 31
0.0
  0
LINE
  5
292
330
1F
100
AcDbEntity
  8
0-0
  6
JWW_DASHED1
 62
   120
370
     5
100
AcDbLine
 10
257.2349668035157
 20
-489.445557396952
 30
0.0
 11
257.2349668035162
 21
625.5541750587395
 31
0.0
  0
LINE
  5
293
330
1F
100
AcDbEntity
  8
0-0
  6
JWW_DASHED1
 62
   120
370
     5
100
AcDbLine
 10
256.234966803616
 20
-489.445557396952
 30
0.0
 11
256.234966803616
 21
625.5541750587395
 31
0.0
  0
LINE
  5
294
330
1F
100
AcDbEntity
  8
0-0
  6
JWW_DASHED1
 62
   120
370
     5
100
AcDbLine
 10
243.2349668025159
 20
-489.445557396952
 30
0.0
 11
243.2349668025159
 21
626.1174675639518
 31
0.0
  0
LINE
  5
295
330
1F
100
AcDbEntity
  8
0-0
  6
JWW_DASHED1
 62
   120
370
     5
100
AcDbLine
 10
242.2349668026158
 20
-489.445557396952
 30
0.0
 11
242.2349668026158
 21
626.2077492259846
 31
0.0
  0
LINE
  5
296
330
1F
100
AcDbEntity
  8
0-0
  6
JWW_DASHED1
 62
   120
370
     5
100
AcDbLine
 10
229.2349668015157
 20
-489.445557396952
 30
0.0
 11
229.2349668015157
 21
628.0018636005184
 31
0.0
  0
LINE
  5
297
330
1F
100
AcDbEntity
  8
0-0
  6
JWW_DASHED1
 62
   120
370
     5
100
AcDbLine
 10
228.234966801616
 20
-489.445557396952
 30
0.0
 11
228.234966801616
 21
628.1882699829544
 31
0.0
  0
LINE
  5
298
330
1F
100
AcDbEntity
  8
0-0
  6
JWW_DASHED1
 62
   120
370
     5
100
AcDbLine
 10
215.2349668005159
 20
-489.445557396952
 30
0.0
 11
215.2349668005159
 21
631.26266565371
 31
0.0
  0
LINE
  5
299
330
1F
100
AcDbEntity
  8
0-0
  6
JWW_DASHED1
 62
   120
370
     5
100
AcDbLine
 10
214.2349668006158
 20
-489.445557396952
 30
0.0
 11
214.2349668006162
 21
631.5504770210896
 31
0.0
  0
LINE
  5
29A
330
1F
100
AcDbEntity
  8
0-0
  6
JWW_DASHED1
 62
   120
370
     5
100
AcDbLine
 10
201.2349667995157
 20
-489.445557396952
 30
0.0
 11
201.2349667995161
 21
635.9963205465533
 31
0.0
  0
LINE
  5
29B
330
1F
100
AcDbEntity
  8
0-0
  6
JWW_DASHED1
 62
   120
370
     5
100
AcDbLine
 10
200.234966799616
 20
-489.445557396952
 30
0.0
 11
200.234966799616
 21
636.3944821940709
 31
0.0
  0
LINE
  5
29C
330
1F
100
AcDbEntity
  8
0-0
  6
JWW_DASHED1
 62
   120
370
     5
100
AcDbLine
 10
187.2349667985159
 20
-489.445557396952
 30
0.0
 11
187.2349667985159
 21
642.3597689237135
 31
0.0
  0
LINE
  5
29D
330
1F
100
AcDbEntity
  8
0-0
  6
JWW_DASHED1
 62
   120
370
     5
100
AcDbLine
 10
186.2349667986157
 20
-489.445557396952
 30
0.0
 11
186.2349667986157
 21
642.8824931225131
 31
0.0
  0
LINE
  5
29E
330
1F
100
AcDbEntity
  8
0-0
  6
JWW_DASHED1
 62
   120
370
     5
100
AcDbLine
 10
173.2349667975161
 20
-489.445557396952
 30
0.0
 11
173.2349667975161
 21
649.6081709472725
 31
0.0
  0
LINE
  5
29F
330
1F
100
AcDbEntity
  8
0-0
  6
JWW_DASHED1
 62
   120
370
     5
100
AcDbLine
 10
172.234966797616
 20
-489.445557396952
 30
0.0
 11
172.234966797616
 21
650.0981507325793
 31
0.0
  0
LINE
  5
2A0
330
1F
100
AcDbEntity
  8
0-0
  6
JWW_DASHED1
 62
   120
370
     5
100
AcDbLine
 10
159.2349667965163
 20
-489.445557396952
 30
0.0
 11
159.2349667965163
 21
656.1160510419046
 31
0.0
  0
LINE
  5
2A1
330
1F
100
AcDbEntity
  8
0-0
  6
JWW_DASHED1
 62
   120
370
     5
100
AcDbLine
 10
158.2349667966162
 20
-489.445557396952
 30
0.0
 11
158.2349667966162
 21
656.5524875220814
 31
0.0
  0
LINE
  5
2A2
330
1F
100
AcDbEntity
  8
0-0
  6
JWW_DASHED1
 62
   120
370
     5
100
AcDbLine
 10
145.2349667955161
 20
-489.445557396952
 30
0.0
 11
145.2349667955161
 21
661.8943655711388
 31
0.0
  0
LINE
  5
2A3
330
1F
100
AcDbEntity
  8
0-0
  6
JWW_DASHED1
 62
   120
370
     5
100
AcDbLine
 10
144.2349667956159
 20
-489.445557396952
 30
0.0
 11
144.2349667956159
 21
662.280237972414
 31
0.0
  0
LINE
  5
2A4
330
1F
100
AcDbEntity
  8
0-0
  6
JWW_DASHED1
 62
   120
370
     5
100
AcDbLine
 10
131.2349667945159
 20
-489.445557396952
 30
0.0
 11
131.2349667945159
 21
666.9812759172106
 31
0.0
  0
LINE
  5
2A5
330
1F
100
AcDbEntity
  8
0-0
  6
JWW_DASHED1
 62
   120
370
     5
100
AcDbLine
 10
130.2349667946157
 20
-489.445557396952
 30
0.0
 11
130.2349667946157
 21
667.3190366718205
 31
0.0
  0
LINE
  5
2A6
330
1F
100
AcDbEntity
  8
0-0
  6
JWW_DASHED1
 62
   120
370
     5
100
AcDbLine
 10
117.2349667935161
 20
-489.445557396952
 30
0.0
 11
117.2349667935161
 21
671.4082000012291
 31
0.0
  0
LINE
  5
2A7
330
1F
100
AcDbEntity
  8
0-0
  6
JWW_DASHED1
 62
   120
370
     5
100
AcDbLine
 10
116.2349667936159
 20
-489.445557396952
 30
0.0
 11
116.2349667936159
 21
671.6998670779554
 31
0.0
  0
LINE
  5
2A8
330
1F
100
AcDbEntity
  8
0-0
  6
JWW_DASHED1
 62
   120
370
     5
100
AcDbLine
 10
103.2349667925163
 20
-489.445557396952
 30
0.0
 11
103.2349667925163
 21
675.2009454206069
 31
0.0
  0
LINE
  5
2A9
330
1F
100
AcDbEntity
  8
0-0
  6
JWW_DASHED1
 62
   120
370
     5
100
AcDbLine
 10
102.2349667926161
 20
-489.445557396952
 30
0.0
 11
102.2349667926161
 21
675.4481714553964
 31
0.0
  0
LINE
  5
2AA
330
1F
100
AcDbEntity
  8
0-0
  6
JWW_DASHED1
 62
   120
370
     5
100
AcDbLine
 10
89.23496679151611
 20
-489.445557396952
 30
0.0
 11
89.23496679151611
 21
678.3805609107236
 31
0.0
  0
LINE
  5
2AB
330
1F
100
AcDbEntity
  8
0-0
  6
JWW_DASHED1
 62
   120
370
     5
100
AcDbLine
 10
88.23496679161593
 20
-489.445557396952
 30
0.0
 11
88.23496679161593
 21
678.5846853380878
 31
0.0
  0
LINE
  5
2AC
330
1F
100
AcDbEntity
  8
0-0
  6
JWW_DASHED1
 62
   120
370
     5
100
AcDbLine
 10
75.2349667905159
 20
-489.445557396952
 30
0.0
 11
75.2349667905159
 21
680.9639791123169
 31
0.0
  0
LINE
  5
2AD
330
1F
100
AcDbEntity
  8
0-0
  6
JWW_DASHED1
 62
   120
370
     5
100
AcDbLine
 10
74.23496679061572
 20
-489.445557396952
 30
0.0
 11
74.23496679061572
 21
681.1260675210957
 31
0.0
  0
LINE
  5
2AE
330
1F
100
AcDbEntity
  8
0-0
  6
JWW_DASHED1
 62
   120
370
     5
100
AcDbLine
 10
61.23496678951611
 20
-489.445557396952
 30
0.0
 11
61.23496678951611
 21
682.9645006455991
 31
0.0
  0
LINE
  5
2AF
330
1F
100
AcDbEntity
  8
0-0
  6
JWW_DASHED1
 62
   120
370
     5
100
AcDbLine
 10
60.23496678961592
 20
-489.445557396952
 30
0.0
 11
60.23496678961592
 21
683.0853742710912
 31
0.0
  0
LINE
  5
2B0
330
1F
100
AcDbEntity
  8
0-0
  6
JWW_DASHED1
 62
   120
370
     5
100
AcDbLine
 10
47.23496678851632
 20
-489.445557396952
 30
0.0
 11
47.23496678851632
 21
684.3921540773641
 31
0.0
  0
LINE
  5
2B1
330
1F
100
AcDbEntity
  8
0-0
  6
JWW_DASHED1
 62
   120
370
     5
100
AcDbLine
 10
46.23496678861613
 20
-489.445557396952
 30
0.0
 11
46.23496678861613
 21
684.4724114490106
 31
0.0
  0
LINE
  5
2B2
330
1F
100
AcDbEntity
  8
0-0
  6
JWW_DASHED1
 62
   120
370
     5
100
AcDbLine
 10
33.2349667875161
 20
-489.445557396952
 30
0.0
 11
33.2349667875161
 21
685.2539557055258
 31
0.0
  0
LINE
  5
2B3
330
1F
100
AcDbEntity
  8
0-0
  6
JWW_DASHED1
 62
   120
370
     5
100
AcDbLine
 10
32.23496678761592
 20
-489.445557396952
 30
0.0
 11
32.23496678761592
 21
685.2939878378544
 31
0.0
  0
LINE
  5
2B4
330
1F
100
AcDbEntity
  8
0-0
  6
JWW_DASHED1
 62
   120
370
     5
100
AcDbLine
 10
19.23496678651588
 20
-489.445557396952
 30
0.0
 11
19.23496678651588
 21
685.554085433601
 31
0.0
  0
LINE
  5
2B5
330
1F
100
AcDbEntity
  8
0-0
  6
JWW_DASHED1
 62
   120
370
     5
100
AcDbLine
 10
18.2349667866157
 20
-489.445557396952
 30
0.0
 11
18.2349667866157
 21
685.5540854864245
 31
0.0
  0
LINE
  5
2B6
330
1F
100
AcDbEntity
  8
0-0
  6
JWW_DASHED1
 62
   120
370
     5
100
AcDbLine
 10
5.234966785516093
 20
-489.445557396952
 30
0.0
 11
5.234966785516093
 21
685.2939892643604
 31
0.0
  0
LINE
  5
2B7
330
1F
100
AcDbEntity
  8
0-0
  6
JWW_DASHED1
 62
   120
370
     5
100
AcDbLine
 10
4.23496678561591
 20
-489.445557396952
 30
0.0
 11
4.23496678561591
 21
685.253957237897
 31
0.0
  0
LINE
  5
2B8
330
1F
100
AcDbEntity
  8
0-0
  6
JWW_DASHED1
 62
   120
370
     5
100
AcDbLine
 10
-8.765033215483697
 20
-489.445557396952
 30
0.0
 11
-8.765033215483697
 21
684.4724143617219
 31
0.0
  0
LINE
  5
2B9
330
1F
100
AcDbEntity
  8
0-0
  6
JWW_DASHED1
 62
   120
370
     5
100
AcDbLine
 10
-9.76503321538388
 20
-489.445557396952
 30
0.0
 11
-9.76503321538388
 21
684.3921570966501
 31
0.0
  0
LINE
  5
2BA
330
1F
100
AcDbEntity
  8
0-0
  6
JWW_DASHED1
 62
   120
370
     5
100
AcDbLine
 10
-22.76503321648391
 20
-489.445557396952
 30
0.0
 11
-22.76503321648391
 21
683.0853786841413
 31
0.0
  0
LINE
  5
2BB
330
1F
100
AcDbEntity
  8
0-0
  6
JWW_DASHED1
 62
   120
370
     5
100
AcDbLine
 10
-23.7650332163841
 20
-489.445557396952
 30
0.0
 11
-23.7650332163841
 21
682.9645051665335
 31
0.0
  0
LINE
  5
2BC
330
1F
100
AcDbEntity
  8
0-0
  6
JWW_DASHED1
 62
   120
370
     5
100
AcDbLine
 10
-36.76503321748413
 20
-489.445557396952
 30
0.0
 11
-36.76503321748413
 21
681.1260734563672
 31
0.0
  0
LINE
  5
2BD
330
1F
100
AcDbEntity
  8
0-0
  6
JWW_DASHED1
 62
   120
370
     5
100
AcDbLine
 10
-37.76503321738431
 20
-489.445557396952
 30
0.0
 11
-37.76503321738431
 21
680.963985157328
 31
0.0
  0
LINE
  5
2BE
330
1F
100
AcDbEntity
  8
0-0
  6
JWW_DASHED1
 62
   120
370
     5
100
AcDbLine
 10
-50.76503321848392
 20
-489.445557396952
 30
0.0
 11
-50.76503321848392
 21
678.5846928255938
 31
0.0
  0
LINE
  5
2BF
330
1F
100
AcDbEntity
  8
0-0
  6
JWW_DASHED1
 62
   120
370
     5
100
AcDbLine
 10
-51.7650332183841
 20
-489.445557396952
 30
0.0
 11
-51.7650332183841
 21
678.3805685104795
 31
0.0
  0
LINE
  5
2C0
330
1F
100
AcDbEntity
  8
0-0
  6
JWW_DASHED1
 62
   120
370
     5
100
AcDbLine
 10
-64.76503321948414
 20
-489.445557396952
 30
0.0
 11
-64.76503321948414
 21
675.448180534209
 31
0.0
  0
LINE
  5
2C1
330
1F
100
AcDbEntity
  8
0-0
  6
JWW_DASHED1
 62
   120
370
     5
100
AcDbLine
 10
-65.76503321938432
 20
-489.445557396952
 30
0.0
 11
-65.76503321938432
 21
675.2009546148344
 31
0.0
  0
LINE
  5
2C2
330
1F
100
AcDbEntity
  8
0-0
  6
JWW_DASHED1
 62
   120
370
     5
100
AcDbLine
 10
-78.76503322048393
 20
-489.445557396952
 30
0.0
 11
-78.76503322048393
 21
671.6998777971327
 31
0.0
  0
LINE
  5
2C3
330
1F
100
AcDbEntity
  8
0-0
  6
JWW_DASHED1
 62
   120
370
     5
100
AcDbLine
 10
-79.76503322038411
 20
-489.445557396952
 30
0.0
 11
-79.76503322038411
 21
671.4082108397503
 31
0.0
  0
LINE
  5
2C4
330
1F
100
AcDbEntity
  8
0-0
  6
JWW_DASHED1
 62
   120
370
     5
100
AcDbLine
 10
-92.76503322148415
 20
-489.445557396952
 30
0.0
 11
-92.76503322148415
 21
667.3190490920439
 31
0.0
  0
LINE
  5
2C5
330
1F
100
AcDbEntity
  8
0-0
  6
JWW_DASHED1
 62
   120
370
     5
100
AcDbLine
 10
-93.76503322138433
 20
-489.445557396952
 30
0.0
 11
-93.76503322138433
 21
666.9812884616346
 31
0.0
  0
LINE
  5
2C6
330
1F
100
AcDbEntity
  8
0-0
  6
JWW_DASHED1
 62
   120
370
     5
100
AcDbLine
 10
-106.7650332224839
 20
-489.445557396952
 30
0.0
 11
-106.7650332224839
 21
662.2802521677346
 31
0.0
  0
LINE
  5
2C7
330
1F
100
AcDbEntity
  8
0-0
  6
JWW_DASHED1
 62
   120
370
     5
100
AcDbLine
 10
-107.7650332223841
 20
-489.445557396952
 30
0.0
 11
-107.7650332223841
 21
661.8943798964443
 31
0.0
  0
LINE
  5
2C8
330
1F
100
AcDbEntity
  8
0-0
  6
JWW_DASHED1
 62
   120
370
     5
100
AcDbLine
 10
-120.7650332234842
 20
-489.445557396952
 30
0.0
 11
-120.7650332234842
 21
656.5525035824845
 31
0.0
  0
LINE
  5
2C9
330
1F
100
AcDbEntity
  8
0-0
  6
JWW_DASHED1
 62
   120
370
     5
100
AcDbLine
 10
-121.7650332233843
 20
-489.445557396952
 30
0.0
 11
-121.7650332233843
 21
656.1160672394413
 31
0.0
  0
LINE
  5
2CA
330
1F
100
AcDbEntity
  8
0-0
  6
JWW_DASHED1
 62
   120
370
     5
100
AcDbLine
 10
-134.7650332244839
 20
-489.445557396952
 30
0.0
 11
-134.7650332244839
 21
650.0981687673681
 31
0.0
  0
LINE
  5
2CB
330
1F
100
AcDbEntity
  8
0-0
  6
JWW_DASHED1
 62
   120
370
     5
100
AcDbLine
 10
-135.7650332243841
 20
-489.445557396952
 30
0.0
 11
-135.7650332243841
 21
649.608189127926
 31
0.0
  0
LINE
  5
2CC
330
1F
100
AcDbEntity
  8
0-0
  6
JWW_DASHED1
 62
   120
370
     5
100
AcDbLine
 10
-148.7650332254842
 20
-489.445557396952
 30
0.0
 11
-148.7650332254842
 21
642.8825126175866
 31
0.0
  0
LINE
  5
2CD
330
1F
100
AcDbEntity
  8
0-0
  6
JWW_DASHED1
 62
   120
370
     5
100
AcDbLine
 10
-149.7650332253843
 20
-489.445557396952
 30
0.0
 11
-149.7650332253843
 21
642.3597880649027
 31
0.0
  0
LINE
  5
2CE
330
1F
100
AcDbEntity
  8
0-0
  6
JWW_DASHED1
 62
   120
370
     5
100
AcDbLine
 10
-162.7650332264835
 20
-489.445557396952
 30
0.0
 11
-162.7650332264835
 21
636.3944970623993
 31
0.0
  0
LINE
  5
2CF
330
1F
100
AcDbEntity
  8
0-0
  6
JWW_DASHED1
 62
   120
370
     5
100
AcDbLine
 10
-163.7650332263837
 20
-489.445557396952
 30
0.0
 11
-163.7650332263837
 21
635.9963351075999
 31
0.0
  0
LINE
  5
2D0
330
1F
100
AcDbEntity
  8
0-0
  6
JWW_DASHED1
 62
   120
370
     5
100
AcDbLine
 10
-176.7650332274837
 20
-489.445557396952
 30
0.0
 11
-176.7650332274837
 21
631.5504877963645
 31
0.0
  0
LINE
  5
2D1
330
1F
100
AcDbEntity
  8
0-0
  6
JWW_DASHED1
 62
   120
370
     5
100
AcDbLine
 10
-177.7650332273839
 20
-489.445557396952
 30
0.0
 11
-177.7650332273839
 21
631.2626761513889
 31
0.0
  0
LINE
  5
2D2
330
1F
100
AcDbEntity
  8
0-0
  6
JWW_DASHED1
 62
   120
370
     5
100
AcDbLine
 10
-190.765033228484
 20
-489.445557396952
 30
0.0
 11
-190.765033228484
 21
628.1882770015432
 31
0.0
  0
LINE
  5
2D3
330
1F
100
AcDbEntity
  8
0-0
  6
JWW_DASHED1
 62
   120
370
     5
100
AcDbLine
 10
-191.7650332283841
 20
-489.445557396952
 30
0.0
 11
-191.7650332283841
 21
628.0018703597921
 31
0.0
  0
LINE
  5
2D4
330
1F
100
AcDbEntity
  8
0-0
  6
JWW_DASHED1
 62
   120
370
     5
100
AcDbLine
 10
-204.7650332294842
 20
-489.445557396952
 30
0.0
 11
-204.7650332294842
 21
626.2077526871758
 31
0.0
  0
LINE
  5
2D5
330
1F
100
AcDbEntity
  8
0-0
  6
JWW_DASHED1
 62
   120
370
     5
100
AcDbLine
 10
-205.7650332293844
 20
-489.445557396952
 30
0.0
 11
-205.7650332293844
 21
626.117470775705
 31
0.0
  0
LINE
  5
2D6
330
1F
100
AcDbEntity
  8
0-0
  6
JWW_DASHED1
 62
   120
370
     5
100
AcDbLine
 10
-218.7650332304844
 20
-489.445557396952
 30
0.0
 11
-218.7650332304844
 21
625.5541750587395
 31
0.0
  0
LINE
  5
2D7
330
1F
100
AcDbEntity
  8
0-0
  6
JWW_DASHED1
 62
   120
370
     5
100
AcDbLine
 10
-219.7650332303846
 20
-489.445557396952
 30
0.0
 11
-219.7650332303846
 21
625.5541750587395
 31
0.0
  0
LINE
  5
2D8
330
1F
100
AcDbEntity
  8
0-0
  6
JWW_DASHED1
 62
   120
370
     5
100
AcDbLine
 10
-232.7650332314838
 20
-489.445557396952
 30
0.0
 11
-232.7650332314838
 21
625.5541750587395
 31
0.0
  0
LINE
  5
2D9
330
1F
100
AcDbEntity
  8
0-0
  6
JWW_DASHED1
 62
   120
370
     5
100
AcDbLine
 10
-233.7650332313839
 20
-489.445557396952
 30
0.0
 11
-233.7650332313839
 21
625.5541750587395
 31
0.0
  0
LINE
  5
2DA
330
1F
100
AcDbEntity
  8
0-0
  6
JWW_DASHED1
 62
   120
370
     5
100
AcDbLine
 10
-246.765033232484
 20
-489.445557396952
 30
0.0
 11
-246.765033232484
 21
625.5541750587395
 31
0.0
  0
LINE
  5
2DB
330
1F
100
AcDbEntity
  8
0-0
  6
JWW_DASHED1
 62
   120
370
     5
100
AcDbLine
 10
-247.7650332323842
 20
-489.445557396952
 30
0.0
 11
-247.7650332323842
 21
625.5541750587395
 31
0.0
  0
LINE
  5
2DC
330
1F
100
AcDbEntity
  8
0-0
  6
JWW_DASHED1
 62
   120
370
     5
100
AcDbLine
 10
-260.7650332334842
 20
-489.445557396952
 30
0.0
 11
-260.7650332334842
 21
625.5541750587395
 31
0.0
  0
LINE
  5
2DD
330
1F
100
AcDbEntity
  8
0-0
  6
JWW_DASHED1
 62
   120
370
     5
100
AcDbLine
 10
-261.7650332333844
 20
-489.445557396952
 30
0.0
 11
-261.7650332333844
 21
625.5541750587395
 31
0.0
  0
LINE
  5
2DE
330
1F
100
AcDbEntity
  8
0-0
  6
JWW_DASHED1
 62
   120
370
     5
100
AcDbLine
 10
512.2349483085839
 20
-488.4457057108956
 30
0.0
 11
1085.234948308585
 21
-488.4457057108956
 31
0.0
  0
LINE
  5
2DF
330
1F
100
AcDbEntity
  8
0-0
  6
JWW_DASHED1
 62
   120
370
     5
100
AcDbLine
 10
512.2349483085839
 20
-475.445705709796
 30
0.0
 11
1085.234948308585
 21
-475.445705709796
 31
0.0
  0
LINE
  5
2E0
330
1F
100
AcDbEntity
  8
0-0
  6
JWW_DASHED1
 62
   120
370
     5
100
AcDbLine
 10
512.2349483085839
 20
-474.4457057098958
 30
0.0
 11
1085.234948308585
 21
-474.4457057098958
 31
0.0
  0
LINE
  5
2E1
330
1F
100
AcDbEntity
  8
0-0
  6
JWW_DASHED1
 62
   120
370
     5
100
AcDbLine
 10
512.2349483085839
 20
-461.4457057087963
 30
0.0
 11
1085.234948308585
 21
-461.4457057087963
 31
0.0
  0
LINE
  5
2E2
330
1F
100
AcDbEntity
  8
0-0
  6
JWW_DASHED1
 62
   120
370
     5
100
AcDbLine
 10
512.2349483085839
 20
-460.4457057088961
 30
0.0
 11
1085.234948308585
 21
-460.4457057088961
 31
0.0
  0
LINE
  5
2E3
330
1F
100
AcDbEntity
  8
0-0
  6
JWW_DASHED1
 62
   120
370
     5
100
AcDbLine
 10
512.2349483085839
 20
-447.4457057077964
 30
0.0
 11
1085.234948308585
 21
-447.4457057077964
 31
0.0
  0
LINE
  5
2E4
330
1F
100
AcDbEntity
  8
0-0
  6
JWW_DASHED1
 62
   120
370
     5
100
AcDbLine
 10
512.2349483085839
 20
-446.4457057078963
 30
0.0
 11
1085.234948308585
 21
-446.4457057078963
 31
0.0
  0
LINE
  5
2E5
330
1F
100
AcDbEntity
  8
0-0
  6
JWW_DASHED1
 62
   120
370
     5
100
AcDbLine
 10
512.2349483085839
 20
-433.4457057067966
 30
0.0
 11
1085.234948308585
 21
-433.4457057067966
 31
0.0
  0
LINE
  5
2E6
330
1F
100
AcDbEntity
  8
0-0
  6
JWW_DASHED1
 62
   120
370
     5
100
AcDbLine
 10
512.2349483085839
 20
-432.4457057068964
 30
0.0
 11
1085.234948308585
 21
-432.4457057068964
 31
0.0
  0
LINE
  5
2E7
330
1F
100
AcDbEntity
  8
0-0
  6
JWW_DASHED1
 62
   120
370
     5
100
AcDbLine
 10
512.2349483085839
 20
-419.4457057057969
 30
0.0
 11
1085.234948308585
 21
-419.4457057057969
 31
0.0
  0
LINE
  5
2E8
330
1F
100
AcDbEntity
  8
0-0
  6
JWW_DASHED1
 62
   120
370
     5
100
AcDbLine
 10
512.2349483085839
 20
-418.4457057058967
 30
0.0
 11
1085.234948308585
 21
-418.4457057058967
 31
0.0
  0
LINE
  5
2E9
330
1F
100
AcDbEntity
  8
0-0
  6
JWW_DASHED1
 62
   120
370
     5
100
AcDbLine
 10
512.2349483085839
 20
-405.4457057047971
 30
0.0
 11
1085.234948308585
 21
-405.4457057047971
 31
0.0
  0
LINE
  5
2EA
330
1F
100
AcDbEntity
  8
0-0
  6
JWW_DASHED1
 62
   120
370
     5
100
AcDbLine
 10
512.2349483085839
 20
-404.4457057048969
 30
0.0
 11
1085.234948308585
 21
-404.4457057048969
 31
0.0
  0
LINE
  5
2EB
330
1F
100
AcDbEntity
  8
0-0
  6
JWW_DASHED1
 62
   120
370
     5
100
AcDbLine
 10
512.2349483085839
 20
-391.4457057037973
 30
0.0
 11
1085.234948308585
 21
-391.4457057037973
 31
0.0
  0
LINE
  5
2EC
330
1F
100
AcDbEntity
  8
0-0
  6
JWW_DASHED1
 62
   120
370
     5
100
AcDbLine
 10
512.2349483085839
 20
-390.4457057038971
 30
0.0
 11
1085.234948308585
 21
-390.4457057038971
 31
0.0
  0
LINE
  5
2ED
330
1F
100
AcDbEntity
  8
0-0
  6
JWW_DASHED1
 62
   120
370
     5
100
AcDbLine
 10
512.2349483085839
 20
-377.4457057027975
 30
0.0
 11
1085.234948308585
 21
-377.4457057027975
 31
0.0
  0
LINE
  5
2EE
330
1F
100
AcDbEntity
  8
0-0
  6
JWW_DASHED1
 62
   120
370
     5
100
AcDbLine
 10
512.2349483085839
 20
-376.4457057028973
 30
0.0
 11
1085.234948308585
 21
-376.4457057028973
 31
0.0
  0
LINE
  5
2EF
330
1F
100
AcDbEntity
  8
0-0
  6
JWW_DASHED1
 62
   120
370
     5
100
AcDbLine
 10
512.2349483085839
 20
-363.4457057017977
 30
0.0
 11
1085.234948308585
 21
-363.4457057017977
 31
0.0
  0
LINE
  5
2F0
330
1F
100
AcDbEntity
  8
0-0
  6
JWW_DASHED1
 62
   120
370
     5
100
AcDbLine
 10
512.2349483085839
 20
-362.4457057018975
 30
0.0
 11
1085.234948308585
 21
-362.4457057018975
 31
0.0
  0
LINE
  5
2F1
330
1F
100
AcDbEntity
  8
0-0
  6
JWW_DASHED1
 62
   120
370
     5
100
AcDbLine
 10
512.2349483085839
 20
-349.4457057007979
 30
0.0
 11
1085.234948308585
 21
-349.4457057007979
 31
0.0
  0
LINE
  5
2F2
330
1F
100
AcDbEntity
  8
0-0
  6
JWW_DASHED1
 62
   120
370
     5
100
AcDbLine
 10
512.2349483085839
 20
-348.4457057008977
 30
0.0
 11
1085.234948308585
 21
-348.4457057008977
 31
0.0
  0
LINE
  5
2F3
330
1F
100
AcDbEntity
  8
0-0
  6
JWW_DASHED1
 62
   120
370
     5
100
AcDbLine
 10
512.2349483085839
 20
-335.4457056997981
 30
0.0
 11
1085.234948308585
 21
-335.4457056997981
 31
0.0
  0
LINE
  5
2F4
330
1F
100
AcDbEntity
  8
0-0
  6
JWW_DASHED1
 62
   120
370
     5
100
AcDbLine
 10
512.2349483085839
 20
-334.4457056998979
 30
0.0
 11
1085.234948308585
 21
-334.4457056998979
 31
0.0
  0
LINE
  5
2F5
330
1F
100
AcDbEntity
  8
0-0
  6
JWW_DASHED1
 62
   120
370
     5
100
AcDbLine
 10
512.2349483085839
 20
-321.4457056987983
 30
0.0
 11
1085.234948308585
 21
-321.4457056987983
 31
0.0
  0
LINE
  5
2F6
330
1F
100
AcDbEntity
  8
0-0
  6
JWW_DASHED1
 62
   120
370
     5
100
AcDbLine
 10
512.2349483085839
 20
-320.4457056988981
 30
0.0
 11
1085.234948308585
 21
-320.4457056988981
 31
0.0
  0
LINE
  5
2F7
330
1F
100
AcDbEntity
  8
0-0
  6
JWW_DASHED1
 62
   120
370
     5
100
AcDbLine
 10
512.2349483085839
 20
-307.4457056977985
 30
0.0
 11
1085.234948308585
 21
-307.4457056977985
 31
0.0
  0
LINE
  5
2F8
330
1F
100
AcDbEntity
  8
0-0
  6
JWW_DASHED1
 62
   120
370
     5
100
AcDbLine
 10
512.2349483085839
 20
-306.4457056978983
 30
0.0
 11
1085.234948308585
 21
-306.4457056978983
 31
0.0
  0
LINE
  5
2F9
330
1F
100
AcDbEntity
  8
0-0
  6
JWW_DASHED1
 62
   120
370
     5
100
AcDbLine
 10
512.2349483085839
 20
-293.4457056967988
 30
0.0
 11
1085.234948308585
 21
-293.4457056967988
 31
0.0
  0
LINE
  5
2FA
330
1F
100
AcDbEntity
  8
0-0
  6
JWW_DASHED1
 62
   120
370
     5
100
AcDbLine
 10
512.2349483085839
 20
-292.4457056968986
 30
0.0
 11
1085.234948308585
 21
-292.4457056968986
 31
0.0
  0
LINE
  5
2FB
330
1F
100
AcDbEntity
  8
0-0
  6
JWW_DASHED1
 62
   120
370
     5
100
AcDbLine
 10
512.2349483085839
 20
-279.4457056957989
 30
0.0
 11
1085.234948308585
 21
-279.4457056957989
 31
0.0
  0
LINE
  5
2FC
330
1F
100
AcDbEntity
  8
0-0
  6
JWW_DASHED1
 62
   120
370
     5
100
AcDbLine
 10
512.2349483085839
 20
-278.4457056958988
 30
0.0
 11
1085.234948308585
 21
-278.4457056958988
 31
0.0
  0
LINE
  5
2FD
330
1F
100
AcDbEntity
  8
0-0
  6
JWW_DASHED1
 62
   120
370
     5
100
AcDbLine
 10
512.2349483085839
 20
-265.4457056947991
 30
0.0
 11
1085.234948308585
 21
-265.4457056947991
 31
0.0
  0
LINE
  5
2FE
330
1F
100
AcDbEntity
  8
0-0
  6
JWW_DASHED1
 62
   120
370
     5
100
AcDbLine
 10
512.2349483085839
 20
-264.4457056948989
 30
0.0
 11
1085.234948308585
 21
-264.4457056948989
 31
0.0
  0
LINE
  5
2FF
330
1F
100
AcDbEntity
  8
0-0
  6
JWW_DASHED1
 62
   120
370
     5
100
AcDbLine
 10
512.2349483085839
 20
-251.4457056937994
 30
0.0
 11
1085.234948308585
 21
-251.4457056937994
 31
0.0
  0
LINE
  5
300
330
1F
100
AcDbEntity
  8
0-0
  6
JWW_DASHED1
 62
   120
370
     5
100
AcDbLine
 10
512.2349483085839
 20
-250.4457056938992
 30
0.0
 11
1085.234948308585
 21
-250.4457056938992
 31
0.0
  0
LINE
  5
301
330
1F
100
AcDbEntity
  8
0-0
  6
JWW_DASHED1
 62
   120
370
     5
100
AcDbLine
 10
512.2349483085839
 20
-237.4457056927996
 30
0.0
 11
1085.234948308585
 21
-237.4457056927996
 31
0.0
  0
LINE
  5
302
330
1F
100
AcDbEntity
  8
0-0
  6
JWW_DASHED1
 62
   120
370
     5
100
AcDbLine
 10
512.2349483085839
 20
-236.4457056928994
 30
0.0
 11
1085.234948308585
 21
-236.4457056928994
 31
0.0
  0
LINE
  5
303
330
1F
100
AcDbEntity
  8
0-0
  6
JWW_DASHED1
 62
   120
370
     5
100
AcDbLine
 10
512.2349483085839
 20
-223.4457056917998
 30
0.0
 11
1085.234948308585
 21
-223.4457056917998
 31
0.0
  0
LINE
  5
304
330
1F
100
AcDbEntity
  8
0-0
  6
JWW_DASHED1
 62
   120
370
     5
100
AcDbLine
 10
512.2349483085839
 20
-222.4457056918996
 30
0.0
 11
1085.234948308585
 21
-222.4457056918996
 31
0.0
  0
LINE
  5
305
330
1F
100
AcDbEntity
  8
0-0
  6
JWW_DASHED1
 62
   120
370
     5
100
AcDbLine
 10
512.2349483085839
 20
-209.4457056908
 30
0.0
 11
1085.234948308585
 21
-209.4457056908
 31
0.0
  0
LINE
  5
306
330
1F
100
AcDbEntity
  8
0-0
  6
JWW_DASHED1
 62
   120
370
     5
100
AcDbLine
 10
512.2349483085839
 20
-208.4457056908998
 30
0.0
 11
1085.234948308585
 21
-208.4457056908998
 31
0.0
  0
LINE
  5
307
330
1F
100
AcDbEntity
  8
0-0
  6
JWW_DASHED1
 62
   120
370
     5
100
AcDbLine
 10
512.2349483085839
 20
-195.4457056898002
 30
0.0
 11
1085.234948308585
 21
-195.4457056898002
 31
0.0
  0
LINE
  5
308
330
1F
100
AcDbEntity
  8
0-0
  6
JWW_DASHED1
 62
   120
370
     5
100
AcDbLine
 10
512.2349483085839
 20
-194.4457056899
 30
0.0
 11
1085.234948308585
 21
-194.4457056899
 31
0.0
  0
LINE
  5
309
330
1F
100
AcDbEntity
  8
0-0
  6
JWW_DASHED1
 62
   120
370
     5
100
AcDbLine
 10
512.2349483085839
 20
-181.4457056888004
 30
0.0
 11
1085.234948308585
 21
-181.4457056888004
 31
0.0
  0
LINE
  5
30A
330
1F
100
AcDbEntity
  8
0-0
  6
JWW_DASHED1
 62
   120
370
     5
100
AcDbLine
 10
512.2349483085839
 20
-180.4457056889002
 30
0.0
 11
1085.234948308585
 21
-180.4457056889002
 31
0.0
  0
LINE
  5
30B
330
1F
100
AcDbEntity
  8
0-0
  6
JWW_DASHED1
 62
   120
370
     5
100
AcDbLine
 10
512.2349483085839
 20
-167.4457056878006
 30
0.0
 11
1085.234948308585
 21
-167.4457056878006
 31
0.0
  0
LINE
  5
30C
330
1F
100
AcDbEntity
  8
0-0
  6
JWW_DASHED1
 62
   120
370
     5
100
AcDbLine
 10
512.2349483085839
 20
-166.4457056879004
 30
0.0
 11
1085.234948308585
 21
-166.4457056879004
 31
0.0
  0
LINE
  5
30D
330
1F
100
AcDbEntity
  8
0-0
  6
JWW_DASHED1
 62
   120
370
     5
100
AcDbLine
 10
512.2349483085839
 20
-153.4457056868008
 30
0.0
 11
1085.234948308585
 21
-153.4457056868008
 31
0.0
  0
LINE
  5
30E
330
1F
100
AcDbEntity
  8
0-0
  6
JWW_DASHED1
 62
   120
370
     5
100
AcDbLine
 10
512.2349483085839
 20
-152.4457056869007
 30
0.0
 11
1085.234948308585
 21
-152.4457056869007
 31
0.0
  0
LINE
  5
30F
330
1F
100
AcDbEntity
  8
0-0
  6
JWW_DASHED1
 62
   120
370
     5
100
AcDbLine
 10
512.2349483085839
 20
-139.445705685801
 30
0.0
 11
1085.234948308585
 21
-139.445705685801
 31
0.0
  0
LINE
  5
310
330
1F
100
AcDbEntity
  8
0-0
  6
JWW_DASHED1
 62
   120
370
     5
100
AcDbLine
 10
512.2349483085839
 20
-138.4457056859009
 30
0.0
 11
1085.234948308585
 21
-138.4457056859009
 31
0.0
  0
LINE
  5
311
330
1F
100
AcDbEntity
  8
0-0
  6
JWW_DASHED1
 62
   120
370
     5
100
AcDbLine
 10
512.2349483085839
 20
-125.4457056848013
 30
0.0
 11
1085.234948308585
 21
-125.4457056848013
 31
0.0
  0
LINE
  5
312
330
1F
100
AcDbEntity
  8
0-0
  6
JWW_DASHED1
 62
   120
370
     5
100
AcDbLine
 10
512.2349483085839
 20
-124.4457056849011
 30
0.0
 11
1085.234948308585
 21
-124.4457056849011
 31
0.0
  0
LINE
  5
313
330
1F
100
AcDbEntity
  8
0-0
  6
JWW_DASHED1
 62
   120
370
     5
100
AcDbLine
 10
512.2349483085839
 20
-111.4457056838015
 30
0.0
 11
1085.234948308585
 21
-111.4457056838015
 31
0.0
  0
LINE
  5
314
330
1F
100
AcDbEntity
  8
0-0
  6
JWW_DASHED1
 62
   120
370
     5
100
AcDbLine
 10
512.2349483085839
 20
-110.4457056839013
 30
0.0
 11
1085.234948308585
 21
-110.4457056839013
 31
0.0
  0
LINE
  5
315
330
1F
100
AcDbEntity
  8
0-0
  6
JWW_DASHED1
 62
   120
370
     5
100
AcDbLine
 10
512.2349483085839
 20
-97.44570568280167
 30
0.0
 11
1085.234948308585
 21
-97.44570568280167
 31
0.0
  0
LINE
  5
316
330
1F
100
AcDbEntity
  8
0-0
  6
JWW_DASHED1
 62
   120
370
     5
100
AcDbLine
 10
512.2349483085839
 20
-96.44570568290149
 30
0.0
 11
1085.234948308585
 21
-96.44570568290149
 31
0.0
  0
LINE
  5
317
330
1F
100
AcDbEntity
  8
0-0
  6
JWW_DASHED1
 62
   120
370
     5
100
AcDbLine
 10
512.2349483085839
 20
-83.44570568180188
 30
0.0
 11
1085.234948308585
 21
-83.44570568180188
 31
0.0
  0
LINE
  5
318
330
1F
100
AcDbEntity
  8
0-0
  6
JWW_DASHED1
 62
   120
370
     5
100
AcDbLine
 10
512.2349483085839
 20
-82.4457056819017
 30
0.0
 11
1085.234948308585
 21
-82.4457056819017
 31
0.0
  0
LINE
  5
319
330
1F
100
AcDbEntity
  8
0-0
  6
JWW_DASHED1
 62
   120
370
     5
100
AcDbLine
 10
512.2349483085839
 20
-69.44570568080209
 30
0.0
 11
1085.234948308585
 21
-69.44570568080209
 31
0.0
  0
LINE
  5
31A
330
1F
100
AcDbEntity
  8
0-0
  6
JWW_DASHED1
 62
   120
370
     5
100
AcDbLine
 10
512.2349483085839
 20
-68.44570568090191
 30
0.0
 11
1085.234948308585
 21
-68.44570568090191
 31
0.0
  0
LINE
  5
31B
330
1F
100
AcDbEntity
  8
0-0
  6
JWW_DASHED1
 62
   120
370
     5
100
AcDbLine
 10
512.2349483085839
 20
-55.4457056798023
 30
0.0
 11
1085.234948308585
 21
-55.4457056798023
 31
0.0
  0
LINE
  5
31C
330
1F
100
AcDbEntity
  8
0-0
  6
JWW_DASHED1
 62
   120
370
     5
100
AcDbLine
 10
512.2349483085839
 20
-54.44570567990212
 30
0.0
 11
1085.234948308585
 21
-54.44570567990212
 31
0.0
  0
LINE
  5
31D
330
1F
100
AcDbEntity
  8
0-0
  6
JWW_DASHED1
 62
   120
370
     5
100
AcDbLine
 10
512.2349483085839
 20
-41.44570567880251
 30
0.0
 11
1085.234948308585
 21
-41.44570567880251
 31
0.0
  0
LINE
  5
31E
330
1F
100
AcDbEntity
  8
0-0
  6
JWW_DASHED1
 62
   120
370
     5
100
AcDbLine
 10
512.2349483085839
 20
-40.44570567890233
 30
0.0
 11
1085.234948308585
 21
-40.44570567890233
 31
0.0
  0
LINE
  5
31F
330
1F
100
AcDbEntity
  8
0-0
  6
JWW_DASHED1
 62
   120
370
     5
100
AcDbLine
 10
512.2349483085839
 20
-27.44570567780272
 30
0.0
 11
1085.234948308585
 21
-27.44570567780272
 31
0.0
  0
LINE
  5
320
330
1F
100
AcDbEntity
  8
0-0
  6
JWW_DASHED1
 62
   120
370
     5
100
AcDbLine
 10
512.2349483085839
 20
-26.44570567790254
 30
0.0
 11
1085.234948308585
 21
-26.44570567790254
 31
0.0
  0
LINE
  5
321
330
1F
100
AcDbEntity
  8
0-0
  6
JWW_DASHED1
 62
   120
370
     5
100
AcDbLine
 10
512.2349483085839
 20
-13.44570567680293
 30
0.0
 11
1085.234948308585
 21
-13.44570567680293
 31
0.0
  0
LINE
  5
322
330
1F
100
AcDbEntity
  8
0-0
  6
JWW_DASHED1
 62
   120
370
     5
100
AcDbLine
 10
512.2349483085839
 20
-12.44570567690275
 30
0.0
 11
1085.234948308585
 21
-12.44570567690275
 31
0.0
  0
LINE
  5
323
330
1F
100
AcDbEntity
  8
0-0
  6
JWW_DASHED1
 62
   120
370
     5
100
AcDbLine
 10
512.2349483085839
 20
0.5542943241968601
 30
0.0
 11
1085.234948308585
 21
0.5542943241968601
 31
0.0
  0
LINE
  5
324
330
1F
100
AcDbEntity
  8
0-0
  6
JWW_DASHED1
 62
   120
370
     5
100
AcDbLine
 10
512.2349483085839
 20
1.554294324097043
 30
0.0
 11
1085.234948308585
 21
1.554294324097043
 31
0.0
  0
LINE
  5
325
330
1F
100
AcDbEntity
  8
0-0
  6
JWW_DASHED1
 62
   120
370
     5
100
AcDbLine
 10
512.2349483085839
 20
14.55429432519665
 30
0.0
 11
1085.234948308585
 21
14.55429432519665
 31
0.0
  0
LINE
  5
326
330
1F
100
AcDbEntity
  8
0-0
  6
JWW_DASHED1
 62
   120
370
     5
100
AcDbLine
 10
512.2349483085839
 20
15.55429432509683
 30
0.0
 11
1085.234948308585
 21
15.55429432509683
 31
0.0
  0
LINE
  5
327
330
1F
100
AcDbEntity
  8
0-0
  6
JWW_DASHED1
 62
   120
370
     5
100
AcDbLine
 10
512.2349483085839
 20
28.55429432619644
 30
0.0
 11
1085.234948308585
 21
28.55429432619644
 31
0.0
  0
LINE
  5
328
330
1F
100
AcDbEntity
  8
0-0
  6
JWW_DASHED1
 62
   120
370
     5
100
AcDbLine
 10
512.2349483085839
 20
29.55429432609662
 30
0.0
 11
1085.234948308585
 21
29.55429432609662
 31
0.0
  0
LINE
  5
329
330
1F
100
AcDbEntity
  8
0-0
  6
JWW_DASHED1
 62
   120
370
     5
100
AcDbLine
 10
512.2349483085839
 20
42.55429432719623
 30
0.0
 11
1085.234948308585
 21
42.55429432719623
 31
0.0
  0
LINE
  5
32A
330
1F
100
AcDbEntity
  8
0-0
  6
JWW_DASHED1
 62
   120
370
     5
100
AcDbLine
 10
512.2349483085839
 20
43.55429432709641
 30
0.0
 11
1085.234948308585
 21
43.55429432709641
 31
0.0
  0
LINE
  5
32B
330
1F
100
AcDbEntity
  8
0-0
  6
JWW_DASHED1
 62
   120
370
     5
100
AcDbLine
 10
512.2349483085839
 20
56.55429432819602
 30
0.0
 11
1085.234948308585
 21
56.55429432819602
 31
0.0
  0
LINE
  5
32C
330
1F
100
AcDbEntity
  8
0-0
  6
JWW_DASHED1
 62
   120
370
     5
100
AcDbLine
 10
512.2349483085839
 20
57.5542943280962
 30
0.0
 11
1085.234948308585
 21
57.5542943280962
 31
0.0
  0
LINE
  5
32D
330
1F
100
AcDbEntity
  8
0-0
  6
JWW_DASHED1
 62
   120
370
     5
100
AcDbLine
 10
512.2349483085839
 20
70.55429432919581
 30
0.0
 11
1085.234948308585
 21
70.55429432919581
 31
0.0
  0
LINE
  5
32E
330
1F
100
AcDbEntity
  8
0-0
  6
JWW_DASHED1
 62
   120
370
     5
100
AcDbLine
 10
512.2349483085839
 20
71.554294329096
 30
0.0
 11
1085.234948308585
 21
71.554294329096
 31
0.0
  0
LINE
  5
32F
330
1F
100
AcDbEntity
  8
0-0
  6
JWW_DASHED1
 62
   120
370
     5
100
AcDbLine
 10
512.2349483085839
 20
84.5542943301956
 30
0.0
 11
1085.234948308585
 21
84.5542943301956
 31
0.0
  0
LINE
  5
330
330
1F
100
AcDbEntity
  8
0-0
  6
JWW_DASHED1
 62
   120
370
     5
100
AcDbLine
 10
512.2349483085839
 20
85.55429433009579
 30
0.0
 11
1085.234948308585
 21
85.55429433009579
 31
0.0
  0
LINE
  5
331
330
1F
100
AcDbEntity
  8
0-0
  6
JWW_DASHED1
 62
   120
370
     5
100
AcDbLine
 10
512.2349483085839
 20
98.5542943311954
 30
0.0
 11
1085.234948308585
 21
98.5542943311954
 31
0.0
  0
LINE
  5
332
330
1F
100
AcDbEntity
  8
0-0
  6
JWW_DASHED1
 62
   120
370
     5
100
AcDbLine
 10
512.2349483085839
 20
99.55429433109558
 30
0.0
 11
1085.234948308585
 21
99.55429433109558
 31
0.0
  0
LINE
  5
333
330
1F
100
AcDbEntity
  8
0-0
  6
JWW_DASHED1
 62
   120
370
     5
100
AcDbLine
 10
512.2349483085839
 20
112.5542943321952
 30
0.0
 11
1085.234948308585
 21
112.5542943321952
 31
0.0
  0
LINE
  5
334
330
1F
100
AcDbEntity
  8
0-0
  6
JWW_DASHED1
 62
   120
370
     5
100
AcDbLine
 10
512.2349483085839
 20
113.5542943320954
 30
0.0
 11
1085.234948308585
 21
113.5542943320954
 31
0.0
  0
LINE
  5
335
330
1F
100
AcDbEntity
  8
0-0
  6
JWW_DASHED1
 62
   120
370
     5
100
AcDbLine
 10
512.2349483085839
 20
126.554294333195
 30
0.0
 11
1085.234948308585
 21
126.554294333195
 31
0.0
  0
LINE
  5
336
330
1F
100
AcDbEntity
  8
0-0
  6
JWW_DASHED1
 62
   120
370
     5
100
AcDbLine
 10
512.2349483085839
 20
127.5542943330952
 30
0.0
 11
1085.234948308585
 21
127.5542943330952
 31
0.0
  0
LINE
  5
337
330
1F
100
AcDbEntity
  8
0-0
  6
JWW_DASHED1
 62
   120
370
     5
100
AcDbLine
 10
512.2349483085839
 20
140.5542943341948
 30
0.0
 11
1085.234948308585
 21
140.5542943341948
 31
0.0
  0
LINE
  5
338
330
1F
100
AcDbEntity
  8
0-0
  6
JWW_DASHED1
 62
   120
370
     5
100
AcDbLine
 10
512.2349483085839
 20
141.5542943340949
 30
0.0
 11
1085.234948308585
 21
141.5542943340949
 31
0.0
  0
LINE
  5
339
330
1F
100
AcDbEntity
  8
0-0
  6
JWW_DASHED1
 62
   120
370
     5
100
AcDbLine
 10
512.2349483085839
 20
154.5542943351946
 30
0.0
 11
1085.234948308585
 21
154.5542943351946
 31
0.0
  0
LINE
  5
33A
330
1F
100
AcDbEntity
  8
0-0
  6
JWW_DASHED1
 62
   120
370
     5
100
AcDbLine
 10
512.2349483085839
 20
155.5542943350947
 30
0.0
 11
1085.234948308585
 21
155.5542943350947
 31
0.0
  0
LINE
  5
33B
330
1F
100
AcDbEntity
  8
0-0
  6
JWW_DASHED1
 62
   120
370
     5
100
AcDbLine
 10
512.2349483085839
 20
168.5542943361943
 30
0.0
 11
1085.234948308585
 21
168.5542943361943
 31
0.0
  0
LINE
  5
33C
330
1F
100
AcDbEntity
  8
0-0
  6
JWW_DASHED1
 62
   120
370
     5
100
AcDbLine
 10
512.2349483085839
 20
169.5542943360945
 30
0.0
 11
1085.234948308585
 21
169.5542943360945
 31
0.0
  0
LINE
  5
33D
330
1F
100
AcDbEntity
  8
0-0
  6
JWW_DASHED1
 62
   120
370
     5
100
AcDbLine
 10
512.2349483085839
 20
182.5542943371941
 30
0.0
 11
1085.234948308585
 21
182.5542943371941
 31
0.0
  0
LINE
  5
33E
330
1F
100
AcDbEntity
  8
0-0
  6
JWW_DASHED1
 62
   120
370
     5
100
AcDbLine
 10
512.2349483085839
 20
183.5542943370943
 30
0.0
 11
1085.234948308585
 21
183.5542943370943
 31
0.0
  0
LINE
  5
33F
330
1F
100
AcDbEntity
  8
0-0
  6
JWW_DASHED1
 62
   120
370
     5
100
AcDbLine
 10
512.2349483085839
 20
196.5542943381939
 30
0.0
 11
1085.234948308585
 21
196.5542943381939
 31
0.0
  0
LINE
  5
340
330
1F
100
AcDbEntity
  8
0-0
  6
JWW_DASHED1
 62
   120
370
     5
100
AcDbLine
 10
512.2349483085839
 20
197.5542943380941
 30
0.0
 11
1085.234948308585
 21
197.5542943380941
 31
0.0
  0
LINE
  5
341
330
1F
100
AcDbEntity
  8
0-0
  6
JWW_DASHED1
 62
   120
370
     5
100
AcDbLine
 10
512.2349483085839
 20
210.5542943391937
 30
0.0
 11
1085.234948308585
 21
210.5542943391937
 31
0.0
  0
LINE
  5
342
330
1F
100
AcDbEntity
  8
0-0
  6
JWW_DASHED1
 62
   120
370
     5
100
AcDbLine
 10
512.2349483085839
 20
211.5542943390939
 30
0.0
 11
1085.234948308585
 21
211.5542943390939
 31
0.0
  0
LINE
  5
343
330
1F
100
AcDbEntity
  8
0-0
  6
JWW_DASHED1
 62
   120
370
     5
100
AcDbLine
 10
512.2349483085839
 20
224.5542943401935
 30
0.0
 11
1085.234948308585
 21
224.5542943401935
 31
0.0
  0
LINE
  5
344
330
1F
100
AcDbEntity
  8
0-0
  6
JWW_DASHED1
 62
   120
370
     5
100
AcDbLine
 10
512.2349483085839
 20
225.5542943400937
 30
0.0
 11
1085.234948308585
 21
225.5542943400937
 31
0.0
  0
LINE
  5
345
330
1F
100
AcDbEntity
  8
0-0
  6
JWW_DASHED1
 62
   120
370
     5
100
AcDbLine
 10
512.2349483085839
 20
238.5542943411933
 30
0.0
 11
1085.234948308585
 21
238.5542943411933
 31
0.0
  0
LINE
  5
346
330
1F
100
AcDbEntity
  8
0-0
  6
JWW_DASHED1
 62
   120
370
     5
100
AcDbLine
 10
512.2349483085839
 20
239.5542943410935
 30
0.0
 11
1085.234948308585
 21
239.5542943410935
 31
0.0
  0
LINE
  5
347
330
1F
100
AcDbEntity
  8
0-0
  6
JWW_DASHED1
 62
   120
370
     5
100
AcDbLine
 10
512.2349483085839
 20
252.5542943421931
 30
0.0
 11
1085.234948308585
 21
252.5542943421931
 31
0.0
  0
LINE
  5
348
330
1F
100
AcDbEntity
  8
0-0
  6
JWW_DASHED1
 62
   120
370
     5
100
AcDbLine
 10
512.2349483085839
 20
253.5542943420933
 30
0.0
 11
1085.234948308585
 21
253.5542943420933
 31
0.0
  0
LINE
  5
349
330
1F
100
AcDbEntity
  8
0-0
  6
JWW_DASHED1
 62
   120
370
     5
100
AcDbLine
 10
512.2349483085839
 20
266.5542943431929
 30
0.0
 11
1085.234948308585
 21
266.5542943431929
 31
0.0
  0
LINE
  5
34A
330
1F
100
AcDbEntity
  8
0-0
  6
JWW_DASHED1
 62
   120
370
     5
100
AcDbLine
 10
512.2349483085839
 20
267.554294343093
 30
0.0
 11
1085.234948308585
 21
267.554294343093
 31
0.0
  0
LINE
  5
34B
330
1F
100
AcDbEntity
  8
0-0
  6
JWW_DASHED1
 62
   120
370
     5
100
AcDbLine
 10
512.2349483085839
 20
280.5542943441927
 30
0.0
 11
1085.234948308585
 21
280.5542943441927
 31
0.0
  0
LINE
  5
34C
330
1F
100
AcDbEntity
  8
0-0
  6
JWW_DASHED1
 62
   120
370
     5
100
AcDbLine
 10
512.2349483085839
 20
281.5542943440929
 30
0.0
 11
1085.234948308585
 21
281.5542943440929
 31
0.0
  0
LINE
  5
34D
330
1F
100
AcDbEntity
  8
0-0
  6
JWW_DASHED1
 62
   120
370
     5
100
AcDbLine
 10
512.2349483085839
 20
294.5542943451925
 30
0.0
 11
1085.234948308585
 21
294.5542943451925
 31
0.0
  0
LINE
  5
34E
330
1F
100
AcDbEntity
  8
0-0
  6
JWW_DASHED1
 62
   120
370
     5
100
AcDbLine
 10
512.2349483085839
 20
295.5542943450927
 30
0.0
 11
1085.234948308585
 21
295.5542943450927
 31
0.0
  0
LINE
  5
34F
330
1F
100
AcDbEntity
  8
0-0
  6
JWW_DASHED1
 62
   120
370
     5
100
AcDbLine
 10
512.2349483085839
 20
308.5542943461923
 30
0.0
 11
1085.234948308585
 21
308.5542943461923
 31
0.0
  0
LINE
  5
350
330
1F
100
AcDbEntity
  8
0-0
  6
JWW_DASHED1
 62
   120
370
     5
100
AcDbLine
 10
512.2349483085839
 20
309.5542943460924
 30
0.0
 11
1085.234948308585
 21
309.5542943460924
 31
0.0
  0
LINE
  5
351
330
1F
100
AcDbEntity
  8
0-0
  6
JWW_DASHED1
 62
   120
370
     5
100
AcDbLine
 10
512.2349483085839
 20
322.554294347192
 30
0.0
 11
1085.234948308585
 21
322.554294347192
 31
0.0
  0
LINE
  5
352
330
1F
100
AcDbEntity
  8
0-0
  6
JWW_DASHED1
 62
   120
370
     5
100
AcDbLine
 10
512.2349483085839
 20
323.5542943470922
 30
0.0
 11
1085.234948308585
 21
323.5542943470922
 31
0.0
  0
LINE
  5
353
330
1F
100
AcDbEntity
  8
0-0
  6
JWW_DASHED1
 62
   120
370
     5
100
AcDbLine
 10
512.2349483085839
 20
336.5542943481918
 30
0.0
 11
1085.234948308585
 21
336.5542943481918
 31
0.0
  0
LINE
  5
354
330
1F
100
AcDbEntity
  8
0-0
  6
JWW_DASHED1
 62
   120
370
     5
100
AcDbLine
 10
512.2349483085839
 20
337.554294348092
 30
0.0
 11
1085.234948308585
 21
337.554294348092
 31
0.0
  0
LINE
  5
355
330
1F
100
AcDbEntity
  8
0-0
  6
JWW_DASHED1
 62
   120
370
     5
100
AcDbLine
 10
512.2349483085839
 20
350.5542943491917
 30
0.0
 11
1085.234948308585
 21
350.5542943491917
 31
0.0
  0
LINE
  5
356
330
1F
100
AcDbEntity
  8
0-0
  6
JWW_DASHED1
 62
   120
370
     5
100
AcDbLine
 10
512.2349483085839
 20
351.5542943490918
 30
0.0
 11
1085.234948308585
 21
351.5542943490918
 31
0.0
  0
LINE
  5
357
330
1F
100
AcDbEntity
  8
0-0
  6
JWW_DASHED1
 62
   120
370
     5
100
AcDbLine
 10
512.2349483085839
 20
364.5542943501914
 30
0.0
 11
1085.234948308585
 21
364.5542943501914
 31
0.0
  0
LINE
  5
358
330
1F
100
AcDbEntity
  8
0-0
  6
JWW_DASHED1
 62
   120
370
     5
100
AcDbLine
 10
512.2349483085839
 20
365.5542943500916
 30
0.0
 11
1085.234948308585
 21
365.5542943500916
 31
0.0
  0
LINE
  5
359
330
1F
100
AcDbEntity
  8
0-0
  6
JWW_DASHED1
 62
   120
370
     5
100
AcDbLine
 10
512.2349483085839
 20
378.5542943511912
 30
0.0
 11
1085.234948308585
 21
378.5542943511912
 31
0.0
  0
LINE
  5
35A
330
1F
100
AcDbEntity
  8
0-0
  6
JWW_DASHED1
 62
   120
370
     5
100
AcDbLine
 10
512.2349483085839
 20
379.5542943510914
 30
0.0
 11
1085.234948308585
 21
379.5542943510914
 31
0.0
  0
LINE
  5
35B
330
1F
100
AcDbEntity
  8
0-0
  6
JWW_DASHED1
 62
   120
370
     5
100
AcDbLine
 10
512.2349483085839
 20
392.554294352191
 30
0.0
 11
1085.234948308585
 21
392.554294352191
 31
0.0
  0
LINE
  5
35C
330
1F
100
AcDbEntity
  8
0-0
  6
JWW_DASHED1
 62
   120
370
     5
100
AcDbLine
 10
512.2349483085839
 20
393.5542943520912
 30
0.0
 11
1085.234948308585
 21
393.5542943520912
 31
0.0
  0
LINE
  5
35D
330
1F
100
AcDbEntity
  8
0-0
  6
JWW_DASHED1
 62
   120
370
     5
100
AcDbLine
 10
512.2349483085839
 20
406.5542943531908
 30
0.0
 11
1085.234948308585
 21
406.5542943531908
 31
0.0
  0
LINE
  5
35E
330
1F
100
AcDbEntity
  8
0-0
  6
JWW_DASHED1
 62
   120
370
     5
100
AcDbLine
 10
512.2349483085839
 20
407.554294353091
 30
0.0
 11
1085.234948308585
 21
407.554294353091
 31
0.0
  0
LINE
  5
35F
330
1F
100
AcDbEntity
  8
0-0
  6
JWW_DASHED1
 62
   120
370
     5
100
AcDbLine
 10
512.2349483085839
 20
420.5542943541906
 30
0.0
 11
1085.234948308585
 21
420.5542943541906
 31
0.0
  0
LINE
  5
360
330
1F
100
AcDbEntity
  8
0-0
  6
JWW_DASHED1
 62
   120
370
     5
100
AcDbLine
 10
512.2349483085839
 20
421.5542943540908
 30
0.0
 11
1085.234948308585
 21
421.5542943540908
 31
0.0
  0
LINE
  5
361
330
1F
100
AcDbEntity
  8
0-0
  6
JWW_DASHED1
 62
   120
370
     5
100
AcDbLine
 10
512.2349483085839
 20
434.5542943551903
 30
0.0
 11
1085.234948308585
 21
434.5542943551903
 31
0.0
  0
LINE
  5
362
330
1F
100
AcDbEntity
  8
0-0
  6
JWW_DASHED1
 62
   120
370
     5
100
AcDbLine
 10
512.2349483085839
 20
435.5542943550905
 30
0.0
 11
1085.234948308585
 21
435.5542943550905
 31
0.0
  0
LINE
  5
363
330
1F
100
AcDbEntity
  8
0-0
  6
JWW_DASHED1
 62
   120
370
     5
100
AcDbLine
 10
512.2349483085839
 20
448.5542943561902
 30
0.0
 11
1085.234948308585
 21
448.5542943561902
 31
0.0
  0
LINE
  5
364
330
1F
100
AcDbEntity
  8
0-0
  6
JWW_DASHED1
 62
   120
370
     5
100
AcDbLine
 10
512.2349483085839
 20
449.5542943560903
 30
0.0
 11
1085.234948308585
 21
449.5542943560903
 31
0.0
  0
LINE
  5
365
330
1F
100
AcDbEntity
  8
0-0
  6
JWW_DASHED1
 62
   120
370
     5
100
AcDbLine
 10
512.2349483085839
 20
462.55429435719
 30
0.0
 11
1085.234948308585
 21
462.55429435719
 31
0.0
  0
LINE
  5
366
330
1F
100
AcDbEntity
  8
0-0
  6
JWW_DASHED1
 62
   120
370
     5
100
AcDbLine
 10
512.2349483085839
 20
463.5542943570902
 30
0.0
 11
1085.234948308585
 21
463.5542943570902
 31
0.0
  0
LINE
  5
367
330
1F
100
AcDbEntity
  8
0-0
  6
JWW_DASHED1
 62
   120
370
     5
100
AcDbLine
 10
512.2349483085839
 20
476.5542943581897
 30
0.0
 11
1085.234948308585
 21
476.5542943581897
 31
0.0
  0
LINE
  5
368
330
1F
100
AcDbEntity
  8
0-0
  6
JWW_DASHED1
 62
   120
370
     5
100
AcDbLine
 10
512.2349483085839
 20
477.5542943580899
 30
0.0
 11
1085.234948308585
 21
477.5542943580899
 31
0.0
  0
LINE
  5
369
330
1F
100
AcDbEntity
  8
0-0
  6
JWW_DASHED1
 62
   120
370
     5
100
AcDbLine
 10
512.2349483085839
 20
490.5542943591895
 30
0.0
 11
1085.234948308585
 21
490.5542943591895
 31
0.0
  0
LINE
  5
36A
330
1F
100
AcDbEntity
  8
0-0
  6
JWW_DASHED1
 62
   120
370
     5
100
AcDbLine
 10
512.2349483085839
 20
491.5542943590897
 30
0.0
 11
1085.234948308585
 21
491.5542943590897
 31
0.0
  0
LINE
  5
36B
330
1F
100
AcDbEntity
  8
0-0
  6
JWW_DASHED1
 62
   120
370
     5
100
AcDbLine
 10
512.2349483085839
 20
504.5542943601893
 30
0.0
 11
1085.234948308585
 21
504.5542943601893
 31
0.0
  0
LINE
  5
36C
330
1F
100
AcDbEntity
  8
0-0
  6
JWW_DASHED1
 62
   120
370
     5
100
AcDbLine
 10
512.2349483085839
 20
505.5542943600895
 30
0.0
 11
1085.234948308585
 21
505.5542943600895
 31
0.0
  0
LINE
  5
36D
330
1F
100
AcDbEntity
  8
0-0
  6
JWW_DASHED1
 62
   120
370
     5
100
AcDbLine
 10
512.2349483085839
 20
518.5542943611891
 30
0.0
 11
1085.234948308585
 21
518.5542943611891
 31
0.0
  0
LINE
  5
36E
330
1F
100
AcDbEntity
  8
0-0
  6
JWW_DASHED1
 62
   120
370
     5
100
AcDbLine
 10
512.2349483085839
 20
519.5542943610893
 30
0.0
 11
1085.234948308585
 21
519.5542943610893
 31
0.0
  0
LINE
  5
36F
330
1F
100
AcDbEntity
  8
0-0
  6
JWW_DASHED1
 62
   120
370
     5
100
AcDbLine
 10
512.2349483085839
 20
532.5542943621889
 30
0.0
 11
1085.234948308585
 21
532.5542943621889
 31
0.0
  0
LINE
  5
370
330
1F
100
AcDbEntity
  8
0-0
  6
JWW_DASHED1
 62
   120
370
     5
100
AcDbLine
 10
512.2349483085839
 20
533.5542943620891
 30
0.0
 11
1085.234948308585
 21
533.5542943620891
 31
0.0
  0
LINE
  5
371
330
1F
100
AcDbEntity
  8
0-0
  6
JWW_DASHED1
 62
   120
370
     5
100
AcDbLine
 10
512.2349483085839
 20
546.5542943631887
 30
0.0
 11
1085.234948308585
 21
546.5542943631887
 31
0.0
  0
LINE
  5
372
330
1F
100
AcDbEntity
  8
0-0
  6
JWW_DASHED1
 62
   120
370
     5
100
AcDbLine
 10
512.2349483085839
 20
547.5542943630888
 30
0.0
 11
1085.234948308585
 21
547.5542943630888
 31
0.0
  0
LINE
  5
373
330
1F
100
AcDbEntity
  8
0-0
  6
JWW_DASHED1
 62
   120
370
     5
100
AcDbLine
 10
512.2349483085839
 20
560.5542943641885
 30
0.0
 11
1085.234948308585
 21
560.5542943641885
 31
0.0
  0
LINE
  5
374
330
1F
100
AcDbEntity
  8
0-0
  6
JWW_DASHED1
 62
   120
370
     5
100
AcDbLine
 10
512.2349483085839
 20
561.5542943640887
 30
0.0
 11
1085.234948308585
 21
561.5542943640887
 31
0.0
  0
LINE
  5
375
330
1F
100
AcDbEntity
  8
0-0
  6
JWW_DASHED1
 62
   120
370
     5
100
AcDbLine
 10
512.2349483085839
 20
574.5542943651883
 30
0.0
 11
1085.234948308585
 21
574.5542943651883
 31
0.0
  0
LINE
  5
376
330
1F
100
AcDbEntity
  8
0-0
  6
JWW_DASHED1
 62
   120
370
     5
100
AcDbLine
 10
512.2349483085839
 20
575.5542943650885
 30
0.0
 11
1085.234948308585
 21
575.5542943650885
 31
0.0
  0
LINE
  5
377
330
1F
100
AcDbEntity
  8
0-0
  6
JWW_DASHED1
 62
   120
370
     5
100
AcDbLine
 10
512.2349483085839
 20
588.5542943661881
 30
0.0
 11
1085.234948308585
 21
588.5542943661881
 31
0.0
  0
LINE
  5
378
330
1F
100
AcDbEntity
  8
0-0
  6
JWW_DASHED1
 62
   120
370
     5
100
AcDbLine
 10
512.2349483085839
 20
589.5542943660882
 30
0.0
 11
1085.234948308585
 21
589.5542943660882
 31
0.0
  0
LINE
  5
379
330
1F
100
AcDbEntity
  8
0-0
  6
JWW_DASHED1
 62
   120
370
     5
100
AcDbLine
 10
512.2349483085839
 20
602.5542943671878
 30
0.0
 11
1085.234948308585
 21
602.5542943671878
 31
0.0
  0
LINE
  5
37A
330
1F
100
AcDbEntity
  8
0-0
  6
JWW_DASHED1
 62
   120
370
     5
100
AcDbLine
 10
512.2349483085839
 20
603.554294367088
 30
0.0
 11
1085.234948308585
 21
603.554294367088
 31
0.0
  0
LINE
  5
37B
330
1F
100
AcDbEntity
  8
0-0
  6
JWW_DASHED1
 62
   120
370
     5
100
AcDbLine
 10
512.2349483085839
 20
616.5542943681876
 30
0.0
 11
1085.234948308585
 21
616.5542943681876
 31
0.0
  0
LINE
  5
37C
330
1F
100
AcDbEntity
  8
0-0
  6
JWW_DASHED1
 62
   120
370
     5
100
AcDbLine
 10
512.2349483085839
 20
617.5542943680878
 30
0.0
 11
1085.234948308585
 21
617.5542943680878
 31
0.0
  0
LINE
  5
37D
330
1F
100
AcDbEntity
  8
0-0
  6
JWW_DASHED1
 62
   120
370
     5
100
AcDbLine
 10
599.6537900705472
 20
630.5542943691875
 30
0.0
 11
997.8161065466203
 21
630.5542943691875
 31
0.0
  0
LINE
  5
37E
330
1F
100
AcDbEntity
  8
0-0
  6
JWW_DASHED1
 62
   120
370
     5
100
AcDbLine
 10
603.248019941907
 20
631.5542943690876
 30
0.0
 11
994.2218766752604
 21
631.5542943690876
 31
0.0
  0
LINE
  5
37F
330
1F
100
AcDbEntity
  8
0-0
  6
JWW_DASHED1
 62
   120
370
     5
100
AcDbLine
 10
634.3600974101629
 20
644.5542943701872
 30
0.0
 11
963.1097992070046
 21
644.5542943701872
 31
0.0
  0
LINE
  5
380
330
1F
100
AcDbEntity
  8
0-0
  6
JWW_DASHED1
 62
   120
370
     5
100
AcDbLine
 10
636.253897399829
 20
645.5542943700874
 30
0.0
 11
961.2159992173384
 21
645.5542943700874
 31
0.0
  0
LINE
  5
381
330
1F
100
AcDbEntity
  8
0-0
  6
JWW_DASHED1
 62
   120
370
     5
100
AcDbLine
 10
663.9347414921486
 20
658.554294371187
 30
0.0
 11
933.5351551250188
 21
658.554294371187
 31
0.0
  0
LINE
  5
382
330
1F
100
AcDbEntity
  8
0-0
  6
JWW_DASHED1
 62
   120
370
     5
100
AcDbLine
 10
666.3563395597249
 20
659.5542943710872
 30
0.0
 11
931.1135570574426
 21
659.5542943710872
 31
0.0
  0
LINE
  5
383
330
1F
100
AcDbEntity
  8
0-0
  6
JWW_DASHED1
 62
   120
370
     5
100
AcDbLine
 10
704.2304515500929
 20
672.5542943721869
 30
0.0
 11
893.2394450670746
 21
672.5542943721869
 31
0.0
  0
LINE
  5
384
330
1F
100
AcDbEntity
  8
0-0
  6
JWW_DASHED1
 62
   120
370
     5
100
AcDbLine
 10
707.8718633724658
 20
673.554294372087
 30
0.0
 11
889.5980332447017
 21
673.554294372087
 31
0.0
  0
LINE
  5
385
330
1F
100
AcDbEntity
  8
0-0
  6
JWW_DASHED1
 62
   120
370
     5
100
AcDbLine
 10
1079.234966806516
 20
-489.445557396952
 30
0.0
 11
1079.234966806516
 21
625.5541750587395
 31
0.0
  0
LINE
  5
386
330
1F
100
AcDbEntity
  8
0-0
  6
JWW_DASHED1
 62
   120
370
     5
100
AcDbLine
 10
1078.234966806616
 20
-489.445557396952
 30
0.0
 11
1078.234966806616
 21
625.5541750587395
 31
0.0
  0
LINE
  5
387
330
1F
100
AcDbEntity
  8
0-0
  6
JWW_DASHED1
 62
   120
370
     5
100
AcDbLine
 10
1065.234966805516
 20
-489.445557396952
 30
0.0
 11
1065.234966805516
 21
625.5541750587395
 31
0.0
  0
LINE
  5
388
330
1F
100
AcDbEntity
  8
0-0
  6
JWW_DASHED1
 62
   120
370
     5
100
AcDbLine
 10
1064.234966805616
 20
-489.445557396952
 30
0.0
 11
1064.234966805616
 21
625.5541750587395
 31
0.0
  0
LINE
  5
389
330
1F
100
AcDbEntity
  8
0-0
  6
JWW_DASHED1
 62
   120
370
     5
100
AcDbLine
 10
1051.234966804516
 20
-489.445557396952
 30
0.0
 11
1051.234966804516
 21
625.5541750587395
 31
0.0
  0
LINE
  5
38A
330
1F
100
AcDbEntity
  8
0-0
  6
JWW_DASHED1
 62
   120
370
     5
100
AcDbLine
 10
1050.234966804616
 20
-489.445557396952
 30
0.0
 11
1050.234966804616
 21
625.5541750587395
 31
0.0
  0
LINE
  5
38B
330
1F
100
AcDbEntity
  8
0-0
  6
JWW_DASHED1
 62
   120
370
     5
100
AcDbLine
 10
1037.234966803516
 20
-489.445557396952
 30
0.0
 11
1037.234966803516
 21
625.5541750587395
 31
0.0
  0
LINE
  5
38C
330
1F
100
AcDbEntity
  8
0-0
  6
JWW_DASHED1
 62
   120
370
     5
100
AcDbLine
 10
1036.234966803616
 20
-489.445557396952
 30
0.0
 11
1036.234966803616
 21
625.5541750587395
 31
0.0
  0
LINE
  5
38D
330
1F
100
AcDbEntity
  8
0-0
  6
JWW_DASHED1
 62
   120
370
     5
100
AcDbLine
 10
1023.234966802516
 20
-489.445557396952
 30
0.0
 11
1023.234966802516
 21
626.1174675639518
 31
0.0
  0
LINE
  5
38E
330
1F
100
AcDbEntity
  8
0-0
  6
JWW_DASHED1
 62
   120
370
     5
100
AcDbLine
 10
1022.234966802616
 20
-489.445557396952
 30
0.0
 11
1022.234966802616
 21
626.2077492259846
 31
0.0
  0
LINE
  5
38F
330
1F
100
AcDbEntity
  8
0-0
  6
JWW_DASHED1
 62
   120
370
     5
100
AcDbLine
 10
1009.234966801516
 20
-489.445557396952
 30
0.0
 11
1009.234966801516
 21
628.0018636005184
 31
0.0
  0
LINE
  5
390
330
1F
100
AcDbEntity
  8
0-0
  6
JWW_DASHED1
 62
   120
370
     5
100
AcDbLine
 10
1008.234966801616
 20
-489.445557396952
 30
0.0
 11
1008.234966801616
 21
628.1882699829544
 31
0.0
  0
LINE
  5
391
330
1F
100
AcDbEntity
  8
0-0
  6
JWW_DASHED1
 62
   120
370
     5
100
AcDbLine
 10
995.234966800516
 20
-489.445557396952
 30
0.0
 11
995.234966800516
 21
631.26266565371
 31
0.0
  0
LINE
  5
392
330
1F
100
AcDbEntity
  8
0-0
  6
JWW_DASHED1
 62
   120
370
     5
100
AcDbLine
 10
994.2349668006158
 20
-489.445557396952
 30
0.0
 11
994.2349668006161
 21
631.5504770210896
 31
0.0
  0
LINE
  5
393
330
1F
100
AcDbEntity
  8
0-0
  6
JWW_DASHED1
 62
   120
370
     5
100
AcDbLine
 10
981.2349667995157
 20
-489.445557396952
 30
0.0
 11
981.2349667995161
 21
635.9963205465533
 31
0.0
  0
LINE
  5
394
330
1F
100
AcDbEntity
  8
0-0
  6
JWW_DASHED1
 62
   120
370
     5
100
AcDbLine
 10
980.2349667996159
 20
-489.445557396952
 30
0.0
 11
980.2349667996159
 21
636.3944821940709
 31
0.0
  0
LINE
  5
395
330
1F
100
AcDbEntity
  8
0-0
  6
JWW_DASHED1
 62
   120
370
     5
100
AcDbLine
 10
967.2349667985159
 20
-489.445557396952
 30
0.0
 11
967.2349667985159
 21
642.3597689237135
 31
0.0
  0
LINE
  5
396
330
1F
100
AcDbEntity
  8
0-0
  6
JWW_DASHED1
 62
   120
370
     5
100
AcDbLine
 10
966.2349667986157
 20
-489.445557396952
 30
0.0
 11
966.2349667986157
 21
642.8824931225131
 31
0.0
  0
LINE
  5
397
330
1F
100
AcDbEntity
  8
0-0
  6
JWW_DASHED1
 62
   120
370
     5
100
AcDbLine
 10
953.2349667975161
 20
-489.445557396952
 30
0.0
 11
953.2349667975161
 21
649.6081709472725
 31
0.0
  0
LINE
  5
398
330
1F
100
AcDbEntity
  8
0-0
  6
JWW_DASHED1
 62
   120
370
     5
100
AcDbLine
 10
952.2349667976159
 20
-489.445557396952
 30
0.0
 11
952.2349667976159
 21
650.0981507325793
 31
0.0
  0
LINE
  5
399
330
1F
100
AcDbEntity
  8
0-0
  6
JWW_DASHED1
 62
   120
370
     5
100
AcDbLine
 10
939.2349667965163
 20
-489.445557396952
 30
0.0
 11
939.2349667965163
 21
656.1160510419046
 31
0.0
  0
LINE
  5
39A
330
1F
100
AcDbEntity
  8
0-0
  6
JWW_DASHED1
 62
   120
370
     5
100
AcDbLine
 10
938.2349667966162
 20
-489.445557396952
 30
0.0
 11
938.2349667966162
 21
656.5524875220814
 31
0.0
  0
LINE
  5
39B
330
1F
100
AcDbEntity
  8
0-0
  6
JWW_DASHED1
 62
   120
370
     5
100
AcDbLine
 10
925.2349667955161
 20
-489.445557396952
 30
0.0
 11
925.2349667955161
 21
661.8943655711388
 31
0.0
  0
LINE
  5
39C
330
1F
100
AcDbEntity
  8
0-0
  6
JWW_DASHED1
 62
   120
370
     5
100
AcDbLine
 10
924.234966795616
 20
-489.445557396952
 30
0.0
 11
924.234966795616
 21
662.280237972414
 31
0.0
  0
LINE
  5
39D
330
1F
100
AcDbEntity
  8
0-0
  6
JWW_DASHED1
 62
   120
370
     5
100
AcDbLine
 10
911.2349667945159
 20
-489.445557396952
 30
0.0
 11
911.2349667945159
 21
666.9812759172106
 31
0.0
  0
LINE
  5
39E
330
1F
100
AcDbEntity
  8
0-0
  6
JWW_DASHED1
 62
   120
370
     5
100
AcDbLine
 10
910.2349667946157
 20
-489.445557396952
 30
0.0
 11
910.2349667946157
 21
667.3190366718205
 31
0.0
  0
LINE
  5
39F
330
1F
100
AcDbEntity
  8
0-0
  6
JWW_DASHED1
 62
   120
370
     5
100
AcDbLine
 10
897.2349667935162
 20
-489.445557396952
 30
0.0
 11
897.2349667935162
 21
671.4082000012291
 31
0.0
  0
LINE
  5
3A0
330
1F
100
AcDbEntity
  8
0-0
  6
JWW_DASHED1
 62
   120
370
     5
100
AcDbLine
 10
896.234966793616
 20
-489.445557396952
 30
0.0
 11
896.234966793616
 21
671.6998670779554
 31
0.0
  0
LINE
  5
3A1
330
1F
100
AcDbEntity
  8
0-0
  6
JWW_DASHED1
 62
   120
370
     5
100
AcDbLine
 10
883.2349667925164
 20
-489.445557396952
 30
0.0
 11
883.2349667925164
 21
675.2009454206069
 31
0.0
  0
LINE
  5
3A2
330
1F
100
AcDbEntity
  8
0-0
  6
JWW_DASHED1
 62
   120
370
     5
100
AcDbLine
 10
882.2349667926162
 20
-489.445557396952
 30
0.0
 11
882.2349667926162
 21
675.4481714553964
 31
0.0
  0
LINE
  5
3A3
330
1F
100
AcDbEntity
  8
0-0
  6
JWW_DASHED1
 62
   120
370
     5
100
AcDbLine
 10
869.2349667915162
 20
-489.445557396952
 30
0.0
 11
869.2349667915162
 21
678.3805609107236
 31
0.0
  0
LINE
  5
3A4
330
1F
100
AcDbEntity
  8
0-0
  6
JWW_DASHED1
 62
   120
370
     5
100
AcDbLine
 10
868.234966791616
 20
-489.445557396952
 30
0.0
 11
868.234966791616
 21
678.5846853380878
 31
0.0
  0
LINE
  5
3A5
330
1F
100
AcDbEntity
  8
0-0
  6
JWW_DASHED1
 62
   120
370
     5
100
AcDbLine
 10
855.234966790516
 20
-489.445557396952
 30
0.0
 11
855.234966790516
 21
680.9639791123169
 31
0.0
  0
LINE
  5
3A6
330
1F
100
AcDbEntity
  8
0-0
  6
JWW_DASHED1
 62
   120
370
     5
100
AcDbLine
 10
854.2349667906158
 20
-489.445557396952
 30
0.0
 11
854.2349667906158
 21
681.1260675210957
 31
0.0
  0
LINE
  5
3A7
330
1F
100
AcDbEntity
  8
0-0
  6
JWW_DASHED1
 62
   120
370
     5
100
AcDbLine
 10
841.2349667895161
 20
-489.445557396952
 30
0.0
 11
841.2349667895161
 21
682.9645006455991
 31
0.0
  0
LINE
  5
3A8
330
1F
100
AcDbEntity
  8
0-0
  6
JWW_DASHED1
 62
   120
370
     5
100
AcDbLine
 10
840.2349667896159
 20
-489.445557396952
 30
0.0
 11
840.2349667896159
 21
683.0853742710912
 31
0.0
  0
LINE
  5
3A9
330
1F
100
AcDbEntity
  8
0-0
  6
JWW_DASHED1
 62
   120
370
     5
100
AcDbLine
 10
827.2349667885163
 20
-489.445557396952
 30
0.0
 11
827.2349667885163
 21
684.3921540773641
 31
0.0
  0
LINE
  5
3AA
330
1F
100
AcDbEntity
  8
0-0
  6
JWW_DASHED1
 62
   120
370
     5
100
AcDbLine
 10
826.2349667886161
 20
-489.445557396952
 30
0.0
 11
826.2349667886161
 21
684.4724114490106
 31
0.0
  0
LINE
  5
3AB
330
1F
100
AcDbEntity
  8
0-0
  6
JWW_DASHED1
 62
   120
370
     5
100
AcDbLine
 10
813.2349667875161
 20
-489.445557396952
 30
0.0
 11
813.2349667875161
 21
685.2539557055258
 31
0.0
  0
LINE
  5
3AC
330
1F
100
AcDbEntity
  8
0-0
  6
JWW_DASHED1
 62
   120
370
     5
100
AcDbLine
 10
812.2349667876159
 20
-489.445557396952
 30
0.0
 11
812.2349667876159
 21
685.2939878378544
 31
0.0
  0
LINE
  5
3AD
330
1F
100
AcDbEntity
  8
0-0
  6
JWW_DASHED1
 62
   120
370
     5
100
AcDbLine
 10
799.2349667865159
 20
-489.445557396952
 30
0.0
 11
799.2349667865159
 21
685.554085433601
 31
0.0
  0
LINE
  5
3AE
330
1F
100
AcDbEntity
  8
0-0
  6
JWW_DASHED1
 62
   120
370
     5
100
AcDbLine
 10
798.2349667866157
 20
-489.445557396952
 30
0.0
 11
798.2349667866157
 21
685.5540854864245
 31
0.0
  0
LINE
  5
3AF
330
1F
100
AcDbEntity
  8
0-0
  6
JWW_DASHED1
 62
   120
370
     5
100
AcDbLine
 10
785.2349667855161
 20
-489.445557396952
 30
0.0
 11
785.2349667855161
 21
685.2939892643604
 31
0.0
  0
LINE
  5
3B0
330
1F
100
AcDbEntity
  8
0-0
  6
JWW_DASHED1
 62
   120
370
     5
100
AcDbLine
 10
784.2349667856159
 20
-489.445557396952
 30
0.0
 11
784.2349667856159
 21
685.253957237897
 31
0.0
  0
LINE
  5
3B1
330
1F
100
AcDbEntity
  8
0-0
  6
JWW_DASHED1
 62
   120
370
     5
100
AcDbLine
 10
771.2349667845162
 20
-489.445557396952
 30
0.0
 11
771.2349667845162
 21
684.4724143617219
 31
0.0
  0
LINE
  5
3B2
330
1F
100
AcDbEntity
  8
0-0
  6
JWW_DASHED1
 62
   120
370
     5
100
AcDbLine
 10
770.2349667846161
 20
-489.445557396952
 30
0.0
 11
770.2349667846161
 21
684.3921570966501
 31
0.0
  0
LINE
  5
3B3
330
1F
100
AcDbEntity
  8
0-0
  6
JWW_DASHED1
 62
   120
370
     5
100
AcDbLine
 10
757.234966783516
 20
-489.445557396952
 30
0.0
 11
757.234966783516
 21
683.0853786841413
 31
0.0
  0
LINE
  5
3B4
330
1F
100
AcDbEntity
  8
0-0
  6
JWW_DASHED1
 62
   120
370
     5
100
AcDbLine
 10
756.2349667836158
 20
-489.445557396952
 30
0.0
 11
756.2349667836158
 21
682.9645051665335
 31
0.0
  0
LINE
  5
3B5
330
1F
100
AcDbEntity
  8
0-0
  6
JWW_DASHED1
 62
   120
370
     5
100
AcDbLine
 10
743.2349667825158
 20
-489.445557396952
 30
0.0
 11
743.2349667825158
 21
681.1260734563672
 31
0.0
  0
LINE
  5
3B6
330
1F
100
AcDbEntity
  8
0-0
  6
JWW_DASHED1
 62
   120
370
     5
100
AcDbLine
 10
742.2349667826156
 20
-489.445557396952
 30
0.0
 11
742.2349667826156
 21
680.963985157328
 31
0.0
  0
LINE
  5
3B7
330
1F
100
AcDbEntity
  8
0-0
  6
JWW_DASHED1
 62
   120
370
     5
100
AcDbLine
 10
729.234966781516
 20
-489.445557396952
 30
0.0
 11
729.234966781516
 21
678.5846928255938
 31
0.0
  0
LINE
  5
3B8
330
1F
100
AcDbEntity
  8
0-0
  6
JWW_DASHED1
 62
   120
370
     5
100
AcDbLine
 10
728.2349667816159
 20
-489.445557396952
 30
0.0
 11
728.2349667816159
 21
678.3805685104795
 31
0.0
  0
LINE
  5
3B9
330
1F
100
AcDbEntity
  8
0-0
  6
JWW_DASHED1
 62
   120
370
     5
100
AcDbLine
 10
715.2349667805158
 20
-489.445557396952
 30
0.0
 11
715.2349667805158
 21
675.448180534209
 31
0.0
  0
LINE
  5
3BA
330
1F
100
AcDbEntity
  8
0-0
  6
JWW_DASHED1
 62
   120
370
     5
100
AcDbLine
 10
714.2349667806157
 20
-489.445557396952
 30
0.0
 11
714.2349667806157
 21
675.2009546148344
 31
0.0
  0
LINE
  5
3BB
330
1F
100
AcDbEntity
  8
0-0
  6
JWW_DASHED1
 62
   120
370
     5
100
AcDbLine
 10
701.2349667795161
 20
-489.445557396952
 30
0.0
 11
701.2349667795161
 21
671.6998777971327
 31
0.0
  0
LINE
  5
3BC
330
1F
100
AcDbEntity
  8
0-0
  6
JWW_DASHED1
 62
   120
370
     5
100
AcDbLine
 10
700.2349667796159
 20
-489.445557396952
 30
0.0
 11
700.2349667796159
 21
671.4082108397503
 31
0.0
  0
LINE
  5
3BD
330
1F
100
AcDbEntity
  8
0-0
  6
JWW_DASHED1
 62
   120
370
     5
100
AcDbLine
 10
687.2349667785159
 20
-489.445557396952
 30
0.0
 11
687.2349667785159
 21
667.3190490920439
 31
0.0
  0
LINE
  5
3BE
330
1F
100
AcDbEntity
  8
0-0
  6
JWW_DASHED1
 62
   120
370
     5
100
AcDbLine
 10
686.2349667786157
 20
-489.445557396952
 30
0.0
 11
686.2349667786157
 21
666.9812884616346
 31
0.0
  0
LINE
  5
3BF
330
1F
100
AcDbEntity
  8
0-0
  6
JWW_DASHED1
 62
   120
370
     5
100
AcDbLine
 10
673.2349667775161
 20
-489.445557396952
 30
0.0
 11
673.2349667775161
 21
662.2802521677346
 31
0.0
  0
LINE
  5
3C0
330
1F
100
AcDbEntity
  8
0-0
  6
JWW_DASHED1
 62
   120
370
     5
100
AcDbLine
 10
672.2349667776159
 20
-489.445557396952
 30
0.0
 11
672.2349667776159
 21
661.8943798964443
 31
0.0
  0
LINE
  5
3C1
330
1F
100
AcDbEntity
  8
0-0
  6
JWW_DASHED1
 62
   120
370
     5
100
AcDbLine
 10
659.2349667765159
 20
-489.445557396952
 30
0.0
 11
659.2349667765159
 21
656.5525035824845
 31
0.0
  0
LINE
  5
3C2
330
1F
100
AcDbEntity
  8
0-0
  6
JWW_DASHED1
 62
   120
370
     5
100
AcDbLine
 10
658.2349667766157
 20
-489.445557396952
 30
0.0
 11
658.2349667766157
 21
656.1160672394413
 31
0.0
  0
LINE
  5
3C3
330
1F
100
AcDbEntity
  8
0-0
  6
JWW_DASHED1
 62
   120
370
     5
100
AcDbLine
 10
645.2349667755161
 20
-489.445557396952
 30
0.0
 11
645.2349667755161
 21
650.0981687673681
 31
0.0
  0
LINE
  5
3C4
330
1F
100
AcDbEntity
  8
0-0
  6
JWW_DASHED1
 62
   120
370
     5
100
AcDbLine
 10
644.2349667756159
 20
-489.445557396952
 30
0.0
 11
644.2349667756159
 21
649.608189127926
 31
0.0
  0
LINE
  5
3C5
330
1F
100
AcDbEntity
  8
0-0
  6
JWW_DASHED1
 62
   120
370
     5
100
AcDbLine
 10
631.2349667745159
 20
-489.445557396952
 30
0.0
 11
631.2349667745159
 21
642.8825126175866
 31
0.0
  0
LINE
  5
3C6
330
1F
100
AcDbEntity
  8
0-0
  6
JWW_DASHED1
 62
   120
370
     5
100
AcDbLine
 10
630.2349667746157
 20
-489.445557396952
 30
0.0
 11
630.2349667746157
 21
642.3597880649027
 31
0.0
  0
LINE
  5
3C7
330
1F
100
AcDbEntity
  8
0-0
  6
JWW_DASHED1
 62
   120
370
     5
100
AcDbLine
 10
617.234966773516
 20
-489.445557396952
 30
0.0
 11
617.234966773516
 21
636.3944970623993
 31
0.0
  0
LINE
  5
3C8
330
1F
100
AcDbEntity
  8
0-0
  6
JWW_DASHED1
 62
   120
370
     5
100
AcDbLine
 10
616.2349667736158
 20
-489.445557396952
 30
0.0
 11
616.2349667736158
 21
635.9963351075999
 31
0.0
  0
LINE
  5
3C9
330
1F
100
AcDbEntity
  8
0-0
  6
JWW_DASHED1
 62
   120
370
     5
100
AcDbLine
 10
603.2349667725163
 20
-489.445557396952
 30
0.0
 11
603.2349667725163
 21
631.5504877963645
 31
0.0
  0
LINE
  5
3CA
330
1F
100
AcDbEntity
  8
0-0
  6
JWW_DASHED1
 62
   120
370
     5
100
AcDbLine
 10
602.2349667726161
 20
-489.445557396952
 30
0.0
 11
602.2349667726161
 21
631.2626761513889
 31
0.0
  0
LINE
  5
3CB
330
1F
100
AcDbEntity
  8
0-0
  6
JWW_DASHED1
 62
   120
370
     5
100
AcDbLine
 10
589.234966771516
 20
-489.445557396952
 30
0.0
 11
589.234966771516
 21
628.1882770015432
 31
0.0
  0
LINE
  5
3CC
330
1F
100
AcDbEntity
  8
0-0
  6
JWW_DASHED1
 62
   120
370
     5
100
AcDbLine
 10
588.2349667716159
 20
-489.445557396952
 30
0.0
 11
588.2349667716159
 21
628.0018703597921
 31
0.0
  0
LINE
  5
3CD
330
1F
100
AcDbEntity
  8
0-0
  6
JWW_DASHED1
 62
   120
370
     5
100
AcDbLine
 10
575.2349667705158
 20
-489.445557396952
 30
0.0
 11
575.2349667705158
 21
626.2077526871758
 31
0.0
  0
LINE
  5
3CE
330
1F
100
AcDbEntity
  8
0-0
  6
JWW_DASHED1
 62
   120
370
     5
100
AcDbLine
 10
574.2349667706156
 20
-489.445557396952
 30
0.0
 11
574.2349667706156
 21
626.117470775705
 31
0.0
  0
LINE
  5
3CF
330
1F
100
AcDbEntity
  8
0-0
  6
JWW_DASHED1
 62
   120
370
     5
100
AcDbLine
 10
561.2349667695161
 20
-489.445557396952
 30
0.0
 11
561.2349667695161
 21
625.5541750587395
 31
0.0
  0
LINE
  5
3D0
330
1F
100
AcDbEntity
  8
0-0
  6
JWW_DASHED1
 62
   120
370
     5
100
AcDbLine
 10
560.2349667696159
 20
-489.445557396952
 30
0.0
 11
560.2349667696159
 21
625.5541750587395
 31
0.0
  0
LINE
  5
3D1
330
1F
100
AcDbEntity
  8
0-0
  6
JWW_DASHED1
 62
   120
370
     5
100
AcDbLine
 10
547.2349667685162
 20
-489.445557396952
 30
0.0
 11
547.2349667685162
 21
625.5541750587395
 31
0.0
  0
LINE
  5
3D2
330
1F
100
AcDbEntity
  8
0-0
  6
JWW_DASHED1
 62
   120
370
     5
100
AcDbLine
 10
546.234966768616
 20
-489.445557396952
 30
0.0
 11
546.234966768616
 21
625.5541750587395
 31
0.0
  0
LINE
  5
3D3
330
1F
100
AcDbEntity
  8
0-0
  6
JWW_DASHED1
 62
   120
370
     5
100
AcDbLine
 10
533.234966767516
 20
-489.445557396952
 30
0.0
 11
533.234966767516
 21
625.5541750587395
 31
0.0
  0
LINE
  5
3D4
330
1F
100
AcDbEntity
  8
0-0
  6
JWW_DASHED1
 62
   120
370
     5
100
AcDbLine
 10
532.2349667676158
 20
-489.445557396952
 30
0.0
 11
532.2349667676158
 21
625.5541750587395
 31
0.0
  0
LINE
  5
3D5
330
1F
100
AcDbEntity
  8
0-0
  6
JWW_DASHED1
 62
   120
370
     5
100
AcDbLine
 10
519.2349667665158
 20
-489.445557396952
 30
0.0
 11
519.2349667665158
 21
625.5541750587395
 31
0.0
  0
LINE
  5
3D6
330
1F
100
AcDbEntity
  8
0-0
  6
JWW_DASHED1
 62
   120
370
     5
100
AcDbLine
 10
518.2349667666156
 20
-489.445557396952
 30
0.0
 11
518.2349667666156
 21
625.5541750587395
 31
0.0
  0
LWPOLYLINE
  5
3D7
330
1F
100
AcDbEntity
  8
寸法
  6
Continuous
 62
     7
370
     9
100
AcDbPolyline
 90
        4
 70
     1
 43
3.0
 10
-1641.765051691417
 20
864.5544426030485
 42
0.4142135623731
 10
-1643.265051691417
 20
866.0544426030485
 42
0.4142135623731
 10
-1644.765051691417
 20
864.5544426030485
 42
0.4142135623731
 10
-1643.265051691417
 20
863.0544426030484
 42
0.4142135623731
  0
LINE
  5
3D8
330
1F
100
AcDbEntity
  8
寸法
  6
Continuous
 62
   120
370
     5
100
AcDbLine
 10
-1643.265051691417
 20
864.5544426030485
 30
0.0
 11
-1243.265051691417
 21
864.5544426030485
 31
0.0
  0
LINE
  5
3D9
330
1F
100
AcDbEntity
  8
寸法
  6
Continuous
 62
   120
370
     5
100
AcDbLine
 10
-1643.265051691417
 20
864.5544426030485
 30
0.0
 11
-1643.265051691417
 21
-1182.445557396952
 31
0.0
  0
LINE
  5
3DA
330
1F
100
AcDbEntity
  8
寸法
  6
Continuous
 62
   120
370
     5
100
AcDbLine
 10
-1643.265051691417
 20
-1182.445557396952
 30
0.0
 11
-1243.265051691417
 21
-1182.445557396952
 31
0.0
  0
LINE
  5
3DB
330
1F
100
AcDbEntity
  8
寸法
  6
Continuous
 62
   120
370
     5
100
AcDbLine
 10
-1443.265051691416
 20
-1162.445557396951
 30
0.0
 11
-1243.265051691417
 21
-1162.445557396951
 31
0.0
  0
LWPOLYLINE
  5
3DC
330
1F
100
AcDbEntity
  8
寸法
  6
Continuous
 62
     7
370
     9
100
AcDbPolyline
 90
        4
 70
     1
 43
3.0
 10
-1641.765051691417
 20
-1182.445557396952
 42
0.4142135623731
 10
-1643.265051691417
 20
-1180.945557396952
 42
0.4142135623731
 10
-1644.765051691417
 20
-1182.445557396952
 42
0.4142135623731
 10
-1643.265051691417
 20
-1183.945557396952
 42
0.4142135623731
  0
LWPOLYLINE
  5
3DD
330
1F
100
AcDbEntity
  8
寸法
  6
Continuous
 62
     7
370
     9
100
AcDbPolyline
 90
        4
 70
     1
 43
3.0
 10
-1441.765051691416
 20
-1162.445557396951
 42
0.4142135623731
 10
-1443.265051691416
 20
-1160.945557396951
 42
0.4142135623731
 10
-1444.765051691416
 20
-1162.445557396951
 42
0.4142135623731
 10
-1443.265051691416
 20
-1163.945557396951
 42
0.4142135623731
  0
LWPOLYLINE
  5
3DE
330
1F
100
AcDbEntity
  8
寸法
  6
Continuous
 62
     7
370
     9
100
AcDbPolyline
 90
        4
 70
     1
 43
3.0
 10
-1441.765051691416
 20
820.5544426030476
 42
0.4142135623731
 10
-1443.265051691416
 20
822.0544426030476
 42
0.4142135623731
 10
-1444.765051691416
 20
820.5544426030476
 42
0.4142135623731
 10
-1443.265051691416
 20
819.0544426030475
 42
0.4142135623731
  0
LINE
  5
3DF
330
1F
100
AcDbEntity
  8
寸法
  6
Continuous
 62
   120
370
     5
100
AcDbLine
 10
-1443.265051691416
 20
820.5544426030476
 30
0.0
 11
-1443.265051691416
 21
-1162.445557396951
 31
0.0
  0
LINE
  5
3E0
330
1F
100
AcDbEntity
  8
寸法
  6
Continuous
 62
   120
370
     5
100
AcDbLine
 10
-1443.265051691416
 20
820.5544426030476
 30
0.0
 11
-1243.265051691417
 21
820.5544426030476
 31
0.0
  0
LINE
  5
3E1
330
1F
100
AcDbEntity
  8
寸法
  6
Continuous
 62
   120
370
     5
100
AcDbLine
 10
-1163.265051691415
 20
-1632.445557396952
 30
0.0
 11
-1163.265051691415
 21
-1232.445557396952
 31
0.0
  0
LINE
  5
3E2
330
1F
100
AcDbEntity
  8
寸法
  6
Continuous
 62
   120
370
     5
100
AcDbLine
 10
-1193.265051691415
 20
-1832.445557396952
 30
0.0
 11
-1193.265051691415
 21
-1232.445557396952
 31
0.0
  0
LINE
  5
3E3
330
1F
100
AcDbEntity
  8
寸法
  6
Continuous
 62
   120
370
     5
100
AcDbLine
 10
-1163.265051691415
 20
-1632.445557396952
 30
0.0
 11
1200.734948308584
 21
-1632.445557396952
 31
0.0
  0
LINE
  5
3E4
330
1F
100
AcDbEntity
  8
寸法
  6
Continuous
 62
   120
370
     5
100
AcDbLine
 10
1200.734948308584
 20
-1632.445557396952
 30
0.0
 11
1200.734948308584
 21
-1232.445557396952
 31
0.0
  0
LINE
  5
3E5
330
1F
100
AcDbEntity
  8
寸法
  6
Continuous
 62
   120
370
     5
100
AcDbLine
 10
-1193.265051691415
 20
-1832.445557396952
 30
0.0
 11
1230.734948308584
 21
-1832.445557396952
 31
0.0
  0
LINE
  5
3E6
330
1F
100
AcDbEntity
  8
寸法
  6
Continuous
 62
   120
370
     5
100
AcDbLine
 10
1230.734948308584
 20
-1832.445557396952
 30
0.0
 11
1230.734948308584
 21
-1232.445557396952
 31
0.0
  0
LINE
  5
3E7
330
1F
100
AcDbEntity
  8
寸法
  6
Continuous
 62
   120
370
     5
100
AcDbLine
 10
393.7349483085842
 20
-1432.445557396951
 30
0.0
 11
393.7349483085842
 21
-1232.445557396952
 31
0.0
  0
LINE
  5
3E8
330
1F
100
AcDbEntity
  8
寸法
  6
Continuous
 62
   120
370
     5
100
AcDbLine
 10
1203.734948308584
 20
-1432.445557396951
 30
0.0
 11
1203.734948308584
 21
-1232.445557396952
 31
0.0
  0
LINE
  5
3E9
330
1F
100
AcDbEntity
  8
寸法
  6
Continuous
 62
   120
370
     5
100
AcDbLine
 10
1203.734948308584
 20
-1432.445557396951
 30
0.0
 11
393.7349483085842
 21
-1432.445557396951
 31
0.0
  0
LWPOLYLINE
  5
3EA
330
1F
100
AcDbEntity
  8
寸法
  6
Continuous
 62
     7
370
     9
100
AcDbPolyline
 90
        4
 70
     1
 43
3.0
 10
-1161.765051691415
 20
-1632.445557396952
 42
0.4142135623731
 10
-1163.265051691415
 20
-1630.945557396952
 42
0.4142135623731
 10
-1164.765051691415
 20
-1632.445557396952
 42
0.4142135623731
 10
-1163.265051691415
 20
-1633.945557396952
 42
0.4142135623731
  0
LWPOLYLINE
  5
3EB
330
1F
100
AcDbEntity
  8
寸法
  6
Continuous
 62
     7
370
     9
100
AcDbPolyline
 90
        4
 70
     1
 43
3.0
 10
-1191.765051691415
 20
-1832.445557396952
 42
0.4142135623731
 10
-1193.265051691415
 20
-1830.945557396953
 42
0.4142135623731
 10
-1194.765051691415
 20
-1832.445557396952
 42
0.4142135623731
 10
-1193.265051691415
 20
-1833.945557396952
 42
0.4142135623731
  0
LWPOLYLINE
  5
3EC
330
1F
100
AcDbEntity
  8
寸法
  6
Continuous
 62
     7
370
     9
100
AcDbPolyline
 90
        4
 70
     1
 43
3.0
 10
1202.234948308583
 20
-1632.445557396952
 42
0.4142135623731
 10
1200.734948308584
 20
-1630.945557396952
 42
0.4142135623731
 10
1199.234948308584
 20
-1632.445557396952
 42
0.4142135623731
 10
1200.734948308584
 20
-1633.945557396952
 42
0.4142135623731
  0
LWPOLYLINE
  5
3ED
330
1F
100
AcDbEntity
  8
寸法
  6
Continuous
 62
     7
370
     9
100
AcDbPolyline
 90
        4
 70
     1
 43
3.0
 10
1232.234948308583
 20
-1832.445557396952
 42
0.4142135623731
 10
1230.734948308584
 20
-1830.945557396952
 42
0.4142135623731
 10
1229.234948308584
 20
-1832.445557396952
 42
0.4142135623731
 10
1230.734948308584
 20
-1833.945557396951
 42
0.4142135623731
  0
LWPOLYLINE
  5
3EE
330
1F
100
AcDbEntity
  8
寸法
  6
Continuous
 62
     7
370
     9
100
AcDbPolyline
 90
        4
 70
     1
 43
3.0
 10
395.2349483085842
 20
-1432.445557396951
 42
0.4142135623731
 10
393.7349483085842
 20
-1430.945557396951
 42
0.4142135623731
 10
392.2349483085842
 20
-1432.445557396951
 42
0.4142135623731
 10
393.7349483085842
 20
-1433.945557396951
 42
0.4142135623731
  0
LWPOLYLINE
  5
3EF
330
1F
100
AcDbEntity
  8
寸法
  6
Continuous
 62
     7
370
     9
100
AcDbPolyline
 90
        4
 70
     1
 43
3.0
 10
1205.234948308584
 20
-1432.445557396951
 42
0.4142135623731
 10
1203.734948308584
 20
-1430.945557396951
 42
0.4142135623731
 10
1202.234948308584
 20
-1432.445557396951
 42
0.4142135623731
 10
1203.734948308584
 20
-1433.945557396951
 42
0.4142135623731
  0
MTEXT
  5
3F0
330
1F
100
AcDbEntity
  8
寸法
  6
Continuous
 62
     7
370
    70
100
AcDbMText
 10
-1658.265051691417
 20
-374.1205573969517
 30
0.0
 40
57.14999999999999
 41
412.5
 46
0.0
 71
     7
 72
     1
  1
{\fＭＳ ゴシック|b0|i0|c128|p49;枠外＝2,047}
 11
6.123031769111886E-17
 21
1.0
 31
0.0
 73
     1
 44
1.0
  0
MTEXT
  5
3F1
330
1F
100
AcDbEntity
  8
寸法
  6
Continuous
 62
     7
370
    70
100
AcDbMText
 10
-1458.265051691416
 20
-380.1205573969513
 30
0.0
 40
57.14999999999999
 41
412.5
 46
0.0
 71
     7
 72
     1
  1
{\fＭＳ ゴシック|b0|i0|c128|p49;ＤＨ＝1,983}
 11
6.123031769111886E-17
 21
1.0
 31
0.0
 73
     1
 44
1.0
  0
MTEXT
  5
3F2
330
1F
100
AcDbEntity
  8
寸法
  6
Continuous
 62
     7
370
   211
100
AcDbMText
 10
629.9849483085842
 20
-1426.370557396951
 30
0.0
 40
57.15
 41
337.5
 46
0.0
 71
     7
 72
     1
  1
{\fＭＳ ゴシック|b0|i0|c128|p49;ＤＷ＝810}
 73
     1
 44
1.0
  0
MTEXT
  5
3F3
330
1F
100
AcDbEntity
  8
寸法
  6
Continuous
 62
     7
370
   211
100
AcDbMText
 10
-187.5150516914158
 20
-1626.370557396952
 30
0.0
 40
57.14999999999999
 41
412.5
 46
0.0
 71
     7
 72
     1
  1
{\fＭＳ ゴシック|b0|i0|c128|p49;枠内＝2,364}
 73
     1
 44
1.0
  0
MTEXT
  5
3F4
330
1F
100
AcDbEntity
  8
寸法
  6
Continuous
 62
     7
370
   211
100
AcDbMText
 10
-187.5150516914158
 20
-1826.370557396952
 30
0.0
 40
57.14999999999999
 41
412.5
 46
0.0
 71
     7
 72
     1
  1
{\fＭＳ ゴシック|b0|i0|c128|p49;枠外＝2,424}
 73
     1
 44
1.0
  0
ENDSEC
  0
SECTION
  2
OBJECTS
  0
DICTIONARY
  5
C
330
0
100
AcDbDictionary
281
     1
  3
ACAD_GROUP
350
D
  3
ACAD_LAYOUT
350
1A
  3
ACAD_MATERIAL
350
3B
  3
ACAD_MLEADERSTYLE
350
3F6
  3
ACAD_MLINESTYLE
350
17
  3
ACAD_PLOTSETTINGS
350
19
  3
ACAD_PLOTSTYLENAME
350
E
  3
ACAD_TABLESTYLE
350
3F5
  3
ACAD_VISUALSTYLE
350
2A
  0
DICTIONARY
  5
D
102
{ACAD_REACTORS
330
C
102
}
330
C
100
AcDbDictionary
281
     1
  0
DICTIONARY
  5
1A
102
{ACAD_REACTORS
330
C
102
}
330
C
100
AcDbDictionary
281
     1
  3
Layout1
350
1E
  3
Layout2
350
26
  3
Model
350
22
  0
DICTIONARY
  5
3B
102
{ACAD_REACTORS
330
C
102
}
330
C
100
AcDbDictionary
281
     1
  3
ByBlock
350
3D
  3
ByLayer
350
3C
  3
Global
350
3E
  0
DICTIONARY
  5
3F6
102
{ACAD_REACTORS
330
C
102
}
330
C
100
AcDbDictionary
281
     1
  0
DICTIONARY
  5
17
102
{ACAD_REACTORS
330
C
102
}
330
C
100
AcDbDictionary
281
     1
  3
Standard
350
18
  0
DICTIONARY
  5
19
102
{ACAD_REACTORS
330
C
102
}
330
C
100
AcDbDictionary
281
     1
  0
ACDBDICTIONARYWDFLT
  5
E
102
{ACAD_REACTORS
330
C
102
}
330
C
100
AcDbDictionary
281
     1
  3
Normal
350
F
100
AcDbDictionaryWithDefault
340
F
  0
DICTIONARY
  5
3F5
102
{ACAD_REACTORS
330
C
102
}
330
C
100
AcDbDictionary
281
     1
  0
DICTIONARY
  5
2A
102
{ACAD_REACTORS
330
C
102
}
330
C
100
AcDbDictionary
281
     1
  3
2dWireframe
350
2F
  3
3D Hidden
350
31
  3
3dWireframe
350
30
  3
Basic
350
32
  3
Brighten
350
36
  3
ColorChange
350
3A
  3
Conceptual
350
34
  3
Dim
350
35
  3
Facepattern
350
39
  3
Flat
350
2B
  3
FlatWithEdges
350
2C
  3
Gouraud
350
2D
  3
GouraudWithEdges
350
2E
  3
Linepattern
350
38
  3
Realistic
350
33
  3
Thicken
350
37
  0
LAYOUT
  5
1E
102
{ACAD_REACTORS
330
1A
102
}
330
1A
100
AcDbPlotSettings
  1

  2
none_device
  4

  6

 40
0.0
 41
0.0
 42
0.0
 43
0.0
 44
0.0
 45
0.0
 46
0.0
 47
0.0
 48
0.0
 49
0.0
140
0.0
141
0.0
142
1.0
143
1.0
 70
   688
 72
     0
 73
     0
 74
     5
  7

 75
    16
 76
     0
 77
     5
 78
   300
147
1.0
148
0.0
149
0.0
100
AcDbLayout
  1
Layout1
 70
     1
 71
     1
 10
0.0
 20
0.0
 11
420.0
 21
297.0
 12
0.0
 22
0.0
 32
0.0
 14
1.000000000000000E+20
 24
1.000000000000000E+20
 34
1.000000000000000E+20
 15
-1.000000000000000E+20
 25
-1.000000000000000E+20
 35
-1.000000000000000E+20
146
0.0
 13
0.0
 23
0.0
 33
0.0
 16
1.0
 26
0.0
 36
0.0
 17
0.0
 27
1.0
 37
0.0
 76
     0
330
1B
  0
LAYOUT
  5
26
102
{ACAD_REACTORS
330
1A
102
}
330
1A
100
AcDbPlotSettings
  1

  2
none_device
  4

  6

 40
0.0
 41
0.0
 42
0.0
 43
0.0
 44
0.0
 45
0.0
 46
0.0
 47
0.0
 48
0.0
 49
0.0
140
0.0
141
0.0
142
1.0
143
1.0
 70
   688
 72
     0
 73
     0
 74
     5
  7

 75
    16
 76
     0
 77
     5
 78
   300
147
1.0
148
0.0
149
0.0
100
AcDbLayout
  1
Layout2
 70
     1
 71
     2
 10
0.0
 20
0.0
 11
0.0
 21
0.0
 12
0.0
 22
0.0
 32
0.0
 14
0.0
 24
0.0
 34
0.0
 15
0.0
 25
0.0
 35
0.0
146
0.0
 13
0.0
 23
0.0
 33
0.0
 16
1.0
 26
0.0
 36
0.0
 17
0.0
 27
1.0
 37
0.0
 76
     0
330
23
  0
LAYOUT
  5
22
102
{ACAD_REACTORS
330
1A
102
}
330
1A
100
AcDbPlotSettings
  1

  2
none_device
  4

  6

 40
0.0
 41
0.0
 42
0.0
 43
0.0
 44
0.0
 45
0.0
 46
0.0
 47
0.0
 48
0.0
 49
0.0
140
0.0
141
0.0
142
1.0
143
1.0
 70
  1712
 72
     0
 73
     0
 74
     0
  7

 75
     0
 76
     0
 77
     5
 78
   300
147
1.0
148
0.0
149
0.0
100
AcDbLayout
  1
Model
 70
     1
 71
     0
 10
-4455.0
 20
-3150.0
 11
4455.0
 21
3150.0
 12
0.0
 22
0.0
 32
0.0
 14
-4455.0
 24
-3150.0
 34
0.0
 15
4455.0
 25
3150.0
 35
0.0
146
0.0
 13
0.0
 23
0.0
 33
0.0
 16
1.0
 26
0.0
 36
0.0
 17
0.0
 27
1.0
 37
0.0
 76
     0
330
1F
331
29
  0
MATERIAL
  5
3D
102
{ACAD_REACTORS
330
3B
102
}
330
3B
100
AcDbMaterial
  1
ByBlock
 72
     1
 94
      127
  0
MATERIAL
  5
3C
102
{ACAD_REACTORS
330
3B
102
}
330
3B
100
AcDbMaterial
  1
ByLayer
 72
     1
 94
      127
  0
MATERIAL
  5
3E
102
{ACAD_REACTORS
330
3B
102
}
330
3B
100
AcDbMaterial
  1
Global
 72
     1
 94
      127
  0
MLINESTYLE
  5
18
102
{ACAD_REACTORS
330
17
102
}
330
17
100
AcDbMlineStyle
  2
Standard
 70
     0
  3

 62
   256
 51
90.0
 52
90.0
 71
     2
 49
0.5
 62
   256
  6
BYLAYER
 49
-0.5
 62
   256
  6
BYLAYER
  0
ACDBPLACEHOLDER
  5
F
102
{ACAD_REACTORS
330
E
102
}
330
E
  0
VISUALSTYLE
  5
2F
102
{ACAD_REACTORS
330
2A
102
}
330
2A
100
AcDbVisualStyle
  2
2dWireframe
 70
     4
177
     2
291
     0
 71
     0
176
     1
 72
     2
176
     1
 73
     0
176
     1
 90
        0
176
     1
 40
-0.6
176
     1
 41
-30.0
176
     1
 62
     5
 63
     7
421
 16777215
176
     1
 74
     1
176
     1
 91
        4
176
     1
 64
     7
176
     1
 65
   257
176
     1
 75
     1
176
     1
175
     1
176
     1
 42
1.0
176
     1
 92
        0
176
     1
 66
   257
176
     1
 43
1.0
176
     1
 76
     1
176
     1
 77
     6
176
     1
 78
     2
176
     1
 67
     7
176
     1
 79
     5
176
     1
170
     0
176
     1
171
     0
176
     1
290
     0
176
     1
 93
        1
176
     1
 44
0.0
176
     1
173
     0
176
     1
  0
VISUALSTYLE
  5
31
102
{ACAD_REACTORS
330
2A
102
}
330
2A
100
AcDbVisualStyle
  2
3D Hidden
 70
     6
177
     2
291
     0
 71
     1
176
     1
 72
     2
176
     1
 73
     2
176
     1
 90
        0
176
     1
 40
-0.6
176
     1
 41
-30.0
176
     1
 62
     5
 63
     7
421
 16777215
176
     1
 74
     2
176
     1
 91
        2
176
     1
 64
     7
176
     1
 65
   257
176
     1
 75
     2
176
     1
175
     1
176
     1
 42
40.0
176
     1
 92
        0
176
     1
 66
   257
176
     1
 43
1.0
176
     1
 76
     1
176
     1
 77
     6
176
     1
 78
     2
176
     1
 67
     7
176
     1
 79
     3
176
     1
170
     0
176
     1
171
     0
176
     1
290
     0
176
     1
 93
        1
176
     1
 44
0.0
176
     1
173
     0
176
     1
  0
VISUALSTYLE
  5
30
102
{ACAD_REACTORS
330
2A
102
}
330
2A
100
AcDbVisualStyle
  2
3dWireframe
 70
     5
177
     2
291
     0
 71
     0
176
     1
 72
     2
176
     1
 73
     0
176
     1
 90
        0
176
     1
 40
-0.6
176
     1
 41
-30.0
176
     1
 62
     5
 63
     7
421
 16777215
176
     1
 74
     1
176
     1
 91
        4
176
     1
 64
     7
176
     1
 65
   257
176
     1
 75
     1
176
     1
175
     1
176
     1
 42
1.0
176
     1
 92
        0
176
     1
 66
   257
176
     1
 43
1.0
176
     1
 76
     1
176
     1
 77
     6
176
     1
 78
     2
176
     1
 67
     7
176
     1
 79
     5
176
     1
170
     0
176
     1
171
     0
176
     1
290
     0
176
     1
 93
        1
176
     1
 44
0.0
176
     1
173
     0
176
     1
  0
VISUALSTYLE
  5
32
102
{ACAD_REACTORS
330
2A
102
}
330
2A
100
AcDbVisualStyle
  2
Basic
 70
     7
177
     2
291
     1
 71
     1
176
     1
 72
     0
176
     1
 73
     1
176
     1
 90
        0
176
     1
 40
-0.6
176
     1
 41
-30.0
176
     1
 62
     5
 63
     7
421
 16777215
176
     1
 74
     0
176
     1
 91
        4
176
     1
 64
     7
176
     1
 65
   257
176
     1
 75
     1
176
     1
175
     1
176
     1
 42
1.0
176
     1
 92
        8
176
     1
 66
     7
176
     1
 43
1.0
176
     1
 76
     1
176
     1
 77
     6
176
     1
 78
     2
176
     1
 67
     7
176
     1
 79
     5
176
     1
170
     0
176
     1
171
     0
176
     1
290
     0
176
     1
 93
        1
176
     1
 44
0.0
176
     1
173
     0
176
     1
  0
VISUALSTYLE
  5
36
102
{ACAD_REACTORS
330
2A
102
}
330
2A
100
AcDbVisualStyle
  2
Brighten
 70
    12
177
     2
291
     1
 71
     2
176
     1
 72
     2
176
     1
 73
     0
176
     1
 90
        0
176
     1
 40
-0.6
176
     1
 41
-30.0
176
     1
 62
     5
 63
     7
421
 16777215
176
     1
 74
     1
176
     1
 91
        4
176
     1
 64
     7
176
     1
 65
   257
176
     1
 75
     1
176
     1
175
     1
176
     1
 42
1.0
176
     1
 92
        8
176
     1
 66
     7
176
     1
 43
1.0
176
     1
 76
     1
176
     1
 77
     6
176
     1
 78
     2
176
     1
 67
     7
176
     1
 79
     5
176
     1
170
     0
176
     1
171
     0
176
     1
290
     0
176
     1
 93
        1
176
     1
 44
50.0
176
     1
173
     0
176
     1
  0
VISUALSTYLE
  5
3A
102
{ACAD_REACTORS
330
2A
102
}
330
2A
100
AcDbVisualStyle
  2
ColorChange
 70
    16
177
     2
291
     1
 71
     2
176
     1
 72
     2
176
     1
 73
     3
176
     1
 90
        0
176
     1
 40
-0.6
176
     1
 41
-30.0
176
     1
 62
     5
 63
     8
421
  8421504
176
     1
 74
     1
176
     1
 91
        4
176
     1
 64
     7
176
     1
 65
   257
176
     1
 75
     1
176
     1
175
     1
176
     1
 42
1.0
176
     1
 92
        8
176
     1
 66
     8
424
  8421504
176
     1
 43
1.0
176
     1
 76
     1
176
     1
 77
     6
176
     1
 78
     2
176
     1
 67
     7
176
     1
 79
     5
176
     1
170
     0
176
     1
171
     0
176
     1
290
     0
176
     1
 93
        1
176
     1
 44
0.0
176
     1
173
     0
176
     1
  0
VISUALSTYLE
  5
34
102
{ACAD_REACTORS
330
2A
102
}
330
2A
100
AcDbVisualStyle
  2
Conceptual
 70
     9
177
     2
291
     0
 71
     3
176
     1
 72
     2
176
     1
 73
     0
176
     1
 90
        0
176
     1
 40
-0.6
176
     1
 41
-30.0
176
     1
 62
     5
 63
     7
421
 16777215
176
     1
 74
     2
176
     1
 91
        2
176
     1
 64
     7
176
     1
 65
   257
176
     1
 75
     1
176
     1
175
     1
176
     1
 42
40.0
176
     1
 92
        8
176
     1
 66
     7
176
     1
 43
1.0
176
     1
 76
     1
176
     1
 77
     6
176
     1
 78
     2
176
     1
 67
     7
176
     1
 79
     3
176
     1
170
     0
176
     1
171
     0
176
     1
290
     0
176
     1
 93
        1
176
     1
 44
0.0
176
     1
173
     0
176
     1
  0
VISUALSTYLE
  5
35
102
{ACAD_REACTORS
330
2A
102
}
330
2A
100
AcDbVisualStyle
  2
Dim
 70
    11
177
     2
291
     1
 71
     2
176
     1
 72
     2
176
     1
 73
     0
176
     1
 90
        0
176
     1
 40
-0.6
176
     1
 41
-30.0
176
     1
 62
     5
 63
     7
421
 16777215
176
     1
 74
     1
176
     1
 91
        4
176
     1
 64
     7
176
     1
 65
   257
176
     1
 75
     1
176
     1
175
     1
176
     1
 42
1.0
176
     1
 92
        8
176
     1
 66
     7
176
     1
 43
1.0
176
     1
 76
     1
176
     1
 77
     6
176
     1
 78
     2
176
     1
 67
     7
176
     1
 79
     5
176
     1
170
     0
176
     1
171
     0
176
     1
290
     0
176
     1
 93
        1
176
     1
 44
-50.0
176
     1
173
     0
176
     1
  0
VISUALSTYLE
  5
39
102
{ACAD_REACTORS
330
2A
102
}
330
2A
100
AcDbVisualStyle
  2
Facepattern
 70
    15
177
     2
291
     1
 71
     2
176
     1
 72
     2
176
     1
 73
     0
176
     1
 90
        0
176
     1
 40
-0.6
176
     1
 41
-30.0
176
     1
 62
     5
 63
     7
421
 16777215
176
     1
 74
     1
176
     1
 91
        4
176
     1
 64
     7
176
     1
 65
   257
176
     1
 75
     1
176
     1
175
     1
176
     1
 42
1.0
176
     1
 92
        8
176
     1
 66
     7
176
     1
 43
1.0
176
     1
 76
     1
176
     1
 77
     6
176
     1
 78
     2
176
     1
 67
     7
176
     1
 79
     5
176
     1
170
     0
176
     1
171
     0
176
     1
290
     0
176
     1
 93
        1
176
     1
 44
0.0
176
     1
173
     0
176
     1
  0
VISUALSTYLE
  5
2B
102
{ACAD_REACTORS
330
2A
102
}
330
2A
100
AcDbVisualStyle
  2
Flat
 70
     0
177
     2
291
     1
 71
     2
176
     1
 72
     1
176
     1
 73
     1
176
     1
 90
        2
176
     1
 40
-0.6
176
     1
 41
30.0
176
     1
 62
     5
 63
     7
421
 16777215
176
     1
 74
     0
176
     1
 91
        4
176
     1
 64
     7
176
     1
 65
   257
176
     1
 75
     1
176
     1
175
     1
176
     1
 42
1.0
176
     1
 92
        8
176
     1
 66
     7
176
     1
 43
1.0
176
     1
 76
     1
176
     1
 77
     6
176
     1
 78
     2
176
     1
 67
     7
176
     1
 79
     5
176
     1
170
     0
176
     1
171
     0
176
     1
290
     0
176
     1
 93
       13
176
     1
 44
0.0
176
     1
173
     0
176
     1
  0
VISUALSTYLE
  5
2C
102
{ACAD_REACTORS
330
2A
102
}
330
2A
100
AcDbVisualStyle
  2
FlatWithEdges
 70
     1
177
     2
291
     1
 71
     2
176
     1
 72
     1
176
     1
 73
     1
176
     1
 90
        2
176
     1
 40
-0.6
176
     1
 41
30.0
176
     1
 62
     5
 63
     7
421
 16777215
176
     1
 74
     1
176
     1
 91
        4
176
     1
 64
     7
176
     1
 65
   257
176
     1
 75
     1
176
     1
175
     1
176
     1
 42
1.0
176
     1
 92
        0
176
     1
 66
   257
176
     1
 43
1.0
176
     1
 76
     1
176
     1
 77
     6
176
     1
 78
     2
176
     1
 67
     7
176
     1
 79
     5
176
     1
170
     0
176
     1
171
     0
176
     1
290
     0
176
     1
 93
       13
176
     1
 44
0.0
176
     1
173
     0
176
     1
  0
VISUALSTYLE
  5
2D
102
{ACAD_REACTORS
330
2A
102
}
330
2A
100
AcDbVisualStyle
  2
Gouraud
 70
     2
177
     2
291
     1
 71
     2
176
     1
 72
     2
176
     1
 73
     1
176
     1
 90
        2
176
     1
 40
-0.6
176
     1
 41
30.0
176
     1
 62
     5
 63
     7
421
 16777215
176
     1
 74
     0
176
     1
 91
        4
176
     1
 64
     7
176
     1
 65
   257
176
     1
 75
     1
176
     1
175
     1
176
     1
 42
1.0
176
     1
 92
        0
176
     1
 66
     7
176
     1
 43
1.0
176
     1
 76
     1
176
     1
 77
     6
176
     1
 78
     2
176
     1
 67
     7
176
     1
 79
     5
176
     1
170
     0
176
     1
171
     0
176
     1
290
     0
176
     1
 93
       13
176
     1
 44
0.0
176
     1
173
     0
176
     1
  0
VISUALSTYLE
  5
2E
102
{ACAD_REACTORS
330
2A
102
}
330
2A
100
AcDbVisualStyle
  2
GouraudWithEdges
 70
     3
177
     2
291
     1
 71
     2
176
     1
 72
     2
176
     1
 73
     1
176
     1
 90
        2
176
     1
 40
-0.6
176
     1
 41
30.0
176
     1
 62
     5
 63
     7
421
 16777215
176
     1
 74
     1
176
     1
 91
        4
176
     1
 64
     7
176
     1
 65
   257
176
     1
 75
     1
176
     1
175
     1
176
     1
 42
1.0
176
     1
 92
        0
176
     1
 66
   257
176
     1
 43
1.0
176
     1
 76
     1
176
     1
 77
     6
176
     1
 78
     2
176
     1
 67
     7
176
     1
 79
     5
176
     1
170
     0
176
     1
171
     0
176
     1
290
     0
176
     1
 93
       13
176
     1
 44
0.0
176
     1
173
     0
176
     1
  0
VISUALSTYLE
  5
38
102
{ACAD_REACTORS
330
2A
102
}
330
2A
100
AcDbVisualStyle
  2
Linepattern
 70
    14
177
     2
291
     1
 71
     2
176
     1
 72
     2
176
     1
 73
     0
176
     1
 90
        0
176
     1
 40
-0.6
176
     1
 41
-30.0
176
     1
 62
     5
 63
     7
421
 16777215
176
     1
 74
     1
176
     1
 91
        4
176
     1
 64
     7
176
     1
 65
   257
176
     1
 75
     7
176
     1
175
     7
176
     1
 42
1.0
176
     1
 92
        8
176
     1
 66
     7
176
     1
 43
1.0
176
     1
 76
     1
176
     1
 77
     6
176
     1
 78
     2
176
     1
 67
     7
176
     1
 79
     5
176
     1
170
     0
176
     1
171
     0
176
     1
290
     0
176
     1
 93
        1
176
     1
 44
0.0
176
     1
173
     0
176
     1
  0
VISUALSTYLE
  5
33
102
{ACAD_REACTORS
330
2A
102
}
330
2A
100
AcDbVisualStyle
  2
Realistic
 70
     8
177
     2
291
     0
 71
     2
176
     1
 72
     2
176
     1
 73
     0
176
     1
 90
        0
176
     1
 40
-0.6
176
     1
 41
-30.0
176
     1
 62
     5
 63
     7
421
 16777215
176
     1
 74
     1
176
     1
 91
        0
176
     1
 64
     7
176
     1
 65
   257
176
     1
 75
     1
176
     1
175
     1
176
     1
 42
1.0
176
     1
 92
        8
176
     1
 66
     8
424
  7895160
176
     1
 43
1.0
176
     1
 76
     1
176
     1
 77
     6
176
     1
 78
     2
176
     1
 67
     7
176
     1
 79
     5
176
     1
170
     0
176
     1
171
     0
176
     1
290
     0
176
     1
 93
       13
176
     1
 44
0.0
176
     1
173
     0
176
     1
  0
VISUALSTYLE
  5
37
102
{ACAD_REACTORS
330
2A
102
}
330
2A
100
AcDbVisualStyle
  2
Thicken
 70
    13
177
     2
291
     1
 71
     2
176
     1
 72
     2
176
     1
 73
     0
176
     1
 90
        0
176
     1
 40
-0.6
176
     1
 41
-30.0
176
     1
 62
     5
 63
     7
421
 16777215
176
     1
 74
     1
176
     1
 91
        4
176
     1
 64
     7
176
     1
 65
   257
176
     1
 75
     1
176
     1
175
     1
176
     1
 42
1.0
176
     1
 92
       12
176
     1
 66
     7
176
     1
 43
1.0
176
     1
 76
     1
176
     1
 77
     6
176
     1
 78
     2
176
     1
 67
     7
176
     1
 79
     5
176
     1
170
     0
176
     1
171
     0
176
     1
290
     0
176
     1
 93
        1
176
     1
 44
0.0
176
     1
173
     0
176
     1
  0
ENDSEC
  0
EOF
