  0
SECTION
  2
HEADER
  9
$ACADVER
  1
AC1024
  9
$ACADMAINTVER
 70
     6
  9
$DWGCODEPAGE
  3
ANSI_932
  9
$INSBASE
 10
0.0
 20
0.0
 30
0.0
  9
$EXTMIN
 10
-4455.0
 20
-3150.0
 30
0.0
  9
$EXTMAX
 10
4455.0
 20
3150.0
 30
0.0
  9
$LIMMIN
 10
-4455.0
 20
-3150.0
  9
$LIMMAX
 10
4455.0
 20
3150.0
  9
$ORTHOMODE
 70
     0
  9
$REGENMODE
 70
     1
  9
$FILLMODE
 70
     1
  9
$QTEXTMODE
 70
     0
  9
$MIRRTEXT
 70
     1
  9
$LTSCALE
 40
30.0
  9
$ATTMODE
 70
     1
  9
$TEXTSIZE
 40
2.5
  9
$TRACEWID
 40
1.0
  9
$TEXTSTYLE
  7
Standard
  9
$CLAYER
  8
0
  9
$CELTYPE
  6
ByLayer
  9
$CECOLOR
 62
   256
  9
$CELTSCALE
 40
1.0
  9
$DISPSILH
 70
     0
  9
$DIMSCALE
 40
1.0
  9
$DIMASZ
 40
2.5
  9
$DIMEXO
 40
0.625
  9
$DIMDLI
 40
3.75
  9
$DIMRND
 40
0.0
  9
$DIMDLE
 40
0.0
  9
$DIMEXE
 40
1.25
  9
$DIMTP
 40
0.0
  9
$DIMTM
 40
0.0
  9
$DIMTXT
 40
2.5
  9
$DIMCEN
 40
2.5
  9
$DIMTSZ
 40
0.0
  9
$DIMTOL
 70
     0
  9
$DIMLIM
 70
     0
  9
$DIMTIH
 70
     0
  9
$DIMTOH
 70
     0
  9
$DIMSE1
 70
     0
  9
$DIMSE2
 70
     0
  9
$DIMTAD
 70
     1
  9
$DIMZIN
 70
     8
  9
$DIMBLK
  1

  9
$DIMASO
 70
     1
  9
$DIMSHO
 70
     1
  9
$DIMPOST
  1

  9
$DIMAPOST
  1

  9
$DIMALT
 70
     0
  9
$DIMALTD
 70
     3
  9
$DIMALTF
 40
0.03937007874016
  9
$DIMLFAC
 40
1.0
  9
$DIMTOFL
 70
     1
  9
$DIMTVP
 40
0.0
  9
$DIMTIX
 70
     0
  9
$DIMSOXD
 70
     0
  9
$DIMSAH
 70
     0
  9
$DIMBLK1
  1

  9
$DIMBLK2
  1

  9
$DIMSTYLE
  2
ISO-25
  9
$DIMCLRD
 70
     0
  9
$DIMCLRE
 70
     0
  9
$DIMCLRT
 70
     0
  9
$DIMTFAC
 40
1.0
  9
$DIMGAP
 40
0.625
  9
$DIMJUST
 70
     0
  9
$DIMSD1
 70
     0
  9
$DIMSD2
 70
     0
  9
$DIMTOLJ
 70
     0
  9
$DIMTZIN
 70
     8
  9
$DIMALTZ
 70
     0
  9
$DIMALTTZ
 70
     0
  9
$DIMUPT
 70
     0
  9
$DIMDEC
 70
     2
  9
$DIMTDEC
 70
     2
  9
$DIMALTU
 70
     2
  9
$DIMALTTD
 70
     3
  9
$DIMTXSTY
  7
Standard
  9
$DIMAUNIT
 70
     0
  9
$DIMADEC
 70
     0
  9
$DIMALTRND
 40
0.0
  9
$DIMAZIN
 70
     0
  9
$DIMDSEP
 70
    44
  9
$DIMATFIT
 70
     3
  9
$DIMFRAC
 70
     0
  9
$DIMLDRBLK
  1

  9
$DIMLUNIT
 70
     2
  9
$DIMLWD
 70
    -2
  9
$DIMLWE
 70
    -2
  9
$DIMTMOVE
 70
     0
  9
$DIMFXL
 40
1.0
  9
$DIMFXLON
 70
     0
  9
$DIMJOGANG
 40
0.7853981633974483
  9
$DIMTFILL
 70
     0
  9
$DIMTFILLCLR
 70
     0
  9
$DIMARCSYM
 70
     0
  9
$DIMLTYPE
  6

  9
$DIMLTEX1
  6

  9
$DIMLTEX2
  6

  9
$DIMTXTDIRECTION
 70
     0
  9
$LUNITS
 70
     2
  9
$LUPREC
 70
     4
  9
$SKETCHINC
 40
1.0
  9
$FILLETRAD
 40
10.0
  9
$AUNITS
 70
     0
  9
$AUPREC
 70
     0
  9
$MENU
  1
.
  9
$ELEVATION
 40
0.0
  9
$PELEVATION
 40
0.0
  9
$THICKNESS
 40
0.0
  9
$LIMCHECK
 70
     0
  9
$CHAMFERA
 40
10.0
  9
$CHAMFERB
 40
10.0
  9
$CHAMFERC
 40
20.0
  9
$CHAMFERD
 40
0.0
  9
$SKPOLY
 70
     0
  9
$TDCREATE
 40
2457953.399746262
  9
$TDUCREATE
 40
2457953.024746262
  9
$TDUPDATE
 40
2457953.399746273
  9
$TDUUPDATE
 40
2457953.024746273
  9
$TDINDWG
 40
0.0000000116
  9
$TDUSRTIMER
 40
0.0000000116
  9
$USRTIMER
 70
     1
  9
$ANGBASE
 50
0.0
  9
$ANGDIR
 70
     0
  9
$PDMODE
 70
     0
  9
$PDSIZE
 40
0.0
  9
$PLINEWID
 40
0.0
  9
$SPLFRAME
 70
     0
  9
$SPLINETYPE
 70
     6
  9
$SPLINESEGS
 70
     8
  9
$HANDSEED
  5
35B
  9
$SURFTAB1
 70
     6
  9
$SURFTAB2
 70
     6
  9
$SURFTYPE
 70
     6
  9
$SURFU
 70
     6
  9
$SURFV
 70
     6
  9
$UCSBASE
  2

  9
$UCSNAME
  2

  9
$UCSORG
 10
0.0
 20
0.0
 30
0.0
  9
$UCSXDIR
 10
1.0
 20
0.0
 30
0.0
  9
$UCSYDIR
 10
0.0
 20
1.0
 30
0.0
  9
$UCSORTHOREF
  2

  9
$UCSORTHOVIEW
 70
     0
  9
$UCSORGTOP
 10
0.0
 20
0.0
 30
0.0
  9
$UCSORGBOTTOM
 10
0.0
 20
0.0
 30
0.0
  9
$UCSORGLEFT
 10
0.0
 20
0.0
 30
0.0
  9
$UCSORGRIGHT
 10
0.0
 20
0.0
 30
0.0
  9
$UCSORGFRONT
 10
0.0
 20
0.0
 30
0.0
  9
$UCSORGBACK
 10
0.0
 20
0.0
 30
0.0
  9
$PUCSBASE
  2

  9
$PUCSNAME
  2

  9
$PUCSORG
 10
0.0
 20
0.0
 30
0.0
  9
$PUCSXDIR
 10
1.0
 20
0.0
 30
0.0
  9
$PUCSYDIR
 10
0.0
 20
1.0
 30
0.0
  9
$PUCSORTHOREF
  2

  9
$PUCSORTHOVIEW
 70
     0
  9
$PUCSORGTOP
 10
0.0
 20
0.0
 30
0.0
  9
$PUCSORGBOTTOM
 10
0.0
 20
0.0
 30
0.0
  9
$PUCSORGLEFT
 10
0.0
 20
0.0
 30
0.0
  9
$PUCSORGRIGHT
 10
0.0
 20
0.0
 30
0.0
  9
$PUCSORGFRONT
 10
0.0
 20
0.0
 30
0.0
  9
$PUCSORGBACK
 10
0.0
 20
0.0
 30
0.0
  9
$USERI1
 70
     0
  9
$USERI2
 70
     0
  9
$USERI3
 70
     0
  9
$USERI4
 70
     0
  9
$USERI5
 70
     0
  9
$USERR1
 40
0.0
  9
$USERR2
 40
0.0
  9
$USERR3
 40
0.0
  9
$USERR4
 40
0.0
  9
$USERR5
 40
0.0
  9
$WORLDVIEW
 70
     1
  9
$SHADEDGE
 70
     3
  9
$SHADEDIF
 70
    70
  9
$TILEMODE
 70
     1
  9
$MAXACTVP
 70
    64
  9
$PINSBASE
 10
0.0
 20
0.0
 30
0.0
  9
$PLIMCHECK
 70
     0
  9
$PEXTMIN
 10
1.000000000000000E+20
 20
1.000000000000000E+20
 30
1.000000000000000E+20
  9
$PEXTMAX
 10
-1.000000000000000E+20
 20
-1.000000000000000E+20
 30
-1.000000000000000E+20
  9
$PLIMMIN
 10
0.0
 20
0.0
  9
$PLIMMAX
 10
420.0
 20
297.0
  9
$UNITMODE
 70
     0
  9
$VISRETAIN
 70
     1
  9
$PLINEGEN
 70
     0
  9
$PSLTSCALE
 70
     1
  9
$TREEDEPTH
 70
  3020
  9
$CMLSTYLE
  2
Standard
  9
$CMLJUST
 70
     0
  9
$CMLSCALE
 40
20.0
  9
$PROXYGRAPHICS
 70
     1
  9
$MEASUREMENT
 70
     1
  9
$CELWEIGHT
370
    -1
  9
$ENDCAPS
280
     0
  9
$JOINSTYLE
280
     0
  9
$LWDISPLAY
290
     0
  9
$INSUNITS
 70
     4
  9
$HYPERLINKBASE
  1

  9
$STYLESHEET
  1

  9
$XEDIT
290
     1
  9
$CEPSNTYPE
380
     0
  9
$PSTYLEMODE
290
     1
  9
$FINGERPRINTGUID
  2
{87A0F9F9-19E0-4984-911D-C248ADB8174E}
  9
$VERSIONGUID
  2
{FAEB1C32-E019-11D5-929B-00C0DF256EC4}
  9
$EXTNAMES
290
     1
  9
$PSVPSCALE
 40
0.0
  9
$OLESTARTUP
290
     0
  9
$SORTENTS
280
   127
  9
$INDEXCTL
280
     0
  9
$HIDETEXT
280
     1
  9
$XCLIPFRAME
280
     2
  9
$HALOGAP
280
     0
  9
$OBSCOLOR
 70
   257
  9
$OBSLTYPE
280
     0
  9
$INTERSECTIONDISPLAY
280
     0
  9
$INTERSECTIONCOLOR
 70
   257
  9
$DIMASSOC
280
     2
  9
$PROJECTNAME
  1

  9
$CAMERADISPLAY
290
     0
  9
$LENSLENGTH
 40
50.0
  9
$CAMERAHEIGHT
 40
0.0
  9
$STEPSPERSEC
 40
2.0
  9
$STEPSIZE
 40
6.0
  9
$3DDWFPREC
 40
2.0
  9
$PSOLWIDTH
 40
5.0
  9
$PSOLHEIGHT
 40
80.0
  9
$LOFTANG1
 40
1.570796326794897
  9
$LOFTANG2
 40
1.570796326794897
  9
$LOFTMAG1
 40
0.0
  9
$LOFTMAG2
 40
0.0
  9
$LOFTPARAM
 70
     7
  9
$LOFTNORMALS
280
     1
  9
$LATITUDE
 40
37.795
  9
$LONGITUDE
 40
-122.394
  9
$NORTHDIRECTION
 40
0.0
  9
$TIMEZONE
 70
 -8000
  9
$LIGHTGLYPHDISPLAY
280
     1
  9
$TILEMODELIGHTSYNCH
280
     1
  9
$SOLIDHIST
280
     1
  9
$SHOWHIST
280
     1
  9
$DWFFRAME
280
     2
  9
$DGNFRAME
280
     2
  9
$REALWORLDSCALE
290
     1
  9
$INTERFERECOLOR
 62
   256
  9
$CSHADOW
280
     0
  9
$SHADOWPLANELOCATION
 40
0.0
  0
ENDSEC
  0
SECTION
  2
CLASSES
  0
CLASS
  1
ACDBDICTIONARYWDFLT
  2
AcDbDictionaryWithDefault
  3
ObjectDBX Classes
 90
        0
 91
        4
280
     0
281
     0
  0
CLASS
  1
VISUALSTYLE
  2
AcDbVisualStyle
  3
ObjectDBX Classes
 90
     4095
 91
        4
280
     0
281
     0
  0
CLASS
  1
MATERIAL
  2
AcDbMaterial
  3
ObjectDBX Classes
 90
     1153
 91
        4
280
     0
281
     0
  0
ENDSEC
  0
SECTION
  2
TABLES
  0
TABLE
  2
VPORT
  5
8
330
0
100
AcDbSymbolTable
 70
     1
  0
VPORT
  5
29
330
8
100
AcDbSymbolTableRecord
100
AcDbViewportTableRecord
  2
*Active
 70
     0
 10
0.0
 20
0.0
 11
1.0
 21
1.0
 12
0.0
 22
0.0
 13
0.0
 23
0.0
 14
10.0
 24
10.0
 15
10.0
 25
10.0
 16
0.0
 26
0.0
 36
1.0
 17
0.0
 27
0.0
 37
0.0
 40
6930.000000000001
 41
1.414285714285714
 42
50.0
 43
0.0
 44
0.0
 50
0.0
 51
0.0
 71
     0
 72
 10000
 73
     1
 74
     3
 75
     0
 76
     0
 77
     0
 78
     0
281
     0
 65
     1
110
0.0
120
0.0
130
0.0
111
1.0
121
0.0
131
0.0
112
0.0
122
1.0
132
0.0
 79
     0
146
0.0
 60
     3
 61
     5
292
     1
282
     1
141
0.0
142
0.0
 63
   250
  0
ENDTAB
  0
TABLE
  2
LTYPE
  5
5
330
0
100
AcDbSymbolTable
 70
     2
  0
LTYPE
  5
14
330
5
100
AcDbSymbolTableRecord
100
AcDbLinetypeTableRecord
  2
ByBlock
 70
     0
  3

 72
    65
 73
     0
 40
0.0
  0
LTYPE
  5
15
330
5
100
AcDbSymbolTableRecord
100
AcDbLinetypeTableRecord
  2
ByLayer
 70
     0
  3

 72
    65
 73
     0
 40
0.0
  0
LTYPE
  5
16
330
5
100
AcDbSymbolTableRecord
100
AcDbLinetypeTableRecord
  2
Continuous
 70
     0
  3
Solid line
 72
    65
 73
     0
 40
0.0
  0
LTYPE
  5
3F
330
5
100
AcDbSymbolTableRecord
100
AcDbLinetypeTableRecord
  2
JWW_DASHED1
 70
     0
  3
-  --  --  --  --  --  --  --  -
 72
    65
 73
     2
 40
1.693333333333333
 49
0.8466666666666667
 74
     0
 49
-0.8466666666666667
 74
     0
  0
ENDTAB
  0
TABLE
  2
LAYER
  5
2
330
0
100
AcDbSymbolTable
 70
     3
  0
LAYER
  5
10
330
2
100
AcDbSymbolTableRecord
100
AcDbLayerTableRecord
  2
0
 70
     0
 62
     7
  6
Continuous
370
    -3
390
F
347
3E
  0
LAYER
  5
40
330
2
100
AcDbSymbolTableRecord
100
AcDbLayerTableRecord
  2
0-0
 70
     0
 62
     7
  6
Continuous
370
    -3
390
F
347
3E
  0
LAYER
  5
41
330
2
100
AcDbSymbolTableRecord
100
AcDbLayerTableRecord
  2
寸法
 70
     0
 62
     7
  6
Continuous
370
    -3
390
F
347
3E
  0
ENDTAB
  0
TABLE
  2
STYLE
  5
3
330
0
100
AcDbSymbolTable
 70
     1
  0
STYLE
  5
11
330
3
100
AcDbSymbolTableRecord
100
AcDbTextStyleTableRecord
  2
Standard
 70
     0
 40
0.0
 41
1.0
 50
0.0
 71
     0
 42
2.5
  3
txt
  4

  0
ENDTAB
  0
TABLE
  2
VIEW
  5
6
330
0
100
AcDbSymbolTable
 70
     0
  0
ENDTAB
  0
TABLE
  2
UCS
  5
7
330
0
100
AcDbSymbolTable
 70
     0
  0
ENDTAB
  0
TABLE
  2
APPID
  5
9
330
0
100
AcDbSymbolTable
 70
     1
  0
APPID
  5
12
330
9
100
AcDbSymbolTableRecord
100
AcDbRegAppTableRecord
  2
ACAD
 70
     0
  0
ENDTAB
  0
TABLE
  2
DIMSTYLE
  5
A
330
0
100
AcDbSymbolTable
 70
     1
100
AcDbDimStyleTable
  0
DIMSTYLE
105
27
330
A
100
AcDbSymbolTableRecord
100
AcDbDimStyleTableRecord
  2
ISO-25
 70
     0
 41
2.5
 42
0.625
 43
3.75
 44
1.25
 73
     0
 74
     0
 77
     1
 78
     8
140
2.5
141
2.5
143
0.03937007874016
147
0.625
171
     3
172
     1
178
     0
271
     2
272
     2
274
     3
278
    44
283
     0
284
     8
340
11
  0
ENDTAB
  0
TABLE
  2
BLOCK_RECORD
  5
1
330
0
100
AcDbSymbolTable
 70
     1
  0
BLOCK_RECORD
  5
1F
330
1
100
AcDbSymbolTableRecord
100
AcDbBlockTableRecord
  2
*Model_Space
340
22
 70
     0
280
     1
281
     0
  0
BLOCK_RECORD
  5
1B
330
1
100
AcDbSymbolTableRecord
100
AcDbBlockTableRecord
  2
*Paper_Space
340
1E
 70
     0
280
     1
281
     0
  0
BLOCK_RECORD
  5
23
330
1
100
AcDbSymbolTableRecord
100
AcDbBlockTableRecord
  2
*Paper_Space0
340
26
 70
     0
280
     1
281
     0
  0
ENDTAB
  0
ENDSEC
  0
SECTION
  2
BLOCKS
  0
BLOCK
  5
20
330
1F
100
AcDbEntity
  8
0
100
AcDbBlockBegin
  2
*Model_Space
 70
     0
 10
0.0
 20
0.0
 30
0.0
  3
*Model_Space
  1

  0
ENDBLK
  5
21
330
1F
100
AcDbEntity
  8
0
100
AcDbBlockEnd
  0
BLOCK
  5
1C
330
1B
100
AcDbEntity
 67
     1
  8
0
100
AcDbBlockBegin
  2
*Paper_Space
 70
     0
 10
0.0
 20
0.0
 30
0.0
  3
*Paper_Space
  1

  0
ENDBLK
  5
1D
330
1B
100
AcDbEntity
 67
     1
  8
0
100
AcDbBlockEnd
  0
BLOCK
  5
24
330
23
100
AcDbEntity
  8
0
100
AcDbBlockBegin
  2
*Paper_Space0
 70
     0
 10
0.0
 20
0.0
 30
0.0
  3
*Paper_Space0
  1

  0
ENDBLK
  5
25
330
23
100
AcDbEntity
  8
0
100
AcDbBlockEnd
  0
ENDSEC
  0
SECTION
  2
ENTITIES
  0
LINE
  5
42
330
1F
100
AcDbEntity
  8
0-0
  6
Continuous
 62
    92
370
    13
100
AcDbLine
 10
-1158.678845884907
 20
-982.5234020659469
 30
0.0
 11
-1158.678845884907
 21
1064.476597934053
 31
0.0
  0
LINE
  5
43
330
1F
100
AcDbEntity
  8
0-0
  6
Continuous
 62
    92
370
    13
100
AcDbLine
 10
-1188.678845884907
 20
1064.476597934053
 30
0.0
 11
1235.321154115092
 21
1064.476597934053
 31
0.0
  0
LINE
  5
44
330
1F
100
AcDbEntity
  8
0-0
  6
Continuous
 62
    92
370
    13
100
AcDbLine
 10
-1158.678845884907
 20
1028.476597934052
 30
0.0
 11
1205.321154115092
 21
1028.476597934052
 31
0.0
  0
LINE
  5
45
330
1F
100
AcDbEntity
  8
0-0
  6
Continuous
 62
    92
370
    13
100
AcDbLine
 10
1205.321154115092
 20
-982.5234020659469
 30
0.0
 11
1205.321154115092
 21
1064.476597934053
 31
0.0
  0
LINE
  5
46
330
1F
100
AcDbEntity
  8
0-0
  6
Continuous
 62
    92
370
    13
100
AcDbLine
 10
1235.321154115092
 20
-982.5234020659469
 30
0.0
 11
1235.321154115092
 21
1064.476597934053
 31
0.0
  0
LINE
  5
47
330
1F
100
AcDbEntity
  8
0-0
  6
Continuous
 62
    92
370
    13
100
AcDbLine
 10
-1188.678845884907
 20
-982.5234020659469
 30
0.0
 11
-1188.678845884907
 21
1064.476597934053
 31
0.0
  0
LINE
  5
48
330
1F
100
AcDbEntity
  8
0-0
  6
Continuous
 62
    92
370
    13
100
AcDbLine
 10
1235.321154115092
 20
-982.5234020659469
 30
0.0
 11
-1188.678845884907
 21
-982.5234020659469
 31
0.0
  0
LINE
  5
49
330
1F
100
AcDbEntity
  8
0-0
  6
Continuous
 62
    92
370
    13
100
AcDbLine
 10
1205.321154115092
 20
-967.5234020659469
 30
0.0
 11
-1158.678845884907
 21
-967.5234020659469
 31
0.0
  0
ARC
  5
4A
330
1F
100
AcDbEntity
  8
0-0
  6
Continuous
 62
    92
370
    13
100
AcDbCircle
 10
-1130.178845884909
 20
54.47659793405379
 30
0.0
 40
1.5
100
AcDbArc
 50
90.0
 51
180.0
  0
LINE
  5
4B
330
1F
100
AcDbEntity
  8
0-0
  6
Continuous
 62
    92
370
    13
100
AcDbLine
 10
-1091.178845884908
 20
55.97659793405327
 30
0.0
 11
-1130.178845884909
 21
55.97659793405327
 31
0.0
  0
ARC
  5
4C
330
1F
100
AcDbEntity
  8
0-0
  6
Continuous
 62
    92
370
    13
100
AcDbCircle
 10
-1091.178845884908
 20
54.47659793405379
 30
0.0
 40
1.5
100
AcDbArc
 50
0.0
 51
90.00000000000001
  0
LINE
  5
4D
330
1F
100
AcDbEntity
  8
0-0
  6
Continuous
 62
    92
370
    13
100
AcDbLine
 10
-1089.678845884912
 20
-64.52340206594627
 30
0.0
 11
-1089.678845884912
 21
54.47659793405379
 31
0.0
  0
ARC
  5
4E
330
1F
100
AcDbEntity
  8
0-0
  6
Continuous
 62
    92
370
    13
100
AcDbCircle
 10
-1091.178845884908
 20
-64.52340206594627
 30
0.0
 40
1.5
100
AcDbArc
 50
270.0
 51
0.0
  0
LINE
  5
4F
330
1F
100
AcDbEntity
  8
0-0
  6
Continuous
 62
    92
370
    13
100
AcDbLine
 10
-1130.178845884909
 20
-66.02340206594832
 30
0.0
 11
-1091.178845884908
 21
-66.02340206594832
 31
0.0
  0
LINE
  5
50
330
1F
100
AcDbEntity
  8
0-0
  6
Continuous
 62
    92
370
    13
100
AcDbLine
 10
-1131.678845884908
 20
-64.52340206594627
 30
0.0
 11
-1131.678845884908
 21
54.47659793405379
 31
0.0
  0
ARC
  5
51
330
1F
100
AcDbEntity
  8
0-0
  6
Continuous
 62
    92
370
    13
100
AcDbCircle
 10
-1130.178845884909
 20
-64.52340206594627
 30
0.0
 40
1.5
100
AcDbArc
 50
180.0
 51
270.0
  0
ARC
  5
52
330
1F
100
AcDbEntity
  8
0-0
  6
Continuous
 62
     7
370
     9
100
AcDbCircle
 10
-1110.67884588491
 20
-34.62340206594618
 30
0.0
 40
15.0
100
AcDbArc
 50
180.0
 51
0.0
  0
ARC
  5
53
330
1F
100
AcDbEntity
  8
0-0
  6
Continuous
 62
     7
370
     9
100
AcDbCircle
 10
-1110.67884588491
 20
24.57659793405369
 30
0.0
 40
15.0
100
AcDbArc
 50
0.0
 51
180.0
  0
LINE
  5
54
330
1F
100
AcDbEntity
  8
0-0
  6
Continuous
 62
     7
370
     9
100
AcDbLine
 10
-1095.67884588491
 20
-34.62340206594618
 30
0.0
 11
-1095.67884588491
 21
24.57659793405369
 31
0.0
  0
LINE
  5
55
330
1F
100
AcDbEntity
  8
0-0
  6
Continuous
 62
     7
370
     9
100
AcDbLine
 10
-1125.67884588491
 20
24.57659793405369
 30
0.0
 11
-1125.67884588491
 21
-34.62340206594618
 31
0.0
  0
ARC
  5
56
330
1F
100
AcDbEntity
  8
0-0
  6
Continuous
 62
    92
370
    13
100
AcDbCircle
 10
-350.1788458849089
 20
54.47659793405379
 30
0.0
 40
1.5
100
AcDbArc
 50
90.0
 51
180.0
  0
LINE
  5
57
330
1F
100
AcDbEntity
  8
0-0
  6
Continuous
 62
    92
370
    13
100
AcDbLine
 10
-311.1788458849085
 20
55.97659793405327
 30
0.0
 11
-350.1788458849089
 21
55.97659793405327
 31
0.0
  0
ARC
  5
58
330
1F
100
AcDbEntity
  8
0-0
  6
Continuous
 62
    92
370
    13
100
AcDbCircle
 10
-311.1788458849085
 20
54.47659793405379
 30
0.0
 40
1.5
100
AcDbArc
 50
0.0
 51
90.00000000000001
  0
LINE
  5
59
330
1F
100
AcDbEntity
  8
0-0
  6
Continuous
 62
    92
370
    13
100
AcDbLine
 10
-309.6788458849116
 20
-64.52340206594627
 30
0.0
 11
-309.6788458849116
 21
54.47659793405379
 31
0.0
  0
ARC
  5
5A
330
1F
100
AcDbEntity
  8
0-0
  6
Continuous
 62
    92
370
    13
100
AcDbCircle
 10
-311.1788458849085
 20
-64.52340206594627
 30
0.0
 40
1.5
100
AcDbArc
 50
270.0
 51
0.0
  0
LINE
  5
5B
330
1F
100
AcDbEntity
  8
0-0
  6
Continuous
 62
    92
370
    13
100
AcDbLine
 10
-350.1788458849089
 20
-66.02340206594832
 30
0.0
 11
-311.1788458849085
 21
-66.02340206594832
 31
0.0
  0
LINE
  5
5C
330
1F
100
AcDbEntity
  8
0-0
  6
Continuous
 62
    92
370
    13
100
AcDbLine
 10
-351.6788458849075
 20
-64.52340206594627
 30
0.0
 11
-351.6788458849075
 21
54.47659793405379
 31
0.0
  0
ARC
  5
5D
330
1F
100
AcDbEntity
  8
0-0
  6
Continuous
 62
    92
370
    13
100
AcDbCircle
 10
-350.1788458849089
 20
-64.52340206594627
 30
0.0
 40
1.5
100
AcDbArc
 50
180.0
 51
270.0
  0
ARC
  5
5E
330
1F
100
AcDbEntity
  8
0-0
  6
Continuous
 62
     7
370
     9
100
AcDbCircle
 10
-330.6788458849095
 20
-34.62340206594618
 30
0.0
 40
15.0
100
AcDbArc
 50
180.0
 51
0.0
  0
ARC
  5
5F
330
1F
100
AcDbEntity
  8
0-0
  6
Continuous
 62
     7
370
     9
100
AcDbCircle
 10
-330.6788458849095
 20
24.57659793405369
 30
0.0
 40
15.0
100
AcDbArc
 50
0.0
 51
180.0
  0
LINE
  5
60
330
1F
100
AcDbEntity
  8
0-0
  6
Continuous
 62
     7
370
     9
100
AcDbLine
 10
-315.6788458849095
 20
-34.62340206594618
 30
0.0
 11
-315.6788458849095
 21
24.57659793405369
 31
0.0
  0
LINE
  5
61
330
1F
100
AcDbEntity
  8
0-0
  6
Continuous
 62
     7
370
     9
100
AcDbLine
 10
-345.6788458849095
 20
24.57659793405369
 30
0.0
 11
-345.6788458849095
 21
-34.62340206594618
 31
0.0
  0
ARC
  5
62
330
1F
100
AcDbEntity
  8
0-0
  6
Continuous
 62
    92
370
    13
100
AcDbCircle
 10
1137.821154115095
 20
54.47659793405379
 30
0.0
 40
1.5
100
AcDbArc
 50
90.0
 51
180.0
  0
LINE
  5
63
330
1F
100
AcDbEntity
  8
0-0
  6
Continuous
 62
    92
370
    13
100
AcDbLine
 10
1176.821154115094
 20
55.97659793405327
 30
0.0
 11
1137.821154115095
 21
55.97659793405327
 31
0.0
  0
ARC
  5
64
330
1F
100
AcDbEntity
  8
0-0
  6
Continuous
 62
    92
370
    13
100
AcDbCircle
 10
1176.821154115094
 20
54.47659793405379
 30
0.0
 40
1.5
100
AcDbArc
 50
0.0
 51
90.00000000000001
  0
LINE
  5
65
330
1F
100
AcDbEntity
  8
0-0
  6
Continuous
 62
    92
370
    13
100
AcDbLine
 10
1178.321154115094
 20
-64.52340206594627
 30
0.0
 11
1178.321154115094
 21
54.47659793405379
 31
0.0
  0
ARC
  5
66
330
1F
100
AcDbEntity
  8
0-0
  6
Continuous
 62
    92
370
    13
100
AcDbCircle
 10
1176.821154115094
 20
-64.52340206594627
 30
0.0
 40
1.5
100
AcDbArc
 50
270.0
 51
0.0
  0
LINE
  5
67
330
1F
100
AcDbEntity
  8
0-0
  6
Continuous
 62
    92
370
    13
100
AcDbLine
 10
1137.821154115095
 20
-66.02340206594832
 30
0.0
 11
1176.821154115094
 21
-66.02340206594832
 31
0.0
  0
LINE
  5
68
330
1F
100
AcDbEntity
  8
0-0
  6
Continuous
 62
    92
370
    13
100
AcDbLine
 10
1136.321154115095
 20
-64.52340206594627
 30
0.0
 11
1136.321154115095
 21
54.47659793405379
 31
0.0
  0
ARC
  5
69
330
1F
100
AcDbEntity
  8
0-0
  6
Continuous
 62
    92
370
    13
100
AcDbCircle
 10
1137.821154115095
 20
-64.52340206594627
 30
0.0
 40
1.5
100
AcDbArc
 50
180.0
 51
270.0
  0
ARC
  5
6A
330
1F
100
AcDbEntity
  8
0-0
  6
Continuous
 62
     7
370
     9
100
AcDbCircle
 10
1157.321154115094
 20
-34.62340206594618
 30
0.0
 40
15.0
100
AcDbArc
 50
180.0
 51
0.0
  0
ARC
  5
6B
330
1F
100
AcDbEntity
  8
0-0
  6
Continuous
 62
     7
370
     9
100
AcDbCircle
 10
1157.321154115094
 20
24.57659793405369
 30
0.0
 40
15.0
100
AcDbArc
 50
0.0
 51
180.0
  0
LINE
  5
6C
330
1F
100
AcDbEntity
  8
0-0
  6
Continuous
 62
     7
370
     9
100
AcDbLine
 10
1172.321154115094
 20
-34.62340206594618
 30
0.0
 11
1172.321154115094
 21
24.57659793405369
 31
0.0
  0
LINE
  5
6D
330
1F
100
AcDbEntity
  8
0-0
  6
Continuous
 62
     7
370
     9
100
AcDbLine
 10
1142.321154115094
 20
24.57659793405369
 30
0.0
 11
1142.321154115094
 21
-34.62340206594618
 31
0.0
  0
LINE
  5
6E
330
1F
100
AcDbEntity
  8
0-0
  6
JWW_DASHED1
 62
   120
370
     5
100
AcDbLine
 10
-1158.678845884907
 20
-962.5234020659473
 30
0.0
 11
-1161.678845884908
 21
-962.5234020659473
 31
0.0
  0
LINE
  5
6F
330
1F
100
AcDbEntity
  8
0-0
  6
JWW_DASHED1
 62
   120
370
     5
100
AcDbLine
 10
-1161.678845884908
 20
-962.5234020659473
 30
0.0
 11
-1161.678845884908
 21
1020.476597934053
 31
0.0
  0
LINE
  5
70
330
1F
100
AcDbEntity
  8
0-0
  6
Continuous
 62
    92
370
    13
100
AcDbLine
 10
398.3211541150925
 20
-962.5234020659473
 30
0.0
 11
398.3211541150925
 21
1020.476597934053
 31
0.0
  0
LINE
  5
71
330
1F
100
AcDbEntity
  8
0-0
  6
JWW_DASHED1
 62
   120
370
     5
100
AcDbLine
 10
-1161.678845884908
 20
1020.476597934053
 30
0.0
 11
-1158.678845884907
 21
1020.476597934053
 31
0.0
  0
LINE
  5
72
330
1F
100
AcDbEntity
  8
0-0
  6
JWW_DASHED1
 62
   120
370
     5
100
AcDbLine
 10
-351.6788458849075
 20
-962.5234020659473
 30
0.0
 11
-351.6788458849075
 21
1020.476597934053
 31
0.0
  0
LINE
  5
73
330
1F
100
AcDbEntity
  8
0-0
  6
JWW_DASHED1
 62
   120
370
     5
100
AcDbLine
 10
428.3211541150925
 20
-962.5234020659473
 30
0.0
 11
428.3211541150925
 21
1020.476597934053
 31
0.0
  0
LINE
  5
74
330
1F
100
AcDbEntity
  8
0-0
  6
JWW_DASHED1
 62
   120
370
     5
100
AcDbLine
 10
1205.321154115092
 20
-962.5234020659473
 30
0.0
 11
1208.321154115092
 21
-962.5234020659473
 31
0.0
  0
LINE
  5
75
330
1F
100
AcDbEntity
  8
0-0
  6
JWW_DASHED1
 62
   120
370
     5
100
AcDbLine
 10
1208.321154115092
 20
-962.5234020659473
 30
0.0
 11
1208.321154115092
 21
1020.476597934053
 31
0.0
  0
LINE
  5
76
330
1F
100
AcDbEntity
  8
0-0
  6
JWW_DASHED1
 62
   120
370
     5
100
AcDbLine
 10
1208.321154115092
 20
1020.476597934053
 30
0.0
 11
1205.321154115092
 21
1020.476597934053
 31
0.0
  0
LINE
  5
77
330
1F
100
AcDbEntity
  8
0-0
  6
Continuous
 62
    92
370
    13
100
AcDbLine
 10
-1158.678845884907
 20
-962.5234020659473
 30
0.0
 11
1205.321154115092
 21
-962.5234020659473
 31
0.0
  0
LINE
  5
78
330
1F
100
AcDbEntity
  8
0-0
  6
Continuous
 62
    92
370
    13
100
AcDbLine
 10
-1158.678845884907
 20
1020.476597934053
 30
0.0
 11
1205.321154115092
 21
1020.476597934053
 31
0.0
  0
LINE
  5
79
330
1F
100
AcDbEntity
  8
0-0
  6
Continuous
 62
    92
370
    13
100
AcDbLine
 10
-381.6788458849075
 20
1020.476597934053
 30
0.0
 11
-381.6788458849075
 21
-962.5234020659473
 31
0.0
  0
LINE
  5
7A
330
1F
100
AcDbEntity
  8
0-0
  6
Continuous
 62
    92
370
    13
100
AcDbLine
 10
-1051.678845884909
 20
-812.523402065947
 30
0.0
 11
-461.6788458849064
 21
-812.523402065947
 31
0.0
  0
LINE
  5
7B
330
1F
100
AcDbEntity
  8
0-0
  6
JWW_DASHED1
 62
   120
370
     5
100
AcDbLine
 10
-1050.067404101527
 20
-812.5234020659519
 30
0.0
 11
-1051.678845884912
 21
-810.9119602825664
 31
0.0
  0
LINE
  5
7C
330
1F
100
AcDbEntity
  8
0-0
  6
JWW_DASHED1
 62
   120
370
     5
100
AcDbLine
 10
-1040.167909164881
 20
-812.5234020659614
 30
0.0
 11
-1051.678845884922
 21
-801.012465345922
 31
0.0
  0
LINE
  5
7D
330
1F
100
AcDbEntity
  8
0-0
  6
JWW_DASHED1
 62
   120
370
     5
100
AcDbLine
 10
-1030.268414228297
 20
-812.5234020659663
 30
0.0
 11
-1051.678845884926
 21
-791.1129704093364
 31
0.0
  0
LINE
  5
7E
330
1F
100
AcDbEntity
  8
0-0
  6
JWW_DASHED1
 62
   120
370
     5
100
AcDbLine
 10
-1020.368919291686
 20
-812.5234020659436
 30
0.0
 11
-1051.678845884905
 21
-781.2134754727234
 31
0.0
  0
LINE
  5
7F
330
1F
100
AcDbEntity
  8
0-0
  6
JWW_DASHED1
 62
   120
370
     5
100
AcDbLine
 10
-1010.469424355099
 20
-812.5234020659487
 30
0.0
 11
-1051.678845884912
 21
-771.3139805361377
 31
0.0
  0
LINE
  5
80
330
1F
100
AcDbEntity
  8
0-0
  6
JWW_DASHED1
 62
   120
370
     5
100
AcDbLine
 10
-1000.569929418453
 20
-812.5234020659583
 30
0.0
 11
-1051.678845884919
 21
-761.4144855994938
 31
0.0
  0
LINE
  5
81
330
1F
100
AcDbEntity
  8
0-0
  6
JWW_DASHED1
 62
   120
370
     5
100
AcDbLine
 10
-990.6704344818693
 20
-812.523402065963
 30
0.0
 11
-1051.678845884926
 21
-751.5149906629081
 31
0.0
  0
LINE
  5
82
330
1F
100
AcDbEntity
  8
0-0
  6
JWW_DASHED1
 62
   120
370
     5
100
AcDbLine
 10
-980.7709395452546
 20
-812.5234020659409
 30
0.0
 11
-1051.678845884902
 21
-741.6154957262946
 31
0.0
  0
LINE
  5
83
330
1F
100
AcDbEntity
  8
0-0
  6
JWW_DASHED1
 62
   120
370
     5
100
AcDbLine
 10
-970.8714446086126
 20
-812.5234020659502
 30
0.0
 11
-1051.678845884912
 21
-731.7160007896503
 31
0.0
  0
LINE
  5
84
330
1F
100
AcDbEntity
  8
0-0
  6
JWW_DASHED1
 62
   120
370
     5
100
AcDbLine
 10
-960.9719496720252
 20
-812.5234020659549
 30
0.0
 11
-1051.678845884919
 21
-721.8165058530643
 31
0.0
  0
LINE
  5
85
330
1F
100
AcDbEntity
  8
0-0
  6
JWW_DASHED1
 62
   120
370
     5
100
AcDbLine
 10
-951.0724547353832
 20
-812.5234020659643
 30
0.0
 11
-1051.678845884926
 21
-711.9170109164208
 31
0.0
  0
LINE
  5
86
330
1F
100
AcDbEntity
  8
0-0
  6
JWW_DASHED1
 62
   120
370
     5
100
AcDbLine
 10
-941.1729597988162
 20
-812.5234020659507
 30
0.0
 11
-1051.678845884916
 21
-702.0175159798503
 31
0.0
  0
LINE
  5
87
330
1F
100
AcDbEntity
  8
0-0
  6
JWW_DASHED1
 62
   120
370
     5
100
AcDbLine
 10
-931.2734648621845
 20
-812.5234020659466
 30
0.0
 11
-1051.678845884909
 21
-692.1180210432213
 31
0.0
  0
LINE
  5
88
330
1F
100
AcDbEntity
  8
0-0
  6
JWW_DASHED1
 62
   120
370
     5
100
AcDbLine
 10
-921.3739699255971
 20
-812.5234020659517
 30
0.0
 11
-1051.678845884912
 21
-682.2185261066359
 31
0.0
  0
LINE
  5
89
330
1F
100
AcDbEntity
  8
0-0
  6
JWW_DASHED1
 62
   120
370
     5
100
AcDbLine
 10
-911.4744749889517
 20
-812.5234020659611
 30
0.0
 11
-1051.678845884922
 21
-672.3190311699925
 31
0.0
  0
LINE
  5
8A
330
1F
100
AcDbEntity
  8
0-0
  6
JWW_DASHED1
 62
   120
370
     5
100
AcDbLine
 10
-901.5749800523677
 20
-812.5234020659658
 30
0.0
 11
-1051.678845884926
 21
-662.419536233407
 31
0.0
  0
LINE
  5
8B
330
1F
100
AcDbEntity
  8
0-0
  6
JWW_DASHED1
 62
   120
370
     5
100
AcDbLine
 10
-891.6754851157564
 20
-812.5234020659439
 30
0.0
 11
-1051.678845884905
 21
-652.5200412967928
 31
0.0
  0
LINE
  5
8C
330
1F
100
AcDbEntity
  8
0-0
  6
JWW_DASHED1
 62
   120
370
     5
100
AcDbLine
 10
-881.775990179111
 20
-812.5234020659532
 30
0.0
 11
-1051.678845884916
 21
-642.6205463601482
 31
0.0
  0
LINE
  5
8D
330
1F
100
AcDbEntity
  8
0-0
  6
JWW_DASHED1
 62
   120
370
     5
100
AcDbLine
 10
-871.876495242527
 20
-812.523402065958
 30
0.0
 11
-1051.678845884919
 21
-632.7210514235642
 31
0.0
  0
LINE
  5
8E
330
1F
100
AcDbEntity
  8
0-0
  6
JWW_DASHED1
 62
   120
370
     5
100
AcDbLine
 10
-861.977000305885
 20
-812.5234020659622
 30
0.0
 11
-1051.678845884929
 21
-622.8215564869199
 31
0.0
  0
LINE
  5
8F
330
1F
100
AcDbEntity
  8
0-0
  6
JWW_DASHED1
 62
   120
370
     5
100
AcDbLine
 10
-852.0775053693249
 20
-812.5234020659407
 30
0.0
 11
-1051.678845884905
 21
-612.922061550364
 31
0.0
  0
LINE
  5
90
330
1F
100
AcDbEntity
  8
0-0
  6
JWW_DASHED1
 62
   120
370
     5
100
AcDbLine
 10
-842.1780104326829
 20
-812.5234020659494
 30
0.0
 11
-1051.678845884912
 21
-603.0225666137195
 31
0.0
  0
LINE
  5
91
330
1F
100
AcDbEntity
  8
0-0
  6
JWW_DASHED1
 62
   120
370
     5
100
AcDbLine
 10
-832.2785154960955
 20
-812.5234020659545
 30
0.0
 11
-1051.678845884919
 21
-593.123071677134
 31
0.0
  0
LINE
  5
92
330
1F
100
AcDbEntity
  8
0-0
  6
JWW_DASHED1
 62
   120
370
     5
100
AcDbLine
 10
-822.3790205594535
 20
-812.5234020659641
 30
0.0
 11
-1051.678845884926
 21
-583.2235767404916
 31
0.0
  0
LINE
  5
93
330
1F
100
AcDbEntity
  8
0-0
  6
JWW_DASHED1
 62
   120
370
     5
100
AcDbLine
 10
-812.4795256229002
 20
-812.5234020659375
 30
0.0
 11
-1051.678845884902
 21
-573.3240818039353
 31
0.0
  0
LINE
  5
94
330
1F
100
AcDbEntity
  8
0-0
  6
JWW_DASHED1
 62
   120
370
     5
100
AcDbLine
 10
-802.5800306862548
 20
-812.5234020659464
 30
0.0
 11
-1051.678845884909
 21
-563.4245868672909
 31
0.0
  0
LINE
  5
95
330
1F
100
AcDbEntity
  8
0-0
  6
JWW_DASHED1
 62
   120
370
     5
100
AcDbLine
 10
-792.6805357496094
 20
-812.5234020659561
 30
0.0
 11
-1051.678845884919
 21
-553.5250919306485
 31
0.0
  0
LINE
  5
96
330
1F
100
AcDbEntity
  8
0-0
  6
JWW_DASHED1
 62
   120
370
     5
100
AcDbLine
 10
-782.781040813022
 20
-812.5234020659611
 30
0.0
 11
-1051.678845884922
 21
-543.625596994063
 31
0.0
  0
LINE
  5
97
330
1F
100
AcDbEntity
  8
0-0
  6
JWW_DASHED1
 62
   120
370
     5
100
AcDbLine
 10
-772.8815458764107
 20
-812.5234020659385
 30
0.0
 11
-1051.678845884902
 21
-533.7261020574477
 31
0.0
  0
LINE
  5
98
330
1F
100
AcDbEntity
  8
0-0
  6
JWW_DASHED1
 62
   120
370
     5
100
AcDbLine
 10
-762.9820509398266
 20
-812.5234020659439
 30
0.0
 11
-1051.678845884905
 21
-523.8266071208623
 31
0.0
  0
LINE
  5
99
330
1F
100
AcDbEntity
  8
0-0
  6
JWW_DASHED1
 62
   120
370
     5
100
AcDbLine
 10
-753.0825560031813
 20
-812.5234020659528
 30
0.0
 11
-1051.678845884916
 21
-513.9271121842177
 31
0.0
  0
LINE
  5
9A
330
1F
100
AcDbEntity
  8
0-0
  6
JWW_DASHED1
 62
   120
370
     5
100
AcDbLine
 10
-743.1830610665972
 20
-812.523402065958
 30
0.0
 11
-1051.678845884919
 21
-504.0276172476349
 31
0.0
  0
LINE
  5
9B
330
1F
100
AcDbEntity
  8
0-0
  6
JWW_DASHED1
 62
   120
370
     5
100
AcDbLine
 10
-733.2835661299587
 20
-812.5234020659585
 30
0.0
 11
-1051.678845884929
 21
-494.1281223109904
 31
0.0
  0
LINE
  5
9C
330
1F
100
AcDbEntity
  8
0-0
  6
JWW_DASHED1
 62
   120
370
     5
100
AcDbLine
 10
-723.3840711933985
 20
-812.52340206594
 30
0.0
 11
-1051.678845884905
 21
-484.2286273744335
 31
0.0
  0
LINE
  5
9D
330
1F
100
AcDbEntity
  8
0-0
  6
JWW_DASHED1
 62
   120
370
     5
100
AcDbLine
 10
-713.4845762567531
 20
-812.5234020659494
 30
0.0
 11
-1051.678845884912
 21
-474.3291324377887
 31
0.0
  0
LINE
  5
9E
330
1F
100
AcDbEntity
  8
0-0
  6
JWW_DASHED1
 62
   120
370
     5
100
AcDbLine
 10
-703.5850813201077
 20
-812.523402065959
 30
0.0
 11
-1051.678845884919
 21
-464.4296375011476
 31
0.0
  0
LINE
  5
9F
330
1F
100
AcDbEntity
  8
0-0
  6
JWW_DASHED1
 62
   120
370
     5
100
AcDbLine
 10
-693.6855863835237
 20
-812.5234020659643
 30
0.0
 11
-1051.678845884926
 21
-454.5301425645619
 31
0.0
  0
LINE
  5
A0
330
1F
100
AcDbEntity
  8
0-0
  6
JWW_DASHED1
 62
   120
370
     5
100
AcDbLine
 10
-683.786091446909
 20
-812.5234020659415
 30
0.0
 11
-1051.678845884905
 21
-444.6306476279459
 31
0.0
  0
LINE
  5
A1
330
1F
100
AcDbEntity
  8
0-0
  6
JWW_DASHED1
 62
   120
370
     5
100
AcDbLine
 10
-673.886596510325
 20
-812.5234020659464
 30
0.0
 11
-1051.678845884912
 21
-434.7311526913602
 31
0.0
  0
LINE
  5
A2
330
1F
100
AcDbEntity
  8
0-0
  6
JWW_DASHED1
 62
   120
370
     5
100
AcDbLine
 10
-663.9871015736796
 20
-812.5234020659561
 30
0.0
 11
-1051.678845884916
 21
-424.8316577547195
 31
0.0
  0
LINE
  5
A3
330
1F
100
AcDbEntity
  8
0-0
  6
JWW_DASHED1
 62
   120
370
     5
100
AcDbLine
 10
-654.0876066370956
 20
-812.5234020659605
 30
0.0
 11
-1051.678845884922
 21
-414.9321628181337
 31
0.0
  0
LINE
  5
A4
330
1F
100
AcDbEntity
  8
0-0
  6
JWW_DASHED1
 62
   120
370
     5
100
AcDbLine
 10
-644.1881117004809
 20
-812.5234020659385
 30
0.0
 11
-1051.678845884902
 21
-405.0326678815173
 31
0.0
  0
LINE
  5
A5
330
1F
100
AcDbEntity
  8
0-0
  6
JWW_DASHED1
 62
   120
370
     5
100
AcDbLine
 10
-634.2886167638355
 20
-812.5234020659477
 30
0.0
 11
-1051.678845884912
 21
-395.1331729448728
 31
0.0
  0
LINE
  5
A6
330
1F
100
AcDbEntity
  8
0-0
  6
JWW_DASHED1
 62
   120
370
     5
100
AcDbLine
 10
-624.3891218272515
 20
-812.5234020659524
 30
0.0
 11
-1051.678845884919
 21
-385.2336780082871
 31
0.0
  0
LINE
  5
A7
330
1F
100
AcDbEntity
  8
0-0
  6
JWW_DASHED1
 62
   120
370
     5
100
AcDbLine
 10
-614.4896268906061
 20
-812.5234020659619
 30
0.0
 11
-1051.678845884922
 21
-375.3341830716468
 31
0.0
  0
LINE
  5
A8
330
1F
100
AcDbEntity
  8
0-0
  6
JWW_DASHED1
 62
   120
370
     5
100
AcDbLine
 10
-604.5901319540494
 20
-812.5234020659392
 30
0.0
 11
-1051.678845884916
 21
-365.434688135073
 31
0.0
  0
LINE
  5
A9
330
1F
100
AcDbEntity
  8
0-0
  6
JWW_DASHED1
 62
   120
370
     5
100
AcDbLine
 10
-594.6906370174074
 20
-812.5234020659447
 30
0.0
 11
-1051.678845884909
 21
-355.5351931984438
 31
0.0
  0
LINE
  5
AA
330
1F
100
AcDbEntity
  8
0-0
  6
JWW_DASHED1
 62
   120
370
     5
100
AcDbLine
 10
-584.7911420808234
 20
-812.5234020659498
 30
0.0
 11
-1051.678845884916
 21
-345.6356982618581
 31
0.0
  0
LINE
  5
AB
330
1F
100
AcDbEntity
  8
0-0
  6
JWW_DASHED1
 62
   120
370
     5
100
AcDbLine
 10
-574.891647144178
 20
-812.5234020659587
 30
0.0
 11
-1051.678845884919
 21
-335.7362033252183
 31
0.0
  0
LINE
  5
AC
330
1F
100
AcDbEntity
  8
0-0
  6
JWW_DASHED1
 62
   120
370
     5
100
AcDbLine
 10
-564.992152207594
 20
-812.5234020659639
 30
0.0
 11
-1051.678845884926
 21
-325.8367083886326
 31
0.0
  0
LINE
  5
AD
330
1F
100
AcDbEntity
  8
0-0
  6
JWW_DASHED1
 62
   120
370
     5
100
AcDbLine
 10
-555.0926572709793
 20
-812.5234020659415
 30
0.0
 11
-1051.678845884905
 21
-315.9372134520153
 31
0.0
  0
LINE
  5
AE
330
1F
100
AcDbEntity
  8
0-0
  6
JWW_DASHED1
 62
   120
370
     5
100
AcDbLine
 10
-545.1931623343373
 20
-812.5234020659509
 30
0.0
 11
-1051.678845884916
 21
-306.0377185153708
 31
0.0
  0
LINE
  5
AF
330
1F
100
AcDbEntity
  8
0-0
  6
JWW_DASHED1
 62
   120
370
     5
100
AcDbLine
 10
-535.2936673977499
 20
-812.5234020659561
 30
0.0
 11
-1051.678845884916
 21
-296.1382235787897
 31
0.0
  0
LINE
  5
B0
330
1F
100
AcDbEntity
  8
0-0
  6
JWW_DASHED1
 62
   120
370
     5
100
AcDbLine
 10
-525.3941724611216
 20
-812.5234020659509
 30
0.0
 11
-1051.678845884926
 21
-286.2387286421452
 31
0.0
  0
LINE
  5
B1
330
1F
100
AcDbEntity
  8
0-0
  6
JWW_DASHED1
 62
   120
370
     5
100
AcDbLine
 10
-515.4946775245512
 20
-812.5234020659383
 30
0.0
 11
-1051.678845884905
 21
-276.3392337055868
 31
0.0
  0
LINE
  5
B2
330
1F
100
AcDbEntity
  8
0-0
  6
JWW_DASHED1
 62
   120
370
     5
100
AcDbLine
 10
-505.5951825879058
 20
-812.5234020659475
 30
0.0
 11
-1051.678845884912
 21
-266.4397387689422
 31
0.0
  0
LINE
  5
B3
330
1F
100
AcDbEntity
  8
0-0
  6
JWW_DASHED1
 62
   120
370
     5
100
AcDbLine
 10
-495.6956876513217
 20
-812.5234020659524
 30
0.0
 11
-1051.678845884919
 21
-256.5402438323565
 31
0.0
  0
LINE
  5
B4
330
1F
100
AcDbEntity
  8
0-0
  6
JWW_DASHED1
 62
   120
370
     5
100
AcDbLine
 10
-485.7961927146764
 20
-812.5234020659622
 30
0.0
 11
-1051.678845884922
 21
-246.6407488957171
 31
0.0
  0
LINE
  5
B5
330
1F
100
AcDbEntity
  8
0-0
  6
JWW_DASHED1
 62
   120
370
     5
100
AcDbLine
 10
-475.896697778123
 20
-812.5234020659357
 30
0.0
 11
-1051.678845884916
 21
-236.741253959142
 31
0.0
  0
LINE
  5
B6
330
1F
100
AcDbEntity
  8
0-0
  6
JWW_DASHED1
 62
   120
370
     5
100
AcDbLine
 10
-465.9972028414811
 20
-812.5234020659443
 30
0.0
 11
-1051.678845884912
 21
-226.8417590225133
 31
0.0
  0
LINE
  5
B7
330
1F
100
AcDbEntity
  8
0-0
  6
JWW_DASHED1
 62
   120
370
     5
100
AcDbLine
 10
-461.6788458849132
 20
-806.9422640858749
 30
0.0
 11
-1051.678845884919
 21
-216.9422640858687
 31
0.0
  0
LINE
  5
B8
330
1F
100
AcDbEntity
  8
0-0
  6
JWW_DASHED1
 62
   120
370
     5
100
AcDbLine
 10
-461.67884588492
 20
-797.0427691492891
 30
0.0
 11
-1051.678845884919
 21
-207.042769149289
 31
0.0
  0
LINE
  5
B9
330
1F
100
AcDbEntity
  8
0-0
  6
JWW_DASHED1
 62
   120
370
     5
100
AcDbLine
 10
-461.6788458848961
 20
-787.1432742126764
 30
0.0
 11
-1051.678845884902
 21
-197.1432742126704
 31
0.0
  0
LINE
  5
BA
330
1F
100
AcDbEntity
  8
0-0
  6
JWW_DASHED1
 62
   120
370
     5
100
AcDbLine
 10
-461.678845884903
 20
-777.2437792760907
 30
0.0
 11
-1051.678845884909
 21
-187.2437792760843
 31
0.0
  0
LINE
  5
BB
330
1F
100
AcDbEntity
  8
0-0
  6
JWW_DASHED1
 62
   120
370
     5
100
AcDbLine
 10
-461.6788458849098
 20
-767.3442843394458
 30
0.0
 11
-1051.678845884919
 21
-177.3442843394398
 31
0.0
  0
LINE
  5
BC
330
1F
100
AcDbEntity
  8
0-0
  6
JWW_DASHED1
 62
   120
370
     5
100
AcDbLine
 10
-461.6788458849166
 20
-757.4447894028608
 30
0.0
 11
-1051.678845884916
 21
-167.4447894028604
 31
0.0
  0
LINE
  5
BD
330
1F
100
AcDbEntity
  8
0-0
  6
JWW_DASHED1
 62
   120
370
     5
100
AcDbLine
 10
-461.6788458849098
 20
-747.5452944662322
 30
0.0
 11
-1051.678845884926
 21
-157.5452944662159
 31
0.0
  0
LINE
  5
BE
330
1F
100
AcDbEntity
  8
0-0
  6
JWW_DASHED1
 62
   120
370
     5
100
AcDbLine
 10
-461.678845884903
 20
-737.645799529603
 30
0.0
 11
-1051.678845884909
 21
-147.6457995295969
 31
0.0
  0
LINE
  5
BF
330
1F
100
AcDbEntity
  8
0-0
  6
JWW_DASHED1
 62
   120
370
     5
100
AcDbLine
 10
-461.6788458849098
 20
-727.7463045930172
 30
0.0
 11
-1051.678845884912
 21
-137.7463045930116
 31
0.0
  0
LINE
  5
C0
330
1F
100
AcDbEntity
  8
0-0
  6
JWW_DASHED1
 62
   120
370
     5
100
AcDbLine
 10
-461.6788458849166
 20
-717.8468096563736
 30
0.0
 11
-1051.678845884919
 21
-127.8468096563731
 31
0.0
  0
LINE
  5
C1
330
1F
100
AcDbEntity
  8
0-0
  6
JWW_DASHED1
 62
   120
370
     5
100
AcDbLine
 10
-461.67884588492
 20
-707.9473147197883
 30
0.0
 11
-1051.678845884922
 21
-117.9473147197874
 31
0.0
  0
LINE
  5
C2
330
1F
100
AcDbEntity
  8
0-0
  6
JWW_DASHED1
 62
   120
370
     5
100
AcDbLine
 10
-461.6788458848995
 20
-698.0478197831743
 30
0.0
 11
-1051.678845884905
 21
-108.0478197831684
 31
0.0
  0
LINE
  5
C3
330
1F
100
AcDbEntity
  8
0-0
  6
JWW_DASHED1
 62
   120
370
     5
100
AcDbLine
 10
-461.6788458849064
 20
-688.1483248465886
 30
0.0
 11
-1051.678845884912
 21
-98.14832484658268
 31
0.0
  0
LINE
  5
C4
330
1F
100
AcDbEntity
  8
0-0
  6
JWW_DASHED1
 62
   120
370
     5
100
AcDbLine
 10
-461.6788458849132
 20
-678.2488299099454
 30
0.0
 11
-1051.678845884912
 21
-88.24882990994496
 31
0.0
  0
LINE
  5
C5
330
1F
100
AcDbEntity
  8
0-0
  6
JWW_DASHED1
 62
   120
370
     5
100
AcDbLine
 10
-461.6788458849166
 20
-668.3493349733596
 30
0.0
 11
-1051.678845884919
 21
-78.34933497335925
 31
0.0
  0
LINE
  5
C6
330
1F
100
AcDbEntity
  8
0-0
  6
JWW_DASHED1
 62
   120
370
     5
100
AcDbLine
 10
-461.6788458848961
 20
-658.4498400367453
 30
0.0
 11
-1051.678845884905
 21
-68.44984003673986
 31
0.0
  0
LINE
  5
C7
330
1F
100
AcDbEntity
  8
0-0
  6
JWW_DASHED1
 62
   120
370
     5
100
AcDbLine
 10
-461.6788458849064
 20
-648.550345100101
 30
0.0
 11
-1051.678845884912
 21
-58.55034510009531
 31
0.0
  0
LINE
  5
C8
330
1F
100
AcDbEntity
  8
0-0
  6
JWW_DASHED1
 62
   120
370
     5
100
AcDbLine
 10
-461.6788458849098
 20
-638.6508501635155
 30
0.0
 11
-1051.678845884919
 21
-48.6508501635096
 31
0.0
  0
LINE
  5
C9
330
1F
100
AcDbEntity
  8
0-0
  6
JWW_DASHED1
 62
   120
370
     5
100
AcDbLine
 10
-461.67884588492
 20
-628.7513552268724
 30
0.0
 11
-1051.678845884919
 21
-38.75135522687231
 31
0.0
  0
LINE
  5
CA
330
1F
100
AcDbEntity
  8
0-0
  6
JWW_DASHED1
 62
   120
370
     5
100
AcDbLine
 10
-461.6788458849098
 20
-618.8518602903027
 30
0.0
 11
-1051.678845884926
 21
-28.8518602902866
 31
0.0
  0
LINE
  5
CB
330
1F
100
AcDbEntity
  8
0-0
  6
JWW_DASHED1
 62
   120
370
     5
100
AcDbLine
 10
-461.678845884903
 20
-608.9523653536725
 30
0.0
 11
-1051.678845884909
 21
-18.95236535366635
 31
0.0
  0
LINE
  5
CC
330
1F
100
AcDbEntity
  8
0-0
  6
JWW_DASHED1
 62
   120
370
     5
100
AcDbLine
 10
-461.6788458849098
 20
-599.0528704170865
 30
0.0
 11
-1051.678845884916
 21
-9.052870417081067
 31
0.0
  0
LINE
  5
CD
330
1F
100
AcDbEntity
  8
0-0
  6
JWW_DASHED1
 62
   120
370
     5
100
AcDbLine
 10
-461.6788458849166
 20
-589.1533754804441
 30
0.0
 11
-1051.678845884916
 21
0.8466245195562294
 31
0.0
  0
LINE
  5
CE
330
1F
100
AcDbEntity
  8
0-0
  6
JWW_DASHED1
 62
   120
370
     5
100
AcDbLine
 10
-461.6788458849234
 20
-579.2538805438584
 30
0.0
 11
-1051.678845884922
 21
10.74611945614151
 31
0.0
  0
LINE
  5
CF
330
1F
100
AcDbEntity
  8
0-0
  6
JWW_DASHED1
 62
   120
370
     5
100
AcDbLine
 10
-461.678845884903
 20
-569.3543856072436
 30
0.0
 11
-1051.678845884905
 21
20.64561439276218
 31
0.0
  0
LINE
  5
D0
330
1F
100
AcDbEntity
  8
0-0
  6
JWW_DASHED1
 62
   120
370
     5
100
AcDbLine
 10
-461.6788458849098
 20
-559.454890670599
 30
0.0
 11
-1051.678845884916
 21
30.54510932940673
 31
0.0
  0
LINE
  5
D1
330
1F
100
AcDbEntity
  8
0-0
  6
JWW_DASHED1
 62
   120
370
     5
100
AcDbLine
 10
-461.6788458849132
 20
-549.5553957340157
 30
0.0
 11
-1051.678845884912
 21
40.44460426598434
 31
0.0
  0
LINE
  5
D2
330
1F
100
AcDbEntity
  8
0-0
  6
JWW_DASHED1
 62
   120
370
     5
100
AcDbLine
 10
-461.6788458849234
 20
-539.6559007973715
 30
0.0
 11
-1051.678845884922
 21
50.34409920262888
 31
0.0
  0
LINE
  5
D3
330
1F
100
AcDbEntity
  8
0-0
  6
JWW_DASHED1
 62
   120
370
     5
100
AcDbLine
 10
-461.6788458848995
 20
-529.756405860815
 30
0.0
 11
-1051.678845884905
 21
60.24359413919115
 31
0.0
  0
LINE
  5
D4
330
1F
100
AcDbEntity
  8
0-0
  6
JWW_DASHED1
 62
   120
370
     5
100
AcDbLine
 10
-461.6788458849064
 20
-519.8569109241706
 30
0.0
 11
-1051.678845884912
 21
70.14308907583569
 31
0.0
  0
LINE
  5
D5
330
1F
100
AcDbEntity
  8
0-0
  6
JWW_DASHED1
 62
   120
370
     5
100
AcDbLine
 10
-461.6788458849132
 20
-509.9574159875845
 30
0.0
 11
-1051.678845884919
 21
80.04258401242097
 31
0.0
  0
LINE
  5
D6
330
1F
100
AcDbEntity
  8
0-0
  6
JWW_DASHED1
 62
   120
370
     5
100
AcDbLine
 10
-461.67884588492
 20
-500.0579210509432
 30
0.0
 11
-1051.678845884919
 21
89.94207894905699
 31
0.0
  0
LINE
  5
D7
330
1F
100
AcDbEntity
  8
0-0
  6
JWW_DASHED1
 62
   120
370
     5
100
AcDbLine
 10
-461.6788458849098
 20
-490.1584261143732
 30
0.0
 11
-1051.678845884926
 21
99.8415738856427
 31
0.0
  0
LINE
  5
D8
330
1F
100
AcDbEntity
  8
0-0
  6
JWW_DASHED1
 62
   120
370
     5
100
AcDbLine
 10
-461.678845884903
 20
-480.2589311777419
 30
0.0
 11
-1051.678845884912
 21
109.7410688222642
 31
0.0
  0
LINE
  5
D9
330
1F
100
AcDbEntity
  8
0-0
  6
JWW_DASHED1
 62
   120
370
     5
100
AcDbLine
 10
-461.6788458849132
 20
-470.3594362410969
 30
0.0
 11
-1051.678845884919
 21
119.6405637589088
 31
0.0
  0
LINE
  5
DA
330
1F
100
AcDbEntity
  8
0-0
  6
JWW_DASHED1
 62
   120
370
     5
100
AcDbLine
 10
-461.6788458849166
 20
-460.459941304515
 30
0.0
 11
-1051.678845884916
 21
129.5400586954851
 31
0.0
  0
LINE
  5
DB
330
1F
100
AcDbEntity
  8
0-0
  6
JWW_DASHED1
 62
   120
370
     5
100
AcDbLine
 10
-461.6788458848961
 20
-450.5604463678986
 30
0.0
 11
-1051.678845884919
 21
139.4395536321228
 31
0.0
  0
LINE
  5
DC
330
1F
100
AcDbEntity
  8
0-0
  6
JWW_DASHED1
 62
   120
370
     5
100
AcDbLine
 10
-461.678845884903
 20
-440.6609514313129
 30
0.0
 11
-1051.678845884909
 21
149.3390485686928
 31
0.0
  0
LINE
  5
DD
330
1F
100
AcDbEntity
  8
0-0
  6
JWW_DASHED1
 62
   120
370
     5
100
AcDbLine
 10
-461.6788458849098
 20
-430.7614564946684
 30
0.0
 11
-1051.678845884919
 21
159.2385435053373
 31
0.0
  0
LINE
  5
DE
330
1F
100
AcDbEntity
  8
0-0
  6
JWW_DASHED1
 62
   120
370
     5
100
AcDbLine
 10
-461.6788458849132
 20
-420.8619615580865
 30
0.0
 11
-1051.678845884912
 21
169.1380384419141
 31
0.0
  0
LINE
  5
DF
330
1F
100
AcDbEntity
  8
0-0
  6
JWW_DASHED1
 62
   120
370
     5
100
AcDbLine
 10
-461.6788458849234
 20
-410.962466621442
 30
0.0
 11
-1051.678845884922
 21
179.0375333785582
 31
0.0
  0
LINE
  5
E0
330
1F
100
AcDbEntity
  8
0-0
  6
JWW_DASHED1
 62
   120
370
     5
100
AcDbLine
 10
-461.678845884903
 20
-401.0629716848251
 30
0.0
 11
-1051.678845884909
 21
188.9370283151801
 31
0.0
  0
LINE
  5
E1
330
1F
100
AcDbEntity
  8
0-0
  6
JWW_DASHED1
 62
   120
370
     5
100
AcDbLine
 10
-461.6788458849098
 20
-391.1634767482399
 30
0.0
 11
-1051.678845884916
 21
198.8365232517658
 31
0.0
  0
LINE
  5
E2
330
1F
100
AcDbEntity
  8
0-0
  6
JWW_DASHED1
 62
   120
370
     5
100
AcDbLine
 10
-461.6788458849132
 20
-381.2639818115991
 30
0.0
 11
-1051.678845884916
 21
208.736018188401
 31
0.0
  0
LINE
  5
E3
330
1F
100
AcDbEntity
  8
0-0
  6
JWW_DASHED1
 62
   120
370
     5
100
AcDbLine
 10
-461.67884588492
 20
-371.3644868750134
 30
0.0
 11
-1051.678845884919
 21
218.6355131249867
 31
0.0
  0
LINE
  5
E4
330
1F
100
AcDbEntity
  8
0-0
  6
JWW_DASHED1
 62
   120
370
     5
100
AcDbLine
 10
-461.6788458848995
 20
-361.464991938397
 30
0.0
 11
-1051.678845884905
 21
228.5350080616091
 31
0.0
  0
LINE
  5
E5
330
1F
100
AcDbEntity
  8
0-0
  6
JWW_DASHED1
 62
   120
370
     5
100
AcDbLine
 10
-461.6788458849064
 20
-351.5654970018113
 30
0.0
 11
-1051.678845884912
 21
238.4345029981948
 31
0.0
  0
LINE
  5
E6
330
1F
100
AcDbEntity
  8
0-0
  6
JWW_DASHED1
 62
   120
370
     5
100
AcDbLine
 10
-461.6788458849166
 20
-341.6660020651668
 30
0.0
 11
-1051.678845884922
 21
248.3339979348393
 31
0.0
  0
LINE
  5
E7
330
1F
100
AcDbEntity
  8
0-0
  6
JWW_DASHED1
 62
   120
370
     5
100
AcDbLine
 10
-461.6788458849166
 20
-331.7665071285853
 30
0.0
 11
-1051.678845884916
 21
258.2334928714148
 31
0.0
  0
LINE
  5
E8
330
1F
100
AcDbEntity
  8
0-0
  6
JWW_DASHED1
 62
   120
370
     5
100
AcDbLine
 10
-461.6788458848961
 20
-321.8670121919681
 30
0.0
 11
-1051.678845884905
 21
268.1329878080376
 31
0.0
  0
LINE
  5
E9
330
1F
100
AcDbEntity
  8
0-0
  6
JWW_DASHED1
 62
   120
370
     5
100
AcDbLine
 10
-461.6788458849064
 20
-311.9675172553235
 30
0.0
 11
-1051.678845884912
 21
278.0324827446817
 31
0.0
  0
LINE
  5
EA
330
1F
100
AcDbEntity
  8
0-0
  6
JWW_DASHED1
 62
   120
370
     5
100
AcDbLine
 10
-461.6788458849132
 20
-302.0680223187378
 30
0.0
 11
-1051.678845884919
 21
287.9319776812679
 31
0.0
  0
LINE
  5
EB
330
1F
100
AcDbEntity
  8
0-0
  6
JWW_DASHED1
 62
   120
370
     5
100
AcDbLine
 10
-461.6788458849166
 20
-292.1685273820984
 30
0.0
 11
-1051.678845884919
 21
297.8314726179022
 31
0.0
  0
LINE
  5
EC
330
1F
100
AcDbEntity
  8
0-0
  6
JWW_DASHED1
 62
   120
370
     5
100
AcDbLine
 10
-461.6788458849064
 20
-282.2690324455284
 30
0.0
 11
-1051.678845884922
 21
307.7309675544879
 31
0.0
  0
LINE
  5
ED
330
1F
100
AcDbEntity
  8
0-0
  6
JWW_DASHED1
 62
   120
370
     5
100
AcDbLine
 10
-461.678845884903
 20
-272.3695375088946
 30
0.0
 11
-1051.678845884912
 21
317.6304624911111
 31
0.0
  0
LINE
  5
EE
330
1F
100
AcDbEntity
  8
0-0
  6
JWW_DASHED1
 62
   120
370
     5
100
AcDbLine
 10
-461.6788458849098
 20
-262.4700425723088
 30
0.0
 11
-1051.678845884916
 21
327.5299574276968
 31
0.0
  0
LINE
  5
EF
330
1F
100
AcDbEntity
  8
0-0
  6
JWW_DASHED1
 62
   120
370
     5
100
AcDbLine
 10
-461.6788458849132
 20
-252.5705476356698
 30
0.0
 11
-1051.678845884912
 21
337.4294523643303
 31
0.0
  0
LINE
  5
F0
330
1F
100
AcDbEntity
  8
0-0
  6
JWW_DASHED1
 62
   120
370
     5
100
AcDbLine
 10
-461.6788458849166
 20
-242.6710526990846
 30
0.0
 11
-1051.678845884919
 21
347.328947300916
 31
0.0
  0
LINE
  5
F1
330
1F
100
AcDbEntity
  8
0-0
  6
JWW_DASHED1
 62
   120
370
     5
100
AcDbLine
 10
-461.678845884903
 20
-232.771557762466
 30
0.0
 11
-1051.678845884909
 21
357.2284422375396
 31
0.0
  0
LINE
  5
F2
330
1F
100
AcDbEntity
  8
0-0
  6
JWW_DASHED1
 62
   120
370
     5
100
AcDbLine
 10
-461.6788458849098
 20
-222.8720628258219
 30
0.0
 11
-1051.678845884919
 21
367.1279371741842
 31
0.0
  0
LINE
  5
F3
330
1F
100
AcDbEntity
  8
0-0
  6
JWW_DASHED1
 62
   120
370
     5
100
AcDbLine
 10
-461.6788458849166
 20
-212.9725678892362
 30
0.0
 11
-1051.678845884922
 21
377.02743211077
 31
0.0
  0
LINE
  5
F4
330
1F
100
AcDbEntity
  8
0-0
  6
JWW_DASHED1
 62
   120
370
     5
100
AcDbLine
 10
-461.67884588492
 20
-203.0730729525968
 30
0.0
 11
-1051.678845884919
 21
386.9269270474034
 31
0.0
  0
LINE
  5
F5
330
1F
100
AcDbEntity
  8
0-0
  6
JWW_DASHED1
 62
   120
370
     5
100
AcDbLine
 10
-461.6788458848995
 20
-193.1735780160375
 30
0.0
 11
-1051.678845884905
 21
396.8264219839682
 31
0.0
  0
LINE
  5
F6
330
1F
100
AcDbEntity
  8
0-0
  6
JWW_DASHED1
 62
   120
370
     5
100
AcDbLine
 10
-461.6788458849098
 20
-183.2740830793929
 30
0.0
 11
-1051.678845884912
 21
406.7259169206127
 31
0.0
  0
LINE
  5
F7
330
1F
100
AcDbEntity
  8
0-0
  6
JWW_DASHED1
 62
   120
370
     5
100
AcDbLine
 10
-461.6788458849132
 20
-173.3745881428072
 30
0.0
 11
-1051.678845884919
 21
416.6254118571985
 31
0.0
  0
LINE
  5
F8
330
1F
100
AcDbEntity
  8
0-0
  6
JWW_DASHED1
 62
   120
370
     5
100
AcDbLine
 10
-461.6788458849166
 20
-163.4750932061687
 30
0.0
 11
-1051.678845884919
 21
426.5249067938315
 31
0.0
  0
LINE
  5
F9
330
1F
100
AcDbEntity
  8
0-0
  6
JWW_DASHED1
 62
   120
370
     5
100
AcDbLine
 10
-461.6788458849064
 20
-153.5755982695991
 30
0.0
 11
-1051.678845884922
 21
436.4244017304172
 31
0.0
  0
LINE
  5
FA
330
1F
100
AcDbEntity
  8
0-0
  6
JWW_DASHED1
 62
   120
370
     5
100
AcDbLine
 10
-461.6788458849064
 20
-143.676103332964
 30
0.0
 11
-1051.678845884912
 21
446.3238966670417
 31
0.0
  0
LINE
  5
FB
330
1F
100
AcDbEntity
  8
0-0
  6
JWW_DASHED1
 62
   120
370
     5
100
AcDbLine
 10
-461.6788458849166
 20
-133.7766083963194
 30
0.0
 11
-1051.678845884919
 21
456.2233916036863
 31
0.0
  0
LINE
  5
FC
330
1F
100
AcDbEntity
  8
0-0
  6
JWW_DASHED1
 62
   120
370
     5
100
AcDbLine
 10
-461.6788458849132
 20
-123.8771134597405
 30
0.0
 11
-1051.678845884912
 21
466.12288654026
 31
0.0
  0
LINE
  5
FD
330
1F
100
AcDbEntity
  8
0-0
  6
JWW_DASHED1
 62
   120
370
     5
100
AcDbLine
 10
-461.6788458848961
 20
-113.9776185231212
 30
0.0
 11
-1051.678845884919
 21
476.0223814769003
 31
0.0
  0
LINE
  5
FE
330
1F
100
AcDbEntity
  8
0-0
  6
JWW_DASHED1
 62
   120
370
     5
100
AcDbLine
 10
-461.678845884903
 20
-104.0781235865354
 30
0.0
 11
-1051.678845884909
 21
485.9218764134703
 31
0.0
  0
LINE
  5
FF
330
1F
100
AcDbEntity
  8
0-0
  6
JWW_DASHED1
 62
   120
370
     5
100
AcDbLine
 10
-461.6788458849098
 20
-94.17862864989132
 30
0.0
 11
-1051.678845884919
 21
495.8213713501148
 31
0.0
  0
LINE
  5
100
330
1F
100
AcDbEntity
  8
0-0
  6
JWW_DASHED1
 62
   120
370
     5
100
AcDbLine
 10
-461.6788458849098
 20
-84.279133713312
 30
0.0
 11
-1051.678845884912
 21
505.7208662866881
 31
0.0
  0
LINE
  5
101
330
1F
100
AcDbEntity
  8
0-0
  6
JWW_DASHED1
 62
   120
370
     5
100
AcDbLine
 10
-461.67884588492
 20
-74.37963877666789
 30
0.0
 11
-1051.678845884919
 21
515.6203612233322
 31
0.0
  0
LINE
  5
102
330
1F
100
AcDbEntity
  8
0-0
  6
JWW_DASHED1
 62
   120
370
     5
100
AcDbLine
 10
-461.678845884903
 20
-64.48014384004807
 30
0.0
 11
-1051.678845884909
 21
525.5198561599581
 31
0.0
  0
LINE
  5
103
330
1F
100
AcDbEntity
  8
0-0
  6
JWW_DASHED1
 62
   120
370
     5
100
AcDbLine
 10
-461.6788458849098
 20
-54.58064890346236
 30
0.0
 11
-1051.678845884916
 21
535.4193510965433
 31
0.0
  0
LINE
  5
104
330
1F
100
AcDbEntity
  8
0-0
  6
JWW_DASHED1
 62
   120
370
     5
100
AcDbLine
 10
-461.6788458849098
 20
-44.68115396682464
 30
0.0
 11
-1051.678845884912
 21
545.3188460331755
 31
0.0
  0
LINE
  5
105
330
1F
100
AcDbEntity
  8
0-0
  6
JWW_DASHED1
 62
   120
370
     5
100
AcDbLine
 10
-461.6788458849166
 20
-34.78165903023893
 30
0.0
 11
-1051.678845884916
 21
555.2183409697612
 31
0.0
  0
LINE
  5
106
330
1F
100
AcDbEntity
  8
0-0
  6
JWW_DASHED1
 62
   120
370
     5
100
AcDbLine
 10
-461.678845884903
 20
-24.88216409361911
 30
0.0
 11
-1051.678845884905
 21
565.1178359063865
 31
0.0
  0
LINE
  5
107
330
1F
100
AcDbEntity
  8
0-0
  6
JWW_DASHED1
 62
   120
370
     5
100
AcDbLine
 10
-461.6788458849064
 20
-14.9826691570334
 30
0.0
 11
-1051.678845884912
 21
575.0173308429723
 31
0.0
  0
LINE
  5
108
330
1F
100
AcDbEntity
  8
0-0
  6
JWW_DASHED1
 62
   120
370
     5
100
AcDbLine
 10
-461.6788458849166
 20
-5.083174220388855
 30
0.0
 11
-1051.678845884922
 21
584.9168257796168
 31
0.0
  0
LINE
  5
109
330
1F
100
AcDbEntity
  8
0-0
  6
JWW_DASHED1
 62
   120
370
     5
100
AcDbLine
 10
-461.6788458849132
 20
4.816320716188756
 30
0.0
 11
-1051.678845884912
 21
594.8163207161894
 31
0.0
  0
LINE
  5
10A
330
1F
100
AcDbEntity
  8
0-0
  6
JWW_DASHED1
 62
   120
370
     5
100
AcDbLine
 10
-461.6788458848995
 20
14.71581565280985
 30
0.0
 11
-1051.678845884919
 21
604.7158156528304
 31
0.0
  0
LINE
  5
10B
330
1F
100
AcDbEntity
  8
0-0
  6
JWW_DASHED1
 62
   120
370
     5
100
AcDbLine
 10
-461.6788458849064
 20
24.61531058945397
 30
0.0
 11
-1051.678845884912
 21
614.6153105894597
 31
0.0
  0
LINE
  5
10C
330
1F
100
AcDbEntity
  8
0-0
  6
JWW_DASHED1
 62
   120
370
     5
100
AcDbLine
 10
-461.6788458849132
 20
34.51480552603968
 30
0.0
 11
-1051.678845884919
 21
624.5148055260454
 31
0.0
  0
LINE
  5
10D
330
1F
100
AcDbEntity
  8
0-0
  6
JWW_DASHED1
 62
   120
370
     5
100
AcDbLine
 10
-461.6788458849132
 20
44.41430046267612
 30
0.0
 11
-1051.678845884916
 21
634.4143004626767
 31
0.0
  0
LINE
  5
10E
330
1F
100
AcDbEntity
  8
0-0
  6
JWW_DASHED1
 62
   120
370
     5
100
AcDbLine
 10
-461.67884588492
 20
54.31379539926183
 30
0.0
 11
-1051.678845884919
 21
644.313795399262
 31
0.0
  0
LINE
  5
10F
330
1F
100
AcDbEntity
  8
0-0
  6
JWW_DASHED1
 62
   120
370
     5
100
AcDbLine
 10
-461.678845884903
 20
64.2132903358825
 30
0.0
 11
-1051.678845884912
 21
654.2132903358886
 31
0.0
  0
LINE
  5
110
330
1F
100
AcDbEntity
  8
0-0
  6
JWW_DASHED1
 62
   120
370
     5
100
AcDbLine
 10
-461.6788458849098
 20
74.11278527246822
 30
0.0
 11
-1051.678845884916
 21
664.112785272474
 31
0.0
  0
LINE
  5
111
330
1F
100
AcDbEntity
  8
0-0
  6
JWW_DASHED1
 62
   120
370
     5
100
AcDbLine
 10
-461.6788458849098
 20
84.01228020910466
 30
0.0
 11
-1051.678845884912
 21
674.0122802091048
 31
0.0
  0
LINE
  5
112
330
1F
100
AcDbEntity
  8
0-0
  6
JWW_DASHED1
 62
   120
370
     5
100
AcDbLine
 10
-461.6788458849166
 20
93.91177514568994
 30
0.0
 11
-1051.678845884916
 21
683.9117751456901
 31
0.0
  0
LINE
  5
113
330
1F
100
AcDbEntity
  8
0-0
  6
JWW_DASHED1
 62
   120
370
     5
100
AcDbLine
 10
-461.678845884903
 20
103.8112700823115
 30
0.0
 11
-1051.678845884909
 21
693.8112700823172
 31
0.0
  0
LINE
  5
114
330
1F
100
AcDbEntity
  8
0-0
  6
JWW_DASHED1
 62
   120
370
     5
100
AcDbLine
 10
-461.6788458849098
 20
113.710765018956
 30
0.0
 11
-1051.678845884919
 21
703.7107650189616
 31
0.0
  0
LINE
  5
115
330
1F
100
AcDbEntity
  8
0-0
  6
JWW_DASHED1
 62
   120
370
     5
100
AcDbLine
 10
-461.6788458849166
 20
123.6102599555417
 30
0.0
 11
-1051.678845884922
 21
713.6102599555475
 31
0.0
  0
LINE
  5
116
330
1F
100
AcDbEntity
  8
0-0
  6
JWW_DASHED1
 62
   120
370
     5
100
AcDbLine
 10
-461.6788458849166
 20
133.5097548921773
 30
0.0
 11
-1051.678845884919
 21
723.5097548921774
 31
0.0
  0
LINE
  5
117
330
1F
100
AcDbEntity
  8
0-0
  6
JWW_DASHED1
 62
   120
370
     5
100
AcDbLine
 10
-461.6788458848995
 20
143.4092498287404
 30
0.0
 11
-1051.678845884919
 21
733.4092498287614
 31
0.0
  0
LINE
  5
118
330
1F
100
AcDbEntity
  8
0-0
  6
JWW_DASHED1
 62
   120
370
     5
100
AcDbLine
 10
-461.6788458849098
 20
153.308744765385
 30
0.0
 11
-1051.678845884916
 21
743.3087447653907
 31
0.0
  0
LINE
  5
119
330
1F
100
AcDbEntity
  8
0-0
  6
JWW_DASHED1
 62
   120
370
     5
100
AcDbLine
 10
-461.6788458849132
 20
163.2082397019703
 30
0.0
 11
-1051.678845884919
 21
753.2082397019759
 31
0.0
  0
LINE
  5
11A
330
1F
100
AcDbEntity
  8
0-0
  6
JWW_DASHED1
 62
   120
370
     5
100
AcDbLine
 10
-461.6788458849132
 20
173.1077346386054
 30
0.0
 11
-1051.678845884916
 21
763.107734638606
 31
0.0
  0
LINE
  5
11B
330
1F
100
AcDbEntity
  8
0-0
  6
JWW_DASHED1
 62
   120
370
     5
100
AcDbLine
 10
-461.67884588492
 20
183.0072295751916
 30
0.0
 11
-1051.678845884919
 21
773.0072295751917
 31
0.0
  0
LINE
  5
11C
330
1F
100
AcDbEntity
  8
0-0
  6
JWW_DASHED1
 62
   120
370
     5
100
AcDbLine
 10
-461.6788458849064
 20
192.9067245118131
 30
0.0
 11
-1051.678845884912
 21
782.9067245118192
 31
0.0
  0
LINE
  5
11D
330
1F
100
AcDbEntity
  8
0-0
  6
JWW_DASHED1
 62
   120
370
     5
100
AcDbLine
 10
-461.6788458849166
 20
202.8062194484576
 30
0.0
 11
-1051.678845884922
 21
792.8062194484637
 31
0.0
  0
LINE
  5
11E
330
1F
100
AcDbEntity
  8
0-0
  6
JWW_DASHED1
 62
   120
370
     5
100
AcDbLine
 10
-461.6788458849098
 20
212.7057143850335
 30
0.0
 11
-1051.678845884912
 21
802.7057143850345
 31
0.0
  0
LINE
  5
11F
330
1F
100
AcDbEntity
  8
0-0
  6
JWW_DASHED1
 62
   120
370
     5
100
AcDbLine
 10
-461.678845884903
 20
222.6052093216627
 30
0.0
 11
-1051.678845884919
 21
812.6052093216787
 31
0.0
  0
LINE
  5
120
330
1F
100
AcDbEntity
  8
0-0
  6
JWW_DASHED1
 62
   120
370
     5
100
AcDbLine
 10
-461.678845884903
 20
232.504704258242
 30
0.0
 11
-1051.678845884909
 21
822.5047042582478
 31
0.0
  0
LINE
  5
121
330
1F
100
AcDbEntity
  8
0-0
  6
JWW_DASHED1
 62
   120
370
     5
100
AcDbLine
 10
-461.6788458849132
 20
242.4041991948862
 30
0.0
 11
-1051.678845884919
 21
832.4041991948923
 31
0.0
  0
LINE
  5
122
330
1F
100
AcDbEntity
  8
0-0
  6
JWW_DASHED1
 62
   120
370
     5
100
AcDbLine
 10
-461.6788458849166
 20
252.3036941314719
 30
0.0
 11
-1051.678845884922
 21
842.3036941314775
 31
0.0
  0
LINE
  5
123
330
1F
100
AcDbEntity
  8
0-0
  6
JWW_DASHED1
 62
   120
370
     5
100
AcDbLine
 10
-461.6788458849166
 20
262.2031890681066
 30
0.0
 11
-1051.678845884919
 21
852.2031890681071
 31
0.0
  0
LINE
  5
124
330
1F
100
AcDbEntity
  8
0-0
  6
JWW_DASHED1
 62
   120
370
     5
100
AcDbLine
 10
-461.678845884903
 20
272.1026840047298
 30
0.0
 11
-1051.678845884912
 21
862.1026840047355
 31
0.0
  0
LINE
  5
125
330
1F
100
AcDbEntity
  8
0-0
  6
JWW_DASHED1
 62
   120
370
     5
100
AcDbLine
 10
-461.6788458849098
 20
282.0021789413155
 30
0.0
 11
-1051.678845884916
 21
872.0021789413213
 31
0.0
  0
LINE
  5
126
330
1F
100
AcDbEntity
  8
0-0
  6
JWW_DASHED1
 62
   120
370
     5
100
AcDbLine
 10
-461.6788458849098
 20
291.9016738779499
 30
0.0
 11
-1051.678845884909
 21
881.90167387795
 31
0.0
  0
LINE
  5
127
330
1F
100
AcDbEntity
  8
0-0
  6
Continuous
 62
    92
370
    13
100
AcDbLine
 10
-271.6788458849086
 20
-812.523402065947
 30
0.0
 11
318.3211541150936
 21
-812.523402065947
 31
0.0
  0
LINE
  5
128
330
1F
100
AcDbEntity
  8
0-0
  6
Continuous
 62
    92
370
    13
100
AcDbLine
 10
508.3211541150914
 20
-812.523402065947
 30
0.0
 11
1098.321154115094
 21
-812.523402065947
 31
0.0
  0
LINE
  5
129
330
1F
100
AcDbEntity
  8
0-0
  6
Continuous
 62
    92
370
    13
100
AcDbLine
 10
-1051.678845884909
 20
885.4765979340526
 30
0.0
 11
-461.6788458849064
 21
885.4765979340526
 31
0.0
  0
LINE
  5
12A
330
1F
100
AcDbEntity
  8
0-0
  6
Continuous
 62
    92
370
    13
100
AcDbLine
 10
-271.6788458849086
 20
885.4765979340526
 30
0.0
 11
318.3211541150936
 21
885.4765979340526
 31
0.0
  0
LINE
  5
12B
330
1F
100
AcDbEntity
  8
0-0
  6
Continuous
 62
    92
370
    13
100
AcDbLine
 10
508.3211541150914
 20
885.4765979340526
 30
0.0
 11
1098.321154115094
 21
885.4765979340526
 31
0.0
  0
LINE
  5
12C
330
1F
100
AcDbEntity
  8
0-0
  6
Continuous
 62
    92
370
    13
100
AcDbLine
 10
-1051.678845884909
 20
-962.523402065947
 30
0.0
 11
-1051.678845884909
 21
1020.476597934053
 31
0.0
  0
LINE
  5
12D
330
1F
100
AcDbEntity
  8
0-0
  6
Continuous
 62
    92
370
    13
100
AcDbLine
 10
-461.6788458849064
 20
-962.523402065947
 30
0.0
 11
-461.6788458849064
 21
1020.476597934053
 31
0.0
  0
LINE
  5
12E
330
1F
100
AcDbEntity
  8
0-0
  6
Continuous
 62
    92
370
    13
100
AcDbLine
 10
318.3211541150936
 20
-962.523402065947
 30
0.0
 11
318.3211541150936
 21
1020.476597934053
 31
0.0
  0
LINE
  5
12F
330
1F
100
AcDbEntity
  8
0-0
  6
Continuous
 62
    92
370
    13
100
AcDbLine
 10
-271.6788458849086
 20
-962.523402065947
 30
0.0
 11
-271.6788458849086
 21
1020.476597934053
 31
0.0
  0
LINE
  5
130
330
1F
100
AcDbEntity
  8
0-0
  6
Continuous
 62
    92
370
    13
100
AcDbLine
 10
1098.321154115094
 20
-962.523402065947
 30
0.0
 11
1098.321154115094
 21
1020.476597934053
 31
0.0
  0
LINE
  5
131
330
1F
100
AcDbEntity
  8
0-0
  6
Continuous
 62
    92
370
    13
100
AcDbLine
 10
508.3211541150914
 20
-962.523402065947
 30
0.0
 11
508.3211541150914
 21
1020.476597934053
 31
0.0
  0
LINE
  5
132
330
1F
100
AcDbEntity
  8
0-0
  6
JWW_DASHED1
 62
   120
370
     5
100
AcDbLine
 10
-461.6788458849132
 20
301.8011688145351
 30
0.0
 11
-1045.354275004433
 21
885.4765979340526
 31
0.0
  0
LINE
  5
133
330
1F
100
AcDbEntity
  8
0-0
  6
JWW_DASHED1
 62
   120
370
     5
100
AcDbLine
 10
-461.6788458849166
 20
875.9718751380126
 30
0.0
 11
-471.1835686809579
 21
885.4765979340526
 31
0.0
  0
LINE
  5
134
330
1F
100
AcDbEntity
  8
0-0
  6
JWW_DASHED1
 62
   120
370
     5
100
AcDbLine
 10
-461.678845884903
 20
311.7006637511579
 30
0.0
 11
-1035.454780067798
 21
885.4765979340526
 31
0.0
  0
LINE
  5
135
330
1F
100
AcDbEntity
  8
0-0
  6
JWW_DASHED1
 62
   120
370
     5
100
AcDbLine
 10
-461.6788458849064
 20
321.6001586877437
 30
0.0
 11
-1025.555285131217
 21
885.4765979340526
 31
0.0
  0
LINE
  5
136
330
1F
100
AcDbEntity
  8
0-0
  6
JWW_DASHED1
 62
   120
370
     5
100
AcDbLine
 10
-461.6788458849166
 20
331.4996536243882
 30
0.0
 11
-1015.655790194582
 21
885.4765979340526
 31
0.0
  0
LINE
  5
137
330
1F
100
AcDbEntity
  8
0-0
  6
JWW_DASHED1
 62
   120
370
     5
100
AcDbLine
 10
-461.6788458849098
 20
341.3991485609632
 30
0.0
 11
-1005.756295258002
 21
885.4765979340526
 31
0.0
  0
LINE
  5
138
330
1F
100
AcDbEntity
  8
0-0
  6
JWW_DASHED1
 62
   120
370
     5
100
AcDbLine
 10
-461.6788458848995
 20
351.2986434975869
 30
0.0
 11
-995.8568003213666
 21
885.4765979340526
 31
0.0
  0
LINE
  5
139
330
1F
100
AcDbEntity
  8
0-0
  6
JWW_DASHED1
 62
   120
370
     5
100
AcDbLine
 10
-461.6788458849098
 20
361.1981384342315
 30
0.0
 11
-985.9573053847314
 21
885.4765979340526
 31
0.0
  0
LINE
  5
13A
330
1F
100
AcDbEntity
  8
0-0
  6
JWW_DASHED1
 62
   120
370
     5
100
AcDbLine
 10
-461.6788458849132
 20
371.0976333708172
 30
0.0
 11
-976.0578104481508
 21
885.4765979340526
 31
0.0
  0
LINE
  5
13B
330
1F
100
AcDbEntity
  8
0-0
  6
JWW_DASHED1
 62
   120
370
     5
100
AcDbLine
 10
-461.6788458849098
 20
380.9971283074506
 30
0.0
 11
-966.1583155115156
 21
885.4765979340526
 31
0.0
  0
LINE
  5
13C
330
1F
100
AcDbEntity
  8
0-0
  6
JWW_DASHED1
 62
   120
370
     5
100
AcDbLine
 10
-461.6788458849166
 20
390.8966232440363
 30
0.0
 11
-956.258820574935
 21
885.4765979340526
 31
0.0
  0
LINE
  5
13D
330
1F
100
AcDbEntity
  8
0-0
  6
JWW_DASHED1
 62
   120
370
     5
100
AcDbLine
 10
-461.6788458849064
 20
400.7961181806604
 30
0.0
 11
-946.3593256382999
 21
885.4765979340526
 31
0.0
  0
LINE
  5
13E
330
1F
100
AcDbEntity
  8
0-0
  6
JWW_DASHED1
 62
   120
370
     5
100
AcDbLine
 10
-461.6788458849098
 20
410.6956131172457
 30
0.0
 11
-936.4598307017193
 21
885.4765979340526
 31
0.0
  0
LINE
  5
13F
330
1F
100
AcDbEntity
  8
0-0
  6
JWW_DASHED1
 62
   120
370
     5
100
AcDbLine
 10
-461.6788458849098
 20
420.5951080538787
 30
0.0
 11
-926.5603357650841
 21
885.4765979340526
 31
0.0
  0
LINE
  5
140
330
1F
100
AcDbEntity
  8
0-0
  6
JWW_DASHED1
 62
   120
370
     5
100
AcDbLine
 10
-461.6788458849132
 20
430.4946029904644
 30
0.0
 11
-916.6608408285035
 21
885.4765979340526
 31
0.0
  0
LINE
  5
141
330
1F
100
AcDbEntity
  8
0-0
  6
JWW_DASHED1
 62
   120
370
     5
100
AcDbLine
 10
-461.678845884903
 20
440.394097927089
 30
0.0
 11
-906.7613458918684
 21
885.4765979340526
 31
0.0
  0
LINE
  5
142
330
1F
100
AcDbEntity
  8
0-0
  6
JWW_DASHED1
 62
   120
370
     5
100
AcDbLine
 10
-461.6788458849098
 20
450.2935928637335
 30
0.0
 11
-896.8618509552332
 21
885.4765979340526
 31
0.0
  0
LINE
  5
143
330
1F
100
AcDbEntity
  8
0-0
  6
JWW_DASHED1
 62
   120
370
     5
100
AcDbLine
 10
-461.6788458849166
 20
460.1930878003188
 30
0.0
 11
-886.9623560186492
 21
885.4765979340526
 31
0.0
  0
LINE
  5
144
330
1F
100
AcDbEntity
  8
0-0
  6
JWW_DASHED1
 62
   120
370
     5
100
AcDbLine
 10
-461.6788458849132
 20
470.0925827369518
 30
0.0
 11
-877.0628610820174
 21
885.4765979340526
 31
0.0
  0
LINE
  5
145
330
1F
100
AcDbEntity
  8
0-0
  6
JWW_DASHED1
 62
   120
370
     5
100
AcDbLine
 10
-461.6788458848995
 20
479.9920776735175
 30
0.0
 11
-867.1633661454334
 21
885.4765979340526
 31
0.0
  0
LINE
  5
146
330
1F
100
AcDbEntity
  8
0-0
  6
JWW_DASHED1
 62
   120
370
     5
100
AcDbLine
 10
-461.6788458849098
 20
489.891572610162
 30
0.0
 11
-857.2638712088017
 21
885.4765979340526
 31
0.0
  0
LINE
  5
147
330
1F
100
AcDbEntity
  8
0-0
  6
JWW_DASHED1
 62
   120
370
     5
100
AcDbLine
 10
-461.6788458849132
 20
499.7910675467473
 30
0.0
 11
-847.3643762722211
 21
885.4765979340526
 31
0.0
  0
LINE
  5
148
330
1F
100
AcDbEntity
  8
0-0
  6
JWW_DASHED1
 62
   120
370
     5
100
AcDbLine
 10
-461.6788458849098
 20
509.6905624833803
 30
0.0
 11
-837.4648813355859
 21
885.4765979340526
 31
0.0
  0
LINE
  5
149
330
1F
100
AcDbEntity
  8
0-0
  6
JWW_DASHED1
 62
   120
370
     5
100
AcDbLine
 10
-461.6788458849166
 20
519.5900574199657
 30
0.0
 11
-827.5653863990053
 21
885.4765979340526
 31
0.0
  0
LINE
  5
14A
330
1F
100
AcDbEntity
  8
0-0
  6
JWW_DASHED1
 62
   120
370
     5
100
AcDbLine
 10
-461.6788458849064
 20
529.4895523565906
 30
0.0
 11
-817.6658914623702
 21
885.4765979340526
 31
0.0
  0
LINE
  5
14B
330
1F
100
AcDbEntity
  8
0-0
  6
JWW_DASHED1
 62
   120
370
     5
100
AcDbLine
 10
-461.6788458849166
 20
539.3890472932351
 30
0.0
 11
-807.766396525735
 21
885.4765979340526
 31
0.0
  0
LINE
  5
14C
330
1F
100
AcDbEntity
  8
0-0
  6
JWW_DASHED1
 62
   120
370
     5
100
AcDbLine
 10
-461.6788458849098
 20
549.2885422298084
 30
0.0
 11
-797.8669015891544
 21
885.4765979340526
 31
0.0
  0
LINE
  5
14D
330
1F
100
AcDbEntity
  8
0-0
  6
JWW_DASHED1
 62
   120
370
     5
100
AcDbLine
 10
-461.678845884903
 20
559.1880371664367
 30
0.0
 11
-787.9674066525192
 21
885.4765979340526
 31
0.0
  0
LINE
  5
14E
330
1F
100
AcDbEntity
  8
0-0
  6
JWW_DASHED1
 62
   120
370
     5
100
AcDbLine
 10
-461.678845884903
 20
569.0875321030195
 30
0.0
 11
-778.0679117159386
 21
885.4765979340526
 31
0.0
  0
LINE
  5
14F
330
1F
100
AcDbEntity
  8
0-0
  6
JWW_DASHED1
 62
   120
370
     5
100
AcDbLine
 10
-461.6788458849132
 20
578.9870270396641
 30
0.0
 11
-768.1684167793035
 21
885.4765979340526
 31
0.0
  0
LINE
  5
150
330
1F
100
AcDbEntity
  8
0-0
  6
JWW_DASHED1
 62
   120
370
     5
100
AcDbLine
 10
-461.6788458849166
 20
588.8865219762498
 30
0.0
 11
-758.2689218427195
 21
885.4765979340526
 31
0.0
  0
LINE
  5
151
330
1F
100
AcDbEntity
  8
0-0
  6
JWW_DASHED1
 62
   120
370
     5
100
AcDbLine
 10
-461.6788458849132
 20
598.7860169128807
 30
0.0
 11
-748.3694269060877
 21
885.4765979340526
 31
0.0
  0
LINE
  5
152
330
1F
100
AcDbEntity
  8
0-0
  6
JWW_DASHED1
 62
   120
370
     5
100
AcDbLine
 10
-461.678845884903
 20
608.6855118495068
 30
0.0
 11
-738.4699319694525
 21
885.4765979340526
 31
0.0
  0
LINE
  5
153
330
1F
100
AcDbEntity
  8
0-0
  6
JWW_DASHED1
 62
   120
370
     5
100
AcDbLine
 10
-461.6788458849098
 20
618.5850067860927
 30
0.0
 11
-728.570437032872
 21
885.4765979340526
 31
0.0
  0
LINE
  5
154
330
1F
100
AcDbEntity
  8
0-0
  6
JWW_DASHED1
 62
   120
370
     5
100
AcDbLine
 10
-461.6788458849064
 20
628.484501722724
 30
0.0
 11
-718.6709420962368
 21
885.4765979340526
 31
0.0
  0
LINE
  5
155
330
1F
100
AcDbEntity
  8
0-0
  6
JWW_DASHED1
 62
   120
370
     5
100
AcDbLine
 10
-461.6788458849098
 20
638.3839966593088
 30
0.0
 11
-708.7714471596562
 21
885.4765979340526
 31
0.0
  0
LINE
  5
156
330
1F
100
AcDbEntity
  8
0-0
  6
JWW_DASHED1
 62
   120
370
     5
100
AcDbLine
 10
-461.678845884903
 20
648.2834915959359
 30
0.0
 11
-698.871952223021
 21
885.4765979340526
 31
0.0
  0
LINE
  5
157
330
1F
100
AcDbEntity
  8
0-0
  6
JWW_DASHED1
 62
   120
370
     5
100
AcDbLine
 10
-461.6788458849064
 20
658.1829865325211
 30
0.0
 11
-688.9724572864404
 21
885.4765979340526
 31
0.0
  0
LINE
  5
158
330
1F
100
AcDbEntity
  8
0-0
  6
JWW_DASHED1
 62
   120
370
     5
100
AcDbLine
 10
-461.6788458849166
 20
668.0824814691662
 30
0.0
 11
-679.0729623498019
 21
885.4765979340526
 31
0.0
  0
LINE
  5
159
330
1F
100
AcDbEntity
  8
0-0
  6
JWW_DASHED1
 62
   120
370
     5
100
AcDbLine
 10
-461.6788458849098
 20
677.9819764057381
 30
0.0
 11
-669.1734674132247
 21
885.4765979340526
 31
0.0
  0
LINE
  5
15A
330
1F
100
AcDbEntity
  8
0-0
  6
JWW_DASHED1
 62
   120
370
     5
100
AcDbLine
 10
-461.678845884903
 20
687.8814713423665
 30
0.0
 11
-659.2739724765895
 21
885.4765979340526
 31
0.0
  0
LINE
  5
15B
330
1F
100
AcDbEntity
  8
0-0
  6
JWW_DASHED1
 62
   120
370
     5
100
AcDbLine
 10
-461.6788458849098
 20
697.7809662790089
 30
0.0
 11
-649.3744775399543
 21
885.4765979340526
 31
0.0
  0
LINE
  5
15C
330
1F
100
AcDbEntity
  8
0-0
  6
JWW_DASHED1
 62
   120
370
     5
100
AcDbLine
 10
-461.6788458849132
 20
707.6804612155946
 30
0.0
 11
-639.4749826033737
 21
885.4765979340526
 31
0.0
  0
LINE
  5
15D
330
1F
100
AcDbEntity
  8
0-0
  6
JWW_DASHED1
 62
   120
370
     5
100
AcDbLine
 10
-461.6788458849098
 20
717.5799561522251
 30
0.0
 11
-629.5754876667386
 21
885.4765979340526
 31
0.0
  0
LINE
  5
15E
330
1F
100
AcDbEntity
  8
0-0
  6
JWW_DASHED1
 62
   120
370
     5
100
AcDbLine
 10
-461.6788458849132
 20
727.4794510888104
 30
0.0
 11
-619.675992730158
 21
885.4765979340526
 31
0.0
  0
LINE
  5
15F
330
1F
100
AcDbEntity
  8
0-0
  6
JWW_DASHED1
 62
   120
370
     5
100
AcDbLine
 10
-461.6788458849064
 20
737.3789460254375
 30
0.0
 11
-609.7764977935228
 21
885.4765979340526
 31
0.0
  0
LINE
  5
160
330
1F
100
AcDbEntity
  8
0-0
  6
JWW_DASHED1
 62
   120
370
     5
100
AcDbLine
 10
-461.6788458849098
 20
747.2784409620227
 30
0.0
 11
-599.8770028569422
 21
885.4765979340526
 31
0.0
  0
LINE
  5
161
330
1F
100
AcDbEntity
  8
0-0
  6
JWW_DASHED1
 62
   120
370
     5
100
AcDbLine
 10
-461.6788458849064
 20
757.1779358986532
 30
0.0
 11
-589.9775079203071
 21
885.4765979340526
 31
0.0
  0
LINE
  5
162
330
1F
100
AcDbEntity
  8
0-0
  6
JWW_DASHED1
 62
   120
370
     5
100
AcDbLine
 10
-461.6788458849098
 20
767.0774308352385
 30
0.0
 11
-580.0780129837265
 21
885.4765979340526
 31
0.0
  0
LINE
  5
163
330
1F
100
AcDbEntity
  8
0-0
  6
JWW_DASHED1
 62
   120
370
     5
100
AcDbLine
 10
-461.678845884903
 20
776.9769257718665
 30
0.0
 11
-570.1785180470913
 21
885.4765979340526
 31
0.0
  0
LINE
  5
164
330
1F
100
AcDbEntity
  8
0-0
  6
JWW_DASHED1
 62
   120
370
     5
100
AcDbLine
 10
-461.6788458849132
 20
786.876420708511
 30
0.0
 11
-560.2790231104561
 21
885.4765979340526
 31
0.0
  0
LINE
  5
165
330
1F
100
AcDbEntity
  8
0-0
  6
JWW_DASHED1
 62
   120
370
     5
100
AcDbLine
 10
-461.6788458849166
 20
796.7759156450962
 30
0.0
 11
-550.3795281738755
 21
885.4765979340526
 31
0.0
  0
LINE
  5
166
330
1F
100
AcDbEntity
  8
0-0
  6
JWW_DASHED1
 62
   120
370
     5
100
AcDbLine
 10
-461.6788458849098
 20
806.6754105817258
 30
0.0
 11
-540.4800332372404
 21
885.4765979340526
 31
0.0
  0
LINE
  5
167
330
1F
100
AcDbEntity
  8
0-0
  6
JWW_DASHED1
 62
   120
370
     5
100
AcDbLine
 10
-461.678845884903
 20
816.5749055182959
 30
0.0
 11
-530.5805383006598
 21
885.4765979340526
 31
0.0
  0
LINE
  5
168
330
1F
100
AcDbEntity
  8
0-0
  6
JWW_DASHED1
 62
   120
370
     5
100
AcDbLine
 10
-461.6788458849098
 20
826.4744004549395
 30
0.0
 11
-520.6810433640246
 21
885.4765979340526
 31
0.0
  0
LINE
  5
169
330
1F
100
AcDbEntity
  8
0-0
  6
JWW_DASHED1
 62
   120
370
     5
100
AcDbLine
 10
-461.6788458849166
 20
836.3738953915253
 30
0.0
 11
-510.781548427444
 21
885.4765979340526
 31
0.0
  0
LINE
  5
16A
330
1F
100
AcDbEntity
  8
0-0
  6
JWW_DASHED1
 62
   120
370
     5
100
AcDbLine
 10
-461.6788458849098
 20
846.2733903281544
 30
0.0
 11
-500.8820534908088
 21
885.4765979340526
 31
0.0
  0
LINE
  5
16B
330
1F
100
AcDbEntity
  8
0-0
  6
JWW_DASHED1
 62
   120
370
     5
100
AcDbLine
 10
-461.678845884903
 20
856.1728852647827
 30
0.0
 11
-490.9825585541702
 21
885.4765979340526
 31
0.0
  0
LINE
  5
16C
330
1F
100
AcDbEntity
  8
0-0
  6
JWW_DASHED1
 62
   120
370
     5
100
AcDbLine
 10
-461.6788458849064
 20
866.0723802013681
 30
0.0
 11
-481.083063617593
 21
885.4765979340526
 31
0.0
  0
LINE
  5
16D
330
1F
100
AcDbEntity
  8
0-0
  6
JWW_DASHED1
 62
   120
370
     5
100
AcDbLine
 10
-270.0674041015267
 20
-812.5234020659519
 30
0.0
 11
-271.6788458849121
 21
-810.9119602825664
 31
0.0
  0
LINE
  5
16E
330
1F
100
AcDbEntity
  8
0-0
  6
JWW_DASHED1
 62
   120
370
     5
100
AcDbLine
 10
-260.1679091648813
 20
-812.5234020659614
 30
0.0
 11
-271.6788458849223
 21
-801.012465345922
 31
0.0
  0
LINE
  5
16F
330
1F
100
AcDbEntity
  8
0-0
  6
JWW_DASHED1
 62
   120
370
     5
100
AcDbLine
 10
-250.2684142282973
 20
-812.5234020659663
 30
0.0
 11
-271.6788458849257
 21
-791.1129704093364
 31
0.0
  0
LINE
  5
170
330
1F
100
AcDbEntity
  8
0-0
  6
JWW_DASHED1
 62
   120
370
     5
100
AcDbLine
 10
-240.368919291686
 20
-812.5234020659436
 30
0.0
 11
-271.6788458849052
 21
-781.2134754727234
 31
0.0
  0
LINE
  5
171
330
1F
100
AcDbEntity
  8
0-0
  6
JWW_DASHED1
 62
   120
370
     5
100
AcDbLine
 10
-230.4694243550986
 20
-812.5234020659487
 30
0.0
 11
-271.6788458849121
 21
-771.3139805361377
 31
0.0
  0
LINE
  5
172
330
1F
100
AcDbEntity
  8
0-0
  6
JWW_DASHED1
 62
   120
370
     5
100
AcDbLine
 10
-220.5699294184532
 20
-812.5234020659583
 30
0.0
 11
-271.6788458849189
 21
-761.4144855994938
 31
0.0
  0
LINE
  5
173
330
1F
100
AcDbEntity
  8
0-0
  6
JWW_DASHED1
 62
   120
370
     5
100
AcDbLine
 10
-210.6704344818692
 20
-812.523402065963
 30
0.0
 11
-271.6788458849257
 21
-751.5149906629081
 31
0.0
  0
LINE
  5
174
330
1F
100
AcDbEntity
  8
0-0
  6
JWW_DASHED1
 62
   120
370
     5
100
AcDbLine
 10
-200.7709395452545
 20
-812.5234020659409
 30
0.0
 11
-271.6788458849018
 21
-741.6154957262946
 31
0.0
  0
LINE
  5
175
330
1F
100
AcDbEntity
  8
0-0
  6
JWW_DASHED1
 62
   120
370
     5
100
AcDbLine
 10
-190.8714446086125
 20
-812.5234020659502
 30
0.0
 11
-271.6788458849121
 21
-731.7160007896503
 31
0.0
  0
LINE
  5
176
330
1F
100
AcDbEntity
  8
0-0
  6
JWW_DASHED1
 62
   120
370
     5
100
AcDbLine
 10
-180.9719496720251
 20
-812.5234020659549
 30
0.0
 11
-271.6788458849189
 21
-721.8165058530643
 31
0.0
  0
LINE
  5
177
330
1F
100
AcDbEntity
  8
0-0
  6
JWW_DASHED1
 62
   120
370
     5
100
AcDbLine
 10
-171.0724547353831
 20
-812.5234020659643
 30
0.0
 11
-271.6788458849257
 21
-711.9170109164208
 31
0.0
  0
LINE
  5
178
330
1F
100
AcDbEntity
  8
0-0
  6
JWW_DASHED1
 62
   120
370
     5
100
AcDbLine
 10
-161.1729597988162
 20
-812.5234020659507
 30
0.0
 11
-271.6788458849155
 21
-702.0175159798503
 31
0.0
  0
LINE
  5
179
330
1F
100
AcDbEntity
  8
0-0
  6
JWW_DASHED1
 62
   120
370
     5
100
AcDbLine
 10
-151.2734648621844
 20
-812.5234020659466
 30
0.0
 11
-271.6788458849086
 21
-692.1180210432213
 31
0.0
  0
LINE
  5
17A
330
1F
100
AcDbEntity
  8
0-0
  6
JWW_DASHED1
 62
   120
370
     5
100
AcDbLine
 10
-141.373969925597
 20
-812.5234020659517
 30
0.0
 11
-271.6788458849121
 21
-682.2185261066359
 31
0.0
  0
LINE
  5
17B
330
1F
100
AcDbEntity
  8
0-0
  6
JWW_DASHED1
 62
   120
370
     5
100
AcDbLine
 10
-131.4744749889516
 20
-812.5234020659611
 30
0.0
 11
-271.6788458849223
 21
-672.3190311699925
 31
0.0
  0
LINE
  5
17C
330
1F
100
AcDbEntity
  8
0-0
  6
JWW_DASHED1
 62
   120
370
     5
100
AcDbLine
 10
-121.5749800523676
 20
-812.5234020659658
 30
0.0
 11
-271.6788458849257
 21
-662.419536233407
 31
0.0
  0
LINE
  5
17D
330
1F
100
AcDbEntity
  8
0-0
  6
JWW_DASHED1
 62
   120
370
     5
100
AcDbLine
 10
-111.6754851157563
 20
-812.5234020659439
 30
0.0
 11
-271.6788458849052
 21
-652.5200412967928
 31
0.0
  0
LINE
  5
17E
330
1F
100
AcDbEntity
  8
0-0
  6
JWW_DASHED1
 62
   120
370
     5
100
AcDbLine
 10
-101.7759901791109
 20
-812.5234020659532
 30
0.0
 11
-271.6788458849155
 21
-642.6205463601482
 31
0.0
  0
LINE
  5
17F
330
1F
100
AcDbEntity
  8
0-0
  6
JWW_DASHED1
 62
   120
370
     5
100
AcDbLine
 10
-91.87649524252691
 20
-812.523402065958
 30
0.0
 11
-271.6788458849189
 21
-632.7210514235642
 31
0.0
  0
LINE
  5
180
330
1F
100
AcDbEntity
  8
0-0
  6
JWW_DASHED1
 62
   120
370
     5
100
AcDbLine
 10
-81.97700030588493
 20
-812.5234020659622
 30
0.0
 11
-271.6788458849291
 21
-622.8215564869199
 31
0.0
  0
LINE
  5
181
330
1F
100
AcDbEntity
  8
0-0
  6
JWW_DASHED1
 62
   120
370
     5
100
AcDbLine
 10
-72.0775053693248
 20
-812.5234020659407
 30
0.0
 11
-271.6788458849052
 21
-612.922061550364
 31
0.0
  0
LINE
  5
182
330
1F
100
AcDbEntity
  8
0-0
  6
JWW_DASHED1
 62
   120
370
     5
100
AcDbLine
 10
-62.17801043268281
 20
-812.5234020659494
 30
0.0
 11
-271.6788458849121
 21
-603.0225666137195
 31
0.0
  0
LINE
  5
183
330
1F
100
AcDbEntity
  8
0-0
  6
JWW_DASHED1
 62
   120
370
     5
100
AcDbLine
 10
-52.27851549609539
 20
-812.5234020659545
 30
0.0
 11
-271.6788458849189
 21
-593.123071677134
 31
0.0
  0
LINE
  5
184
330
1F
100
AcDbEntity
  8
0-0
  6
JWW_DASHED1
 62
   120
370
     5
100
AcDbLine
 10
-42.37902055945341
 20
-812.5234020659641
 30
0.0
 11
-271.6788458849257
 21
-583.2235767404916
 31
0.0
  0
LINE
  5
185
330
1F
100
AcDbEntity
  8
0-0
  6
JWW_DASHED1
 62
   120
370
     5
100
AcDbLine
 10
-32.4795256229001
 20
-812.5234020659375
 30
0.0
 11
-271.6788458849018
 21
-573.3240818039353
 31
0.0
  0
LINE
  5
186
330
1F
100
AcDbEntity
  8
0-0
  6
JWW_DASHED1
 62
   120
370
     5
100
AcDbLine
 10
-22.5800306862547
 20
-812.5234020659464
 30
0.0
 11
-271.6788458849086
 21
-563.4245868672909
 31
0.0
  0
LINE
  5
187
330
1F
100
AcDbEntity
  8
0-0
  6
JWW_DASHED1
 62
   120
370
     5
100
AcDbLine
 10
-12.68053574960931
 20
-812.5234020659561
 30
0.0
 11
-271.6788458849189
 21
-553.5250919306485
 31
0.0
  0
LINE
  5
188
330
1F
100
AcDbEntity
  8
0-0
  6
JWW_DASHED1
 62
   120
370
     5
100
AcDbLine
 10
-2.781040813021889
 20
-812.5234020659611
 30
0.0
 11
-271.6788458849223
 21
-543.625596994063
 31
0.0
  0
LINE
  5
189
330
1F
100
AcDbEntity
  8
0-0
  6
JWW_DASHED1
 62
   120
370
     5
100
AcDbLine
 10
7.118454123589402
 20
-812.5234020659385
 30
0.0
 11
-271.6788458849018
 21
-533.7261020574477
 31
0.0
  0
LINE
  5
18A
330
1F
100
AcDbEntity
  8
0-0
  6
JWW_DASHED1
 62
   120
370
     5
100
AcDbLine
 10
17.01794906017341
 20
-812.5234020659439
 30
0.0
 11
-271.6788458849052
 21
-523.8266071208623
 31
0.0
  0
LINE
  5
18B
330
1F
100
AcDbEntity
  8
0-0
  6
JWW_DASHED1
 62
   120
370
     5
100
AcDbLine
 10
26.9174439968188
 20
-812.5234020659528
 30
0.0
 11
-271.6788458849155
 21
-513.9271121842177
 31
0.0
  0
LINE
  5
18C
330
1F
100
AcDbEntity
  8
0-0
  6
JWW_DASHED1
 62
   120
370
     5
100
AcDbLine
 10
36.81693893340281
 20
-812.523402065958
 30
0.0
 11
-271.6788458849189
 21
-504.0276172476349
 31
0.0
  0
LINE
  5
18D
330
1F
100
AcDbEntity
  8
0-0
  6
JWW_DASHED1
 62
   120
370
     5
100
AcDbLine
 10
46.71643387004139
 20
-812.5234020659585
 30
0.0
 11
-271.6788458849291
 21
-494.1281223109904
 31
0.0
  0
LINE
  5
18E
330
1F
100
AcDbEntity
  8
0-0
  6
JWW_DASHED1
 62
   120
370
     5
100
AcDbLine
 10
56.61592880660152
 20
-812.52340206594
 30
0.0
 11
-271.6788458849052
 21
-484.2286273744335
 31
0.0
  0
LINE
  5
18F
330
1F
100
AcDbEntity
  8
0-0
  6
JWW_DASHED1
 62
   120
370
     5
100
AcDbLine
 10
66.51542374324691
 20
-812.5234020659494
 30
0.0
 11
-271.6788458849121
 21
-474.3291324377887
 31
0.0
  0
LINE
  5
190
330
1F
100
AcDbEntity
  8
0-0
  6
JWW_DASHED1
 62
   120
370
     5
100
AcDbLine
 10
76.41491867989231
 20
-812.523402065959
 30
0.0
 11
-271.6788458849189
 21
-464.4296375011476
 31
0.0
  0
LINE
  5
191
330
1F
100
AcDbEntity
  8
0-0
  6
JWW_DASHED1
 62
   120
370
     5
100
AcDbLine
 10
86.31441361647632
 20
-812.5234020659643
 30
0.0
 11
-271.6788458849257
 21
-454.5301425645619
 31
0.0
  0
LINE
  5
192
330
1F
100
AcDbEntity
  8
0-0
  6
JWW_DASHED1
 62
   120
370
     5
100
AcDbLine
 10
96.21390855309102
 20
-812.5234020659415
 30
0.0
 11
-271.6788458849052
 21
-444.6306476279459
 31
0.0
  0
LINE
  5
193
330
1F
100
AcDbEntity
  8
0-0
  6
JWW_DASHED1
 62
   120
370
     5
100
AcDbLine
 10
106.113403489675
 20
-812.5234020659464
 30
0.0
 11
-271.6788458849121
 21
-434.7311526913602
 31
0.0
  0
LINE
  5
194
330
1F
100
AcDbEntity
  8
0-0
  6
JWW_DASHED1
 62
   120
370
     5
100
AcDbLine
 10
116.0128984263204
 20
-812.5234020659561
 30
0.0
 11
-271.6788458849155
 21
-424.8316577547195
 31
0.0
  0
LINE
  5
195
330
1F
100
AcDbEntity
  8
0-0
  6
JWW_DASHED1
 62
   120
370
     5
100
AcDbLine
 10
125.9123933629044
 20
-812.5234020659605
 30
0.0
 11
-271.6788458849223
 21
-414.9321628181337
 31
0.0
  0
LINE
  5
196
330
1F
100
AcDbEntity
  8
0-0
  6
JWW_DASHED1
 62
   120
370
     5
100
AcDbLine
 10
135.8118882995191
 20
-812.5234020659385
 30
0.0
 11
-271.6788458849018
 21
-405.0326678815173
 31
0.0
  0
LINE
  5
197
330
1F
100
AcDbEntity
  8
0-0
  6
JWW_DASHED1
 62
   120
370
     5
100
AcDbLine
 10
145.7113832361645
 20
-812.5234020659477
 30
0.0
 11
-271.6788458849121
 21
-395.1331729448728
 31
0.0
  0
LINE
  5
198
330
1F
100
AcDbEntity
  8
0-0
  6
JWW_DASHED1
 62
   120
370
     5
100
AcDbLine
 10
155.6108781727485
 20
-812.5234020659524
 30
0.0
 11
-271.6788458849189
 21
-385.2336780082871
 31
0.0
  0
LINE
  5
199
330
1F
100
AcDbEntity
  8
0-0
  6
JWW_DASHED1
 62
   120
370
     5
100
AcDbLine
 10
165.5103731093939
 20
-812.5234020659619
 30
0.0
 11
-271.6788458849223
 21
-375.3341830716468
 31
0.0
  0
LINE
  5
19A
330
1F
100
AcDbEntity
  8
0-0
  6
JWW_DASHED1
 62
   120
370
     5
100
AcDbLine
 10
175.4098680459506
 20
-812.5234020659392
 30
0.0
 11
-271.6788458849155
 21
-365.434688135073
 31
0.0
  0
LINE
  5
19B
330
1F
100
AcDbEntity
  8
0-0
  6
JWW_DASHED1
 62
   120
370
     5
100
AcDbLine
 10
185.3093629825926
 20
-812.5234020659447
 30
0.0
 11
-271.6788458849086
 21
-355.5351931984438
 31
0.0
  0
LINE
  5
19C
330
1F
100
AcDbEntity
  8
0-0
  6
JWW_DASHED1
 62
   120
370
     5
100
AcDbLine
 10
195.2088579191766
 20
-812.5234020659498
 30
0.0
 11
-271.6788458849155
 21
-345.6356982618581
 31
0.0
  0
LINE
  5
19D
330
1F
100
AcDbEntity
  8
0-0
  6
JWW_DASHED1
 62
   120
370
     5
100
AcDbLine
 10
205.108352855822
 20
-812.5234020659587
 30
0.0
 11
-271.6788458849189
 21
-335.7362033252183
 31
0.0
  0
LINE
  5
19E
330
1F
100
AcDbEntity
  8
0-0
  6
JWW_DASHED1
 62
   120
370
     5
100
AcDbLine
 10
215.007847792406
 20
-812.5234020659639
 30
0.0
 11
-271.6788458849257
 21
-325.8367083886326
 31
0.0
  0
LINE
  5
19F
330
1F
100
AcDbEntity
  8
0-0
  6
JWW_DASHED1
 62
   120
370
     5
100
AcDbLine
 10
224.9073427290207
 20
-812.5234020659415
 30
0.0
 11
-271.6788458849052
 21
-315.9372134520153
 31
0.0
  0
LINE
  5
1A0
330
1F
100
AcDbEntity
  8
0-0
  6
JWW_DASHED1
 62
   120
370
     5
100
AcDbLine
 10
234.8068376656627
 20
-812.5234020659509
 30
0.0
 11
-271.6788458849155
 21
-306.0377185153708
 31
0.0
  0
LINE
  5
1A1
330
1F
100
AcDbEntity
  8
0-0
  6
JWW_DASHED1
 62
   120
370
     5
100
AcDbLine
 10
244.7063326022501
 20
-812.5234020659561
 30
0.0
 11
-271.6788458849155
 21
-296.1382235787897
 31
0.0
  0
LINE
  5
1A2
330
1F
100
AcDbEntity
  8
0-0
  6
JWW_DASHED1
 62
   120
370
     5
100
AcDbLine
 10
254.6058275388785
 20
-812.5234020659509
 30
0.0
 11
-271.6788458849257
 21
-286.2387286421452
 31
0.0
  0
LINE
  5
1A3
330
1F
100
AcDbEntity
  8
0-0
  6
JWW_DASHED1
 62
   120
370
     5
100
AcDbLine
 10
264.5053224754488
 20
-812.5234020659383
 30
0.0
 11
-271.6788458849052
 21
-276.3392337055868
 31
0.0
  0
LINE
  5
1A4
330
1F
100
AcDbEntity
  8
0-0
  6
JWW_DASHED1
 62
   120
370
     5
100
AcDbLine
 10
274.4048174120942
 20
-812.5234020659475
 30
0.0
 11
-271.6788458849121
 21
-266.4397387689422
 31
0.0
  0
LINE
  5
1A5
330
1F
100
AcDbEntity
  8
0-0
  6
JWW_DASHED1
 62
   120
370
     5
100
AcDbLine
 10
284.3043123486783
 20
-812.5234020659524
 30
0.0
 11
-271.6788458849189
 21
-256.5402438323565
 31
0.0
  0
LINE
  5
1A6
330
1F
100
AcDbEntity
  8
0-0
  6
JWW_DASHED1
 62
   120
370
     5
100
AcDbLine
 10
294.2038072853236
 20
-812.5234020659622
 30
0.0
 11
-271.6788458849223
 21
-246.6407488957171
 31
0.0
  0
LINE
  5
1A7
330
1F
100
AcDbEntity
  8
0-0
  6
JWW_DASHED1
 62
   120
370
     5
100
AcDbLine
 10
304.103302221877
 20
-812.5234020659357
 30
0.0
 11
-271.6788458849155
 21
-236.741253959142
 31
0.0
  0
LINE
  5
1A8
330
1F
100
AcDbEntity
  8
0-0
  6
JWW_DASHED1
 62
   120
370
     5
100
AcDbLine
 10
314.0027971585189
 20
-812.5234020659443
 30
0.0
 11
-271.6788458849121
 21
-226.8417590225133
 31
0.0
  0
LINE
  5
1A9
330
1F
100
AcDbEntity
  8
0-0
  6
JWW_DASHED1
 62
   120
370
     5
100
AcDbLine
 10
318.3211541150868
 20
-806.9422640858749
 30
0.0
 11
-271.6788458849189
 21
-216.9422640858687
 31
0.0
  0
LINE
  5
1AA
330
1F
100
AcDbEntity
  8
0-0
  6
JWW_DASHED1
 62
   120
370
     5
100
AcDbLine
 10
318.32115411508
 20
-797.0427691492891
 30
0.0
 11
-271.6788458849189
 21
-207.042769149289
 31
0.0
  0
LINE
  5
1AB
330
1F
100
AcDbEntity
  8
0-0
  6
JWW_DASHED1
 62
   120
370
     5
100
AcDbLine
 10
318.3211541151039
 20
-787.1432742126764
 30
0.0
 11
-271.6788458849018
 21
-197.1432742126704
 31
0.0
  0
LINE
  5
1AC
330
1F
100
AcDbEntity
  8
0-0
  6
JWW_DASHED1
 62
   120
370
     5
100
AcDbLine
 10
318.321154115097
 20
-777.2437792760907
 30
0.0
 11
-271.6788458849086
 21
-187.2437792760843
 31
0.0
  0
LINE
  5
1AD
330
1F
100
AcDbEntity
  8
0-0
  6
JWW_DASHED1
 62
   120
370
     5
100
AcDbLine
 10
318.3211541150902
 20
-767.3442843394458
 30
0.0
 11
-271.6788458849189
 21
-177.3442843394398
 31
0.0
  0
LINE
  5
1AE
330
1F
100
AcDbEntity
  8
0-0
  6
JWW_DASHED1
 62
   120
370
     5
100
AcDbLine
 10
318.3211541150834
 20
-757.4447894028608
 30
0.0
 11
-271.6788458849155
 21
-167.4447894028604
 31
0.0
  0
LINE
  5
1AF
330
1F
100
AcDbEntity
  8
0-0
  6
JWW_DASHED1
 62
   120
370
     5
100
AcDbLine
 10
318.3211541150902
 20
-747.5452944662322
 30
0.0
 11
-271.6788458849257
 21
-157.5452944662159
 31
0.0
  0
LINE
  5
1B0
330
1F
100
AcDbEntity
  8
0-0
  6
JWW_DASHED1
 62
   120
370
     5
100
AcDbLine
 10
318.321154115097
 20
-737.645799529603
 30
0.0
 11
-271.6788458849086
 21
-147.6457995295969
 31
0.0
  0
LINE
  5
1B1
330
1F
100
AcDbEntity
  8
0-0
  6
JWW_DASHED1
 62
   120
370
     5
100
AcDbLine
 10
318.3211541150902
 20
-727.7463045930172
 30
0.0
 11
-271.6788458849121
 21
-137.7463045930116
 31
0.0
  0
LINE
  5
1B2
330
1F
100
AcDbEntity
  8
0-0
  6
JWW_DASHED1
 62
   120
370
     5
100
AcDbLine
 10
318.3211541150834
 20
-717.8468096563736
 30
0.0
 11
-271.6788458849189
 21
-127.8468096563731
 31
0.0
  0
LINE
  5
1B3
330
1F
100
AcDbEntity
  8
0-0
  6
JWW_DASHED1
 62
   120
370
     5
100
AcDbLine
 10
318.32115411508
 20
-707.9473147197883
 30
0.0
 11
-271.6788458849223
 21
-117.9473147197874
 31
0.0
  0
LINE
  5
1B4
330
1F
100
AcDbEntity
  8
0-0
  6
JWW_DASHED1
 62
   120
370
     5
100
AcDbLine
 10
318.3211541151005
 20
-698.0478197831743
 30
0.0
 11
-271.6788458849052
 21
-108.0478197831684
 31
0.0
  0
LINE
  5
1B5
330
1F
100
AcDbEntity
  8
0-0
  6
JWW_DASHED1
 62
   120
370
     5
100
AcDbLine
 10
318.3211541150936
 20
-688.1483248465886
 30
0.0
 11
-271.6788458849121
 21
-98.14832484658268
 31
0.0
  0
LINE
  5
1B6
330
1F
100
AcDbEntity
  8
0-0
  6
JWW_DASHED1
 62
   120
370
     5
100
AcDbLine
 10
318.3211541150868
 20
-678.2488299099454
 30
0.0
 11
-271.6788458849121
 21
-88.24882990994496
 31
0.0
  0
LINE
  5
1B7
330
1F
100
AcDbEntity
  8
0-0
  6
JWW_DASHED1
 62
   120
370
     5
100
AcDbLine
 10
318.3211541150834
 20
-668.3493349733596
 30
0.0
 11
-271.6788458849189
 21
-78.34933497335925
 31
0.0
  0
LINE
  5
1B8
330
1F
100
AcDbEntity
  8
0-0
  6
JWW_DASHED1
 62
   120
370
     5
100
AcDbLine
 10
318.3211541151039
 20
-658.4498400367453
 30
0.0
 11
-271.6788458849052
 21
-68.44984003673986
 31
0.0
  0
LINE
  5
1B9
330
1F
100
AcDbEntity
  8
0-0
  6
JWW_DASHED1
 62
   120
370
     5
100
AcDbLine
 10
318.3211541150936
 20
-648.550345100101
 30
0.0
 11
-271.6788458849121
 21
-58.55034510009531
 31
0.0
  0
LINE
  5
1BA
330
1F
100
AcDbEntity
  8
0-0
  6
JWW_DASHED1
 62
   120
370
     5
100
AcDbLine
 10
318.3211541150902
 20
-638.6508501635155
 30
0.0
 11
-271.6788458849189
 21
-48.6508501635096
 31
0.0
  0
LINE
  5
1BB
330
1F
100
AcDbEntity
  8
0-0
  6
JWW_DASHED1
 62
   120
370
     5
100
AcDbLine
 10
318.32115411508
 20
-628.7513552268724
 30
0.0
 11
-271.6788458849189
 21
-38.75135522687231
 31
0.0
  0
LINE
  5
1BC
330
1F
100
AcDbEntity
  8
0-0
  6
JWW_DASHED1
 62
   120
370
     5
100
AcDbLine
 10
318.3211541150902
 20
-618.8518602903027
 30
0.0
 11
-271.6788458849257
 21
-28.8518602902866
 31
0.0
  0
LINE
  5
1BD
330
1F
100
AcDbEntity
  8
0-0
  6
JWW_DASHED1
 62
   120
370
     5
100
AcDbLine
 10
318.321154115097
 20
-608.9523653536725
 30
0.0
 11
-271.6788458849086
 21
-18.95236535366635
 31
0.0
  0
LINE
  5
1BE
330
1F
100
AcDbEntity
  8
0-0
  6
JWW_DASHED1
 62
   120
370
     5
100
AcDbLine
 10
318.3211541150902
 20
-599.0528704170865
 30
0.0
 11
-271.6788458849155
 21
-9.052870417081067
 31
0.0
  0
LINE
  5
1BF
330
1F
100
AcDbEntity
  8
0-0
  6
JWW_DASHED1
 62
   120
370
     5
100
AcDbLine
 10
318.3211541150834
 20
-589.1533754804441
 30
0.0
 11
-271.6788458849155
 21
0.8466245195562294
 31
0.0
  0
LINE
  5
1C0
330
1F
100
AcDbEntity
  8
0-0
  6
JWW_DASHED1
 62
   120
370
     5
100
AcDbLine
 10
318.3211541150766
 20
-579.2538805438584
 30
0.0
 11
-271.6788458849223
 21
10.74611945614151
 31
0.0
  0
LINE
  5
1C1
330
1F
100
AcDbEntity
  8
0-0
  6
JWW_DASHED1
 62
   120
370
     5
100
AcDbLine
 10
318.321154115097
 20
-569.3543856072436
 30
0.0
 11
-271.6788458849052
 21
20.64561439276218
 31
0.0
  0
LINE
  5
1C2
330
1F
100
AcDbEntity
  8
0-0
  6
JWW_DASHED1
 62
   120
370
     5
100
AcDbLine
 10
318.3211541150902
 20
-559.454890670599
 30
0.0
 11
-271.6788458849155
 21
30.54510932940673
 31
0.0
  0
LINE
  5
1C3
330
1F
100
AcDbEntity
  8
0-0
  6
JWW_DASHED1
 62
   120
370
     5
100
AcDbLine
 10
318.3211541150868
 20
-549.5553957340157
 30
0.0
 11
-271.6788458849121
 21
40.44460426598434
 31
0.0
  0
LINE
  5
1C4
330
1F
100
AcDbEntity
  8
0-0
  6
JWW_DASHED1
 62
   120
370
     5
100
AcDbLine
 10
318.3211541150766
 20
-539.6559007973715
 30
0.0
 11
-271.6788458849223
 21
50.34409920262888
 31
0.0
  0
LINE
  5
1C5
330
1F
100
AcDbEntity
  8
0-0
  6
JWW_DASHED1
 62
   120
370
     5
100
AcDbLine
 10
318.3211541151005
 20
-529.756405860815
 30
0.0
 11
-271.6788458849052
 21
60.24359413919115
 31
0.0
  0
LINE
  5
1C6
330
1F
100
AcDbEntity
  8
0-0
  6
JWW_DASHED1
 62
   120
370
     5
100
AcDbLine
 10
318.3211541150936
 20
-519.8569109241706
 30
0.0
 11
-271.6788458849121
 21
70.14308907583569
 31
0.0
  0
LINE
  5
1C7
330
1F
100
AcDbEntity
  8
0-0
  6
JWW_DASHED1
 62
   120
370
     5
100
AcDbLine
 10
318.3211541150868
 20
-509.9574159875845
 30
0.0
 11
-271.6788458849189
 21
80.04258401242097
 31
0.0
  0
LINE
  5
1C8
330
1F
100
AcDbEntity
  8
0-0
  6
JWW_DASHED1
 62
   120
370
     5
100
AcDbLine
 10
318.32115411508
 20
-500.0579210509432
 30
0.0
 11
-271.6788458849189
 21
89.94207894905699
 31
0.0
  0
LINE
  5
1C9
330
1F
100
AcDbEntity
  8
0-0
  6
JWW_DASHED1
 62
   120
370
     5
100
AcDbLine
 10
318.3211541150902
 20
-490.1584261143732
 30
0.0
 11
-271.6788458849257
 21
99.8415738856427
 31
0.0
  0
LINE
  5
1CA
330
1F
100
AcDbEntity
  8
0-0
  6
JWW_DASHED1
 62
   120
370
     5
100
AcDbLine
 10
318.321154115097
 20
-480.2589311777419
 30
0.0
 11
-271.6788458849121
 21
109.7410688222642
 31
0.0
  0
LINE
  5
1CB
330
1F
100
AcDbEntity
  8
0-0
  6
JWW_DASHED1
 62
   120
370
     5
100
AcDbLine
 10
318.3211541150868
 20
-470.3594362410969
 30
0.0
 11
-271.6788458849189
 21
119.6405637589088
 31
0.0
  0
LINE
  5
1CC
330
1F
100
AcDbEntity
  8
0-0
  6
JWW_DASHED1
 62
   120
370
     5
100
AcDbLine
 10
318.3211541150834
 20
-460.459941304515
 30
0.0
 11
-271.6788458849155
 21
129.5400586954851
 31
0.0
  0
LINE
  5
1CD
330
1F
100
AcDbEntity
  8
0-0
  6
JWW_DASHED1
 62
   120
370
     5
100
AcDbLine
 10
318.3211541151039
 20
-450.5604463678986
 30
0.0
 11
-271.6788458849189
 21
139.4395536321228
 31
0.0
  0
LINE
  5
1CE
330
1F
100
AcDbEntity
  8
0-0
  6
JWW_DASHED1
 62
   120
370
     5
100
AcDbLine
 10
318.321154115097
 20
-440.6609514313129
 30
0.0
 11
-271.6788458849086
 21
149.3390485686928
 31
0.0
  0
LINE
  5
1CF
330
1F
100
AcDbEntity
  8
0-0
  6
JWW_DASHED1
 62
   120
370
     5
100
AcDbLine
 10
318.3211541150902
 20
-430.7614564946684
 30
0.0
 11
-271.6788458849189
 21
159.2385435053373
 31
0.0
  0
LINE
  5
1D0
330
1F
100
AcDbEntity
  8
0-0
  6
JWW_DASHED1
 62
   120
370
     5
100
AcDbLine
 10
318.3211541150868
 20
-420.8619615580865
 30
0.0
 11
-271.6788458849121
 21
169.1380384419141
 31
0.0
  0
LINE
  5
1D1
330
1F
100
AcDbEntity
  8
0-0
  6
JWW_DASHED1
 62
   120
370
     5
100
AcDbLine
 10
318.3211541150766
 20
-410.962466621442
 30
0.0
 11
-271.6788458849223
 21
179.0375333785582
 31
0.0
  0
LINE
  5
1D2
330
1F
100
AcDbEntity
  8
0-0
  6
JWW_DASHED1
 62
   120
370
     5
100
AcDbLine
 10
318.321154115097
 20
-401.0629716848251
 30
0.0
 11
-271.6788458849086
 21
188.9370283151801
 31
0.0
  0
LINE
  5
1D3
330
1F
100
AcDbEntity
  8
0-0
  6
JWW_DASHED1
 62
   120
370
     5
100
AcDbLine
 10
318.3211541150902
 20
-391.1634767482399
 30
0.0
 11
-271.6788458849155
 21
198.8365232517658
 31
0.0
  0
LINE
  5
1D4
330
1F
100
AcDbEntity
  8
0-0
  6
JWW_DASHED1
 62
   120
370
     5
100
AcDbLine
 10
318.3211541150868
 20
-381.2639818115991
 30
0.0
 11
-271.6788458849155
 21
208.736018188401
 31
0.0
  0
LINE
  5
1D5
330
1F
100
AcDbEntity
  8
0-0
  6
JWW_DASHED1
 62
   120
370
     5
100
AcDbLine
 10
318.32115411508
 20
-371.3644868750134
 30
0.0
 11
-271.6788458849189
 21
218.6355131249867
 31
0.0
  0
LINE
  5
1D6
330
1F
100
AcDbEntity
  8
0-0
  6
JWW_DASHED1
 62
   120
370
     5
100
AcDbLine
 10
318.3211541151005
 20
-361.464991938397
 30
0.0
 11
-271.6788458849052
 21
228.5350080616091
 31
0.0
  0
LINE
  5
1D7
330
1F
100
AcDbEntity
  8
0-0
  6
JWW_DASHED1
 62
   120
370
     5
100
AcDbLine
 10
318.3211541150936
 20
-351.5654970018113
 30
0.0
 11
-271.6788458849121
 21
238.4345029981948
 31
0.0
  0
LINE
  5
1D8
330
1F
100
AcDbEntity
  8
0-0
  6
JWW_DASHED1
 62
   120
370
     5
100
AcDbLine
 10
318.3211541150834
 20
-341.6660020651668
 30
0.0
 11
-271.6788458849223
 21
248.3339979348393
 31
0.0
  0
LINE
  5
1D9
330
1F
100
AcDbEntity
  8
0-0
  6
JWW_DASHED1
 62
   120
370
     5
100
AcDbLine
 10
318.3211541150834
 20
-331.7665071285853
 30
0.0
 11
-271.6788458849155
 21
258.2334928714148
 31
0.0
  0
LINE
  5
1DA
330
1F
100
AcDbEntity
  8
0-0
  6
JWW_DASHED1
 62
   120
370
     5
100
AcDbLine
 10
318.3211541151039
 20
-321.8670121919681
 30
0.0
 11
-271.6788458849052
 21
268.1329878080376
 31
0.0
  0
LINE
  5
1DB
330
1F
100
AcDbEntity
  8
0-0
  6
JWW_DASHED1
 62
   120
370
     5
100
AcDbLine
 10
318.3211541150936
 20
-311.9675172553235
 30
0.0
 11
-271.6788458849121
 21
278.0324827446817
 31
0.0
  0
LINE
  5
1DC
330
1F
100
AcDbEntity
  8
0-0
  6
JWW_DASHED1
 62
   120
370
     5
100
AcDbLine
 10
318.3211541150868
 20
-302.0680223187378
 30
0.0
 11
-271.6788458849189
 21
287.9319776812679
 31
0.0
  0
LINE
  5
1DD
330
1F
100
AcDbEntity
  8
0-0
  6
JWW_DASHED1
 62
   120
370
     5
100
AcDbLine
 10
318.3211541150834
 20
-292.1685273820984
 30
0.0
 11
-271.6788458849189
 21
297.8314726179022
 31
0.0
  0
LINE
  5
1DE
330
1F
100
AcDbEntity
  8
0-0
  6
JWW_DASHED1
 62
   120
370
     5
100
AcDbLine
 10
318.3211541150936
 20
-282.2690324455284
 30
0.0
 11
-271.6788458849223
 21
307.7309675544879
 31
0.0
  0
LINE
  5
1DF
330
1F
100
AcDbEntity
  8
0-0
  6
JWW_DASHED1
 62
   120
370
     5
100
AcDbLine
 10
318.321154115097
 20
-272.3695375088946
 30
0.0
 11
-271.6788458849121
 21
317.6304624911111
 31
0.0
  0
LINE
  5
1E0
330
1F
100
AcDbEntity
  8
0-0
  6
JWW_DASHED1
 62
   120
370
     5
100
AcDbLine
 10
318.3211541150902
 20
-262.4700425723088
 30
0.0
 11
-271.6788458849155
 21
327.5299574276968
 31
0.0
  0
LINE
  5
1E1
330
1F
100
AcDbEntity
  8
0-0
  6
JWW_DASHED1
 62
   120
370
     5
100
AcDbLine
 10
318.3211541150868
 20
-252.5705476356698
 30
0.0
 11
-271.6788458849121
 21
337.4294523643303
 31
0.0
  0
LINE
  5
1E2
330
1F
100
AcDbEntity
  8
0-0
  6
JWW_DASHED1
 62
   120
370
     5
100
AcDbLine
 10
318.3211541150834
 20
-242.6710526990846
 30
0.0
 11
-271.6788458849189
 21
347.328947300916
 31
0.0
  0
LINE
  5
1E3
330
1F
100
AcDbEntity
  8
0-0
  6
JWW_DASHED1
 62
   120
370
     5
100
AcDbLine
 10
318.321154115097
 20
-232.771557762466
 30
0.0
 11
-271.6788458849086
 21
357.2284422375396
 31
0.0
  0
LINE
  5
1E4
330
1F
100
AcDbEntity
  8
0-0
  6
JWW_DASHED1
 62
   120
370
     5
100
AcDbLine
 10
318.3211541150902
 20
-222.8720628258219
 30
0.0
 11
-271.6788458849189
 21
367.1279371741842
 31
0.0
  0
LINE
  5
1E5
330
1F
100
AcDbEntity
  8
0-0
  6
JWW_DASHED1
 62
   120
370
     5
100
AcDbLine
 10
318.3211541150834
 20
-212.9725678892362
 30
0.0
 11
-271.6788458849223
 21
377.02743211077
 31
0.0
  0
LINE
  5
1E6
330
1F
100
AcDbEntity
  8
0-0
  6
JWW_DASHED1
 62
   120
370
     5
100
AcDbLine
 10
318.32115411508
 20
-203.0730729525968
 30
0.0
 11
-271.6788458849189
 21
386.9269270474034
 31
0.0
  0
LINE
  5
1E7
330
1F
100
AcDbEntity
  8
0-0
  6
JWW_DASHED1
 62
   120
370
     5
100
AcDbLine
 10
318.3211541151005
 20
-193.1735780160375
 30
0.0
 11
-271.6788458849052
 21
396.8264219839682
 31
0.0
  0
LINE
  5
1E8
330
1F
100
AcDbEntity
  8
0-0
  6
JWW_DASHED1
 62
   120
370
     5
100
AcDbLine
 10
318.3211541150902
 20
-183.2740830793929
 30
0.0
 11
-271.6788458849121
 21
406.7259169206127
 31
0.0
  0
LINE
  5
1E9
330
1F
100
AcDbEntity
  8
0-0
  6
JWW_DASHED1
 62
   120
370
     5
100
AcDbLine
 10
318.3211541150868
 20
-173.3745881428072
 30
0.0
 11
-271.6788458849189
 21
416.6254118571985
 31
0.0
  0
LINE
  5
1EA
330
1F
100
AcDbEntity
  8
0-0
  6
JWW_DASHED1
 62
   120
370
     5
100
AcDbLine
 10
318.3211541150834
 20
-163.4750932061687
 30
0.0
 11
-271.6788458849189
 21
426.5249067938315
 31
0.0
  0
LINE
  5
1EB
330
1F
100
AcDbEntity
  8
0-0
  6
JWW_DASHED1
 62
   120
370
     5
100
AcDbLine
 10
318.3211541150936
 20
-153.5755982695991
 30
0.0
 11
-271.6788458849223
 21
436.4244017304172
 31
0.0
  0
LINE
  5
1EC
330
1F
100
AcDbEntity
  8
0-0
  6
JWW_DASHED1
 62
   120
370
     5
100
AcDbLine
 10
318.3211541150936
 20
-143.676103332964
 30
0.0
 11
-271.6788458849121
 21
446.3238966670417
 31
0.0
  0
LINE
  5
1ED
330
1F
100
AcDbEntity
  8
0-0
  6
JWW_DASHED1
 62
   120
370
     5
100
AcDbLine
 10
318.3211541150834
 20
-133.7766083963194
 30
0.0
 11
-271.6788458849189
 21
456.2233916036863
 31
0.0
  0
LINE
  5
1EE
330
1F
100
AcDbEntity
  8
0-0
  6
JWW_DASHED1
 62
   120
370
     5
100
AcDbLine
 10
318.3211541150868
 20
-123.8771134597405
 30
0.0
 11
-271.6788458849121
 21
466.12288654026
 31
0.0
  0
LINE
  5
1EF
330
1F
100
AcDbEntity
  8
0-0
  6
JWW_DASHED1
 62
   120
370
     5
100
AcDbLine
 10
318.3211541151039
 20
-113.9776185231212
 30
0.0
 11
-271.6788458849189
 21
476.0223814769003
 31
0.0
  0
LINE
  5
1F0
330
1F
100
AcDbEntity
  8
0-0
  6
JWW_DASHED1
 62
   120
370
     5
100
AcDbLine
 10
318.321154115097
 20
-104.0781235865354
 30
0.0
 11
-271.6788458849086
 21
485.9218764134703
 31
0.0
  0
LINE
  5
1F1
330
1F
100
AcDbEntity
  8
0-0
  6
JWW_DASHED1
 62
   120
370
     5
100
AcDbLine
 10
318.3211541150902
 20
-94.17862864989132
 30
0.0
 11
-271.6788458849189
 21
495.8213713501148
 31
0.0
  0
LINE
  5
1F2
330
1F
100
AcDbEntity
  8
0-0
  6
JWW_DASHED1
 62
   120
370
     5
100
AcDbLine
 10
318.3211541150902
 20
-84.279133713312
 30
0.0
 11
-271.6788458849121
 21
505.7208662866881
 31
0.0
  0
LINE
  5
1F3
330
1F
100
AcDbEntity
  8
0-0
  6
JWW_DASHED1
 62
   120
370
     5
100
AcDbLine
 10
318.32115411508
 20
-74.37963877666789
 30
0.0
 11
-271.6788458849189
 21
515.6203612233322
 31
0.0
  0
LINE
  5
1F4
330
1F
100
AcDbEntity
  8
0-0
  6
JWW_DASHED1
 62
   120
370
     5
100
AcDbLine
 10
318.321154115097
 20
-64.48014384004807
 30
0.0
 11
-271.6788458849086
 21
525.5198561599581
 31
0.0
  0
LINE
  5
1F5
330
1F
100
AcDbEntity
  8
0-0
  6
JWW_DASHED1
 62
   120
370
     5
100
AcDbLine
 10
318.3211541150902
 20
-54.58064890346236
 30
0.0
 11
-271.6788458849155
 21
535.4193510965433
 31
0.0
  0
LINE
  5
1F6
330
1F
100
AcDbEntity
  8
0-0
  6
JWW_DASHED1
 62
   120
370
     5
100
AcDbLine
 10
318.3211541150902
 20
-44.68115396682464
 30
0.0
 11
-271.6788458849121
 21
545.3188460331755
 31
0.0
  0
LINE
  5
1F7
330
1F
100
AcDbEntity
  8
0-0
  6
JWW_DASHED1
 62
   120
370
     5
100
AcDbLine
 10
318.3211541150834
 20
-34.78165903023893
 30
0.0
 11
-271.6788458849155
 21
555.2183409697612
 31
0.0
  0
LINE
  5
1F8
330
1F
100
AcDbEntity
  8
0-0
  6
JWW_DASHED1
 62
   120
370
     5
100
AcDbLine
 10
318.321154115097
 20
-24.88216409361911
 30
0.0
 11
-271.6788458849052
 21
565.1178359063865
 31
0.0
  0
LINE
  5
1F9
330
1F
100
AcDbEntity
  8
0-0
  6
JWW_DASHED1
 62
   120
370
     5
100
AcDbLine
 10
318.3211541150936
 20
-14.9826691570334
 30
0.0
 11
-271.6788458849121
 21
575.0173308429723
 31
0.0
  0
LINE
  5
1FA
330
1F
100
AcDbEntity
  8
0-0
  6
JWW_DASHED1
 62
   120
370
     5
100
AcDbLine
 10
318.3211541150834
 20
-5.083174220388855
 30
0.0
 11
-271.6788458849223
 21
584.9168257796168
 31
0.0
  0
LINE
  5
1FB
330
1F
100
AcDbEntity
  8
0-0
  6
JWW_DASHED1
 62
   120
370
     5
100
AcDbLine
 10
318.3211541150868
 20
4.816320716188756
 30
0.0
 11
-271.6788458849121
 21
594.8163207161894
 31
0.0
  0
LINE
  5
1FC
330
1F
100
AcDbEntity
  8
0-0
  6
JWW_DASHED1
 62
   120
370
     5
100
AcDbLine
 10
318.3211541151005
 20
14.71581565280985
 30
0.0
 11
-271.6788458849189
 21
604.7158156528304
 31
0.0
  0
LINE
  5
1FD
330
1F
100
AcDbEntity
  8
0-0
  6
JWW_DASHED1
 62
   120
370
     5
100
AcDbLine
 10
318.3211541150936
 20
24.61531058945397
 30
0.0
 11
-271.6788458849121
 21
614.6153105894597
 31
0.0
  0
LINE
  5
1FE
330
1F
100
AcDbEntity
  8
0-0
  6
JWW_DASHED1
 62
   120
370
     5
100
AcDbLine
 10
318.3211541150868
 20
34.51480552603968
 30
0.0
 11
-271.6788458849189
 21
624.5148055260454
 31
0.0
  0
LINE
  5
1FF
330
1F
100
AcDbEntity
  8
0-0
  6
JWW_DASHED1
 62
   120
370
     5
100
AcDbLine
 10
318.3211541150868
 20
44.41430046267612
 30
0.0
 11
-271.6788458849155
 21
634.4143004626767
 31
0.0
  0
LINE
  5
200
330
1F
100
AcDbEntity
  8
0-0
  6
JWW_DASHED1
 62
   120
370
     5
100
AcDbLine
 10
318.32115411508
 20
54.31379539926183
 30
0.0
 11
-271.6788458849189
 21
644.313795399262
 31
0.0
  0
LINE
  5
201
330
1F
100
AcDbEntity
  8
0-0
  6
JWW_DASHED1
 62
   120
370
     5
100
AcDbLine
 10
318.321154115097
 20
64.2132903358825
 30
0.0
 11
-271.6788458849121
 21
654.2132903358886
 31
0.0
  0
LINE
  5
202
330
1F
100
AcDbEntity
  8
0-0
  6
JWW_DASHED1
 62
   120
370
     5
100
AcDbLine
 10
318.3211541150902
 20
74.11278527246822
 30
0.0
 11
-271.6788458849155
 21
664.112785272474
 31
0.0
  0
LINE
  5
203
330
1F
100
AcDbEntity
  8
0-0
  6
JWW_DASHED1
 62
   120
370
     5
100
AcDbLine
 10
318.3211541150902
 20
84.01228020910466
 30
0.0
 11
-271.6788458849121
 21
674.0122802091048
 31
0.0
  0
LINE
  5
204
330
1F
100
AcDbEntity
  8
0-0
  6
JWW_DASHED1
 62
   120
370
     5
100
AcDbLine
 10
318.3211541150834
 20
93.91177514568994
 30
0.0
 11
-271.6788458849155
 21
683.9117751456901
 31
0.0
  0
LINE
  5
205
330
1F
100
AcDbEntity
  8
0-0
  6
JWW_DASHED1
 62
   120
370
     5
100
AcDbLine
 10
318.321154115097
 20
103.8112700823115
 30
0.0
 11
-271.6788458849086
 21
693.8112700823172
 31
0.0
  0
LINE
  5
206
330
1F
100
AcDbEntity
  8
0-0
  6
JWW_DASHED1
 62
   120
370
     5
100
AcDbLine
 10
318.3211541150902
 20
113.710765018956
 30
0.0
 11
-271.6788458849189
 21
703.7107650189616
 31
0.0
  0
LINE
  5
207
330
1F
100
AcDbEntity
  8
0-0
  6
JWW_DASHED1
 62
   120
370
     5
100
AcDbLine
 10
318.3211541150834
 20
123.6102599555417
 30
0.0
 11
-271.6788458849223
 21
713.6102599555475
 31
0.0
  0
LINE
  5
208
330
1F
100
AcDbEntity
  8
0-0
  6
JWW_DASHED1
 62
   120
370
     5
100
AcDbLine
 10
318.3211541150834
 20
133.5097548921773
 30
0.0
 11
-271.6788458849189
 21
723.5097548921774
 31
0.0
  0
LINE
  5
209
330
1F
100
AcDbEntity
  8
0-0
  6
JWW_DASHED1
 62
   120
370
     5
100
AcDbLine
 10
318.3211541151005
 20
143.4092498287404
 30
0.0
 11
-271.6788458849189
 21
733.4092498287614
 31
0.0
  0
LINE
  5
20A
330
1F
100
AcDbEntity
  8
0-0
  6
JWW_DASHED1
 62
   120
370
     5
100
AcDbLine
 10
318.3211541150902
 20
153.308744765385
 30
0.0
 11
-271.6788458849155
 21
743.3087447653907
 31
0.0
  0
LINE
  5
20B
330
1F
100
AcDbEntity
  8
0-0
  6
JWW_DASHED1
 62
   120
370
     5
100
AcDbLine
 10
318.3211541150868
 20
163.2082397019703
 30
0.0
 11
-271.6788458849189
 21
753.2082397019759
 31
0.0
  0
LINE
  5
20C
330
1F
100
AcDbEntity
  8
0-0
  6
JWW_DASHED1
 62
   120
370
     5
100
AcDbLine
 10
318.3211541150868
 20
173.1077346386054
 30
0.0
 11
-271.6788458849155
 21
763.107734638606
 31
0.0
  0
LINE
  5
20D
330
1F
100
AcDbEntity
  8
0-0
  6
JWW_DASHED1
 62
   120
370
     5
100
AcDbLine
 10
318.32115411508
 20
183.0072295751916
 30
0.0
 11
-271.6788458849189
 21
773.0072295751917
 31
0.0
  0
LINE
  5
20E
330
1F
100
AcDbEntity
  8
0-0
  6
JWW_DASHED1
 62
   120
370
     5
100
AcDbLine
 10
318.3211541150936
 20
192.9067245118131
 30
0.0
 11
-271.6788458849121
 21
782.9067245118192
 31
0.0
  0
LINE
  5
20F
330
1F
100
AcDbEntity
  8
0-0
  6
JWW_DASHED1
 62
   120
370
     5
100
AcDbLine
 10
318.3211541150834
 20
202.8062194484576
 30
0.0
 11
-271.6788458849223
 21
792.8062194484637
 31
0.0
  0
LINE
  5
210
330
1F
100
AcDbEntity
  8
0-0
  6
JWW_DASHED1
 62
   120
370
     5
100
AcDbLine
 10
318.3211541150902
 20
212.7057143850335
 30
0.0
 11
-271.6788458849121
 21
802.7057143850345
 31
0.0
  0
LINE
  5
211
330
1F
100
AcDbEntity
  8
0-0
  6
JWW_DASHED1
 62
   120
370
     5
100
AcDbLine
 10
318.321154115097
 20
222.6052093216627
 30
0.0
 11
-271.6788458849189
 21
812.6052093216787
 31
0.0
  0
LINE
  5
212
330
1F
100
AcDbEntity
  8
0-0
  6
JWW_DASHED1
 62
   120
370
     5
100
AcDbLine
 10
318.321154115097
 20
232.504704258242
 30
0.0
 11
-271.6788458849086
 21
822.5047042582478
 31
0.0
  0
LINE
  5
213
330
1F
100
AcDbEntity
  8
0-0
  6
JWW_DASHED1
 62
   120
370
     5
100
AcDbLine
 10
318.3211541150868
 20
242.4041991948862
 30
0.0
 11
-271.6788458849189
 21
832.4041991948923
 31
0.0
  0
LINE
  5
214
330
1F
100
AcDbEntity
  8
0-0
  6
JWW_DASHED1
 62
   120
370
     5
100
AcDbLine
 10
318.3211541150834
 20
252.3036941314719
 30
0.0
 11
-271.6788458849223
 21
842.3036941314775
 31
0.0
  0
LINE
  5
215
330
1F
100
AcDbEntity
  8
0-0
  6
JWW_DASHED1
 62
   120
370
     5
100
AcDbLine
 10
318.3211541150834
 20
262.2031890681066
 30
0.0
 11
-271.6788458849189
 21
852.2031890681071
 31
0.0
  0
LINE
  5
216
330
1F
100
AcDbEntity
  8
0-0
  6
JWW_DASHED1
 62
   120
370
     5
100
AcDbLine
 10
318.321154115097
 20
272.1026840047298
 30
0.0
 11
-271.6788458849121
 21
862.1026840047355
 31
0.0
  0
LINE
  5
217
330
1F
100
AcDbEntity
  8
0-0
  6
JWW_DASHED1
 62
   120
370
     5
100
AcDbLine
 10
318.3211541150902
 20
282.0021789413155
 30
0.0
 11
-271.6788458849155
 21
872.0021789413213
 31
0.0
  0
LINE
  5
218
330
1F
100
AcDbEntity
  8
0-0
  6
JWW_DASHED1
 62
   120
370
     5
100
AcDbLine
 10
318.3211541150902
 20
291.9016738779499
 30
0.0
 11
-271.6788458849086
 21
881.90167387795
 31
0.0
  0
LINE
  5
219
330
1F
100
AcDbEntity
  8
0-0
  6
JWW_DASHED1
 62
   120
370
     5
100
AcDbLine
 10
318.3211541150868
 20
301.8011688145351
 30
0.0
 11
-265.3542750044332
 21
885.4765979340526
 31
0.0
  0
LINE
  5
21A
330
1F
100
AcDbEntity
  8
0-0
  6
JWW_DASHED1
 62
   120
370
     5
100
AcDbLine
 10
318.3211541150834
 20
875.9718751380126
 30
0.0
 11
308.8164313190421
 21
885.4765979340526
 31
0.0
  0
LINE
  5
21B
330
1F
100
AcDbEntity
  8
0-0
  6
JWW_DASHED1
 62
   120
370
     5
100
AcDbLine
 10
318.321154115097
 20
311.7006637511579
 30
0.0
 11
-255.454780067798
 21
885.4765979340526
 31
0.0
  0
LINE
  5
21C
330
1F
100
AcDbEntity
  8
0-0
  6
JWW_DASHED1
 62
   120
370
     5
100
AcDbLine
 10
318.3211541150936
 20
321.6001586877437
 30
0.0
 11
-245.5552851312174
 21
885.4765979340526
 31
0.0
  0
LINE
  5
21D
330
1F
100
AcDbEntity
  8
0-0
  6
JWW_DASHED1
 62
   120
370
     5
100
AcDbLine
 10
318.3211541150834
 20
331.4996536243882
 30
0.0
 11
-235.6557901945823
 21
885.4765979340526
 31
0.0
  0
LINE
  5
21E
330
1F
100
AcDbEntity
  8
0-0
  6
JWW_DASHED1
 62
   120
370
     5
100
AcDbLine
 10
318.3211541150902
 20
341.3991485609632
 30
0.0
 11
-225.7562952580017
 21
885.4765979340526
 31
0.0
  0
LINE
  5
21F
330
1F
100
AcDbEntity
  8
0-0
  6
JWW_DASHED1
 62
   120
370
     5
100
AcDbLine
 10
318.3211541151005
 20
351.2986434975869
 30
0.0
 11
-215.8568003213665
 21
885.4765979340526
 31
0.0
  0
LINE
  5
220
330
1F
100
AcDbEntity
  8
0-0
  6
JWW_DASHED1
 62
   120
370
     5
100
AcDbLine
 10
318.3211541150902
 20
361.1981384342315
 30
0.0
 11
-205.9573053847313
 21
885.4765979340526
 31
0.0
  0
LINE
  5
221
330
1F
100
AcDbEntity
  8
0-0
  6
JWW_DASHED1
 62
   120
370
     5
100
AcDbLine
 10
318.3211541150868
 20
371.0976333708172
 30
0.0
 11
-196.0578104481507
 21
885.4765979340526
 31
0.0
  0
LINE
  5
222
330
1F
100
AcDbEntity
  8
0-0
  6
JWW_DASHED1
 62
   120
370
     5
100
AcDbLine
 10
318.3211541150902
 20
380.9971283074506
 30
0.0
 11
-186.1583155115156
 21
885.4765979340526
 31
0.0
  0
LINE
  5
223
330
1F
100
AcDbEntity
  8
0-0
  6
JWW_DASHED1
 62
   120
370
     5
100
AcDbLine
 10
318.3211541150834
 20
390.8966232440363
 30
0.0
 11
-176.258820574935
 21
885.4765979340526
 31
0.0
  0
LINE
  5
224
330
1F
100
AcDbEntity
  8
0-0
  6
JWW_DASHED1
 62
   120
370
     5
100
AcDbLine
 10
318.3211541150936
 20
400.7961181806604
 30
0.0
 11
-166.3593256382998
 21
885.4765979340526
 31
0.0
  0
LINE
  5
225
330
1F
100
AcDbEntity
  8
0-0
  6
JWW_DASHED1
 62
   120
370
     5
100
AcDbLine
 10
318.3211541150902
 20
410.6956131172457
 30
0.0
 11
-156.4598307017192
 21
885.4765979340526
 31
0.0
  0
LINE
  5
226
330
1F
100
AcDbEntity
  8
0-0
  6
JWW_DASHED1
 62
   120
370
     5
100
AcDbLine
 10
318.3211541150902
 20
420.5951080538787
 30
0.0
 11
-146.5603357650841
 21
885.4765979340526
 31
0.0
  0
LINE
  5
227
330
1F
100
AcDbEntity
  8
0-0
  6
JWW_DASHED1
 62
   120
370
     5
100
AcDbLine
 10
318.3211541150868
 20
430.4946029904644
 30
0.0
 11
-136.6608408285035
 21
885.4765979340526
 31
0.0
  0
LINE
  5
228
330
1F
100
AcDbEntity
  8
0-0
  6
JWW_DASHED1
 62
   120
370
     5
100
AcDbLine
 10
318.321154115097
 20
440.394097927089
 30
0.0
 11
-126.7613458918683
 21
885.4765979340526
 31
0.0
  0
LINE
  5
229
330
1F
100
AcDbEntity
  8
0-0
  6
JWW_DASHED1
 62
   120
370
     5
100
AcDbLine
 10
318.3211541150902
 20
450.2935928637335
 30
0.0
 11
-116.8618509552331
 21
885.4765979340526
 31
0.0
  0
LINE
  5
22A
330
1F
100
AcDbEntity
  8
0-0
  6
JWW_DASHED1
 62
   120
370
     5
100
AcDbLine
 10
318.3211541150834
 20
460.1930878003188
 30
0.0
 11
-106.9623560186491
 21
885.4765979340526
 31
0.0
  0
LINE
  5
22B
330
1F
100
AcDbEntity
  8
0-0
  6
JWW_DASHED1
 62
   120
370
     5
100
AcDbLine
 10
318.3211541150868
 20
470.0925827369518
 30
0.0
 11
-97.06286108201738
 21
885.4765979340526
 31
0.0
  0
LINE
  5
22C
330
1F
100
AcDbEntity
  8
0-0
  6
JWW_DASHED1
 62
   120
370
     5
100
AcDbLine
 10
318.3211541151005
 20
479.9920776735175
 30
0.0
 11
-87.16336614543337
 21
885.4765979340526
 31
0.0
  0
LINE
  5
22D
330
1F
100
AcDbEntity
  8
0-0
  6
JWW_DASHED1
 62
   120
370
     5
100
AcDbLine
 10
318.3211541150902
 20
489.891572610162
 30
0.0
 11
-77.26387120880162
 21
885.4765979340526
 31
0.0
  0
LINE
  5
22E
330
1F
100
AcDbEntity
  8
0-0
  6
JWW_DASHED1
 62
   120
370
     5
100
AcDbLine
 10
318.3211541150868
 20
499.7910675467473
 30
0.0
 11
-67.36437627222102
 21
885.4765979340526
 31
0.0
  0
LINE
  5
22F
330
1F
100
AcDbEntity
  8
0-0
  6
JWW_DASHED1
 62
   120
370
     5
100
AcDbLine
 10
318.3211541150902
 20
509.6905624833803
 30
0.0
 11
-57.46488133558586
 21
885.4765979340526
 31
0.0
  0
LINE
  5
230
330
1F
100
AcDbEntity
  8
0-0
  6
JWW_DASHED1
 62
   120
370
     5
100
AcDbLine
 10
318.3211541150834
 20
519.5900574199657
 30
0.0
 11
-47.56538639900526
 21
885.4765979340526
 31
0.0
  0
LINE
  5
231
330
1F
100
AcDbEntity
  8
0-0
  6
JWW_DASHED1
 62
   120
370
     5
100
AcDbLine
 10
318.3211541150936
 20
529.4895523565906
 30
0.0
 11
-37.6658914623701
 21
885.4765979340526
 31
0.0
  0
LINE
  5
232
330
1F
100
AcDbEntity
  8
0-0
  6
JWW_DASHED1
 62
   120
370
     5
100
AcDbLine
 10
318.3211541150834
 20
539.3890472932351
 30
0.0
 11
-27.76639652573493
 21
885.4765979340526
 31
0.0
  0
LINE
  5
233
330
1F
100
AcDbEntity
  8
0-0
  6
JWW_DASHED1
 62
   120
370
     5
100
AcDbLine
 10
318.3211541150902
 20
549.2885422298084
 30
0.0
 11
-17.86690158915434
 21
885.4765979340526
 31
0.0
  0
LINE
  5
234
330
1F
100
AcDbEntity
  8
0-0
  6
JWW_DASHED1
 62
   120
370
     5
100
AcDbLine
 10
318.321154115097
 20
559.1880371664367
 30
0.0
 11
-7.967406652519173
 21
885.4765979340526
 31
0.0
  0
LINE
  5
235
330
1F
100
AcDbEntity
  8
0-0
  6
JWW_DASHED1
 62
   120
370
     5
100
AcDbLine
 10
318.321154115097
 20
569.0875321030195
 30
0.0
 11
1.932088284061422
 21
885.4765979340526
 31
0.0
  0
LINE
  5
236
330
1F
100
AcDbEntity
  8
0-0
  6
JWW_DASHED1
 62
   120
370
     5
100
AcDbLine
 10
318.3211541150868
 20
578.9870270396641
 30
0.0
 11
11.83158322069659
 21
885.4765979340526
 31
0.0
  0
LINE
  5
237
330
1F
100
AcDbEntity
  8
0-0
  6
JWW_DASHED1
 62
   120
370
     5
100
AcDbLine
 10
318.3211541150834
 20
588.8865219762498
 30
0.0
 11
21.73107815728059
 21
885.4765979340526
 31
0.0
  0
LINE
  5
238
330
1F
100
AcDbEntity
  8
0-0
  6
JWW_DASHED1
 62
   120
370
     5
100
AcDbLine
 10
318.3211541150868
 20
598.7860169128807
 30
0.0
 11
31.63057309391235
 21
885.4765979340526
 31
0.0
  0
LINE
  5
239
330
1F
100
AcDbEntity
  8
0-0
  6
JWW_DASHED1
 62
   120
370
     5
100
AcDbLine
 10
318.321154115097
 20
608.6855118495068
 30
0.0
 11
41.53006803054751
 21
885.4765979340526
 31
0.0
  0
LINE
  5
23A
330
1F
100
AcDbEntity
  8
0-0
  6
JWW_DASHED1
 62
   120
370
     5
100
AcDbLine
 10
318.3211541150902
 20
618.5850067860927
 30
0.0
 11
51.42956296712811
 21
885.4765979340526
 31
0.0
  0
LINE
  5
23B
330
1F
100
AcDbEntity
  8
0-0
  6
JWW_DASHED1
 62
   120
370
     5
100
AcDbLine
 10
318.3211541150936
 20
628.484501722724
 30
0.0
 11
61.32905790376327
 21
885.4765979340526
 31
0.0
  0
LINE
  5
23C
330
1F
100
AcDbEntity
  8
0-0
  6
JWW_DASHED1
 62
   120
370
     5
100
AcDbLine
 10
318.3211541150902
 20
638.3839966593088
 30
0.0
 11
71.22855284034387
 21
885.4765979340526
 31
0.0
  0
LINE
  5
23D
330
1F
100
AcDbEntity
  8
0-0
  6
JWW_DASHED1
 62
   120
370
     5
100
AcDbLine
 10
318.321154115097
 20
648.2834915959359
 30
0.0
 11
81.12804777697903
 21
885.4765979340526
 31
0.0
  0
LINE
  5
23E
330
1F
100
AcDbEntity
  8
0-0
  6
JWW_DASHED1
 62
   120
370
     5
100
AcDbLine
 10
318.3211541150936
 20
658.1829865325211
 30
0.0
 11
91.02754271355963
 21
885.4765979340526
 31
0.0
  0
LINE
  5
23F
330
1F
100
AcDbEntity
  8
0-0
  6
JWW_DASHED1
 62
   120
370
     5
100
AcDbLine
 10
318.3211541150834
 20
668.0824814691662
 30
0.0
 11
100.9270376501982
 21
885.4765979340526
 31
0.0
  0
LINE
  5
240
330
1F
100
AcDbEntity
  8
0-0
  6
JWW_DASHED1
 62
   120
370
     5
100
AcDbLine
 10
318.3211541150902
 20
677.9819764057381
 30
0.0
 11
110.8265325867754
 21
885.4765979340526
 31
0.0
  0
LINE
  5
241
330
1F
100
AcDbEntity
  8
0-0
  6
JWW_DASHED1
 62
   120
370
     5
100
AcDbLine
 10
318.321154115097
 20
687.8814713423665
 30
0.0
 11
120.7260275234106
 21
885.4765979340526
 31
0.0
  0
LINE
  5
242
330
1F
100
AcDbEntity
  8
0-0
  6
JWW_DASHED1
 62
   120
370
     5
100
AcDbLine
 10
318.3211541150902
 20
697.7809662790089
 30
0.0
 11
130.6255224600457
 21
885.4765979340526
 31
0.0
  0
LINE
  5
243
330
1F
100
AcDbEntity
  8
0-0
  6
JWW_DASHED1
 62
   120
370
     5
100
AcDbLine
 10
318.3211541150868
 20
707.6804612155946
 30
0.0
 11
140.5250173966263
 21
885.4765979340526
 31
0.0
  0
LINE
  5
244
330
1F
100
AcDbEntity
  8
0-0
  6
JWW_DASHED1
 62
   120
370
     5
100
AcDbLine
 10
318.3211541150902
 20
717.5799561522251
 30
0.0
 11
150.4245123332615
 21
885.4765979340526
 31
0.0
  0
LINE
  5
245
330
1F
100
AcDbEntity
  8
0-0
  6
JWW_DASHED1
 62
   120
370
     5
100
AcDbLine
 10
318.3211541150868
 20
727.4794510888104
 30
0.0
 11
160.3240072698421
 21
885.4765979340526
 31
0.0
  0
LINE
  5
246
330
1F
100
AcDbEntity
  8
0-0
  6
JWW_DASHED1
 62
   120
370
     5
100
AcDbLine
 10
318.3211541150936
 20
737.3789460254375
 30
0.0
 11
170.2235022064772
 21
885.4765979340526
 31
0.0
  0
LINE
  5
247
330
1F
100
AcDbEntity
  8
0-0
  6
JWW_DASHED1
 62
   120
370
     5
100
AcDbLine
 10
318.3211541150902
 20
747.2784409620227
 30
0.0
 11
180.1229971430578
 21
885.4765979340526
 31
0.0
  0
LINE
  5
248
330
1F
100
AcDbEntity
  8
0-0
  6
JWW_DASHED1
 62
   120
370
     5
100
AcDbLine
 10
318.3211541150936
 20
757.1779358986532
 30
0.0
 11
190.022492079693
 21
885.4765979340526
 31
0.0
  0
LINE
  5
249
330
1F
100
AcDbEntity
  8
0-0
  6
JWW_DASHED1
 62
   120
370
     5
100
AcDbLine
 10
318.3211541150902
 20
767.0774308352385
 30
0.0
 11
199.9219870162736
 21
885.4765979340526
 31
0.0
  0
LINE
  5
24A
330
1F
100
AcDbEntity
  8
0-0
  6
JWW_DASHED1
 62
   120
370
     5
100
AcDbLine
 10
318.321154115097
 20
776.9769257718665
 30
0.0
 11
209.8214819529088
 21
885.4765979340526
 31
0.0
  0
LINE
  5
24B
330
1F
100
AcDbEntity
  8
0-0
  6
JWW_DASHED1
 62
   120
370
     5
100
AcDbLine
 10
318.3211541150868
 20
786.876420708511
 30
0.0
 11
219.7209768895439
 21
885.4765979340526
 31
0.0
  0
LINE
  5
24C
330
1F
100
AcDbEntity
  8
0-0
  6
JWW_DASHED1
 62
   120
370
     5
100
AcDbLine
 10
318.3211541150834
 20
796.7759156450962
 30
0.0
 11
229.6204718261245
 21
885.4765979340526
 31
0.0
  0
LINE
  5
24D
330
1F
100
AcDbEntity
  8
0-0
  6
JWW_DASHED1
 62
   120
370
     5
100
AcDbLine
 10
318.3211541150902
 20
806.6754105817258
 30
0.0
 11
239.5199667627597
 21
885.4765979340526
 31
0.0
  0
LINE
  5
24E
330
1F
100
AcDbEntity
  8
0-0
  6
JWW_DASHED1
 62
   120
370
     5
100
AcDbLine
 10
318.321154115097
 20
816.5749055182959
 30
0.0
 11
249.4194616993403
 21
885.4765979340526
 31
0.0
  0
LINE
  5
24F
330
1F
100
AcDbEntity
  8
0-0
  6
JWW_DASHED1
 62
   120
370
     5
100
AcDbLine
 10
318.3211541150902
 20
826.4744004549395
 30
0.0
 11
259.3189566359754
 21
885.4765979340526
 31
0.0
  0
LINE
  5
250
330
1F
100
AcDbEntity
  8
0-0
  6
JWW_DASHED1
 62
   120
370
     5
100
AcDbLine
 10
318.3211541150834
 20
836.3738953915253
 30
0.0
 11
269.218451572556
 21
885.4765979340526
 31
0.0
  0
LINE
  5
251
330
1F
100
AcDbEntity
  8
0-0
  6
JWW_DASHED1
 62
   120
370
     5
100
AcDbLine
 10
318.3211541150902
 20
846.2733903281544
 30
0.0
 11
279.1179465091912
 21
885.4765979340526
 31
0.0
  0
LINE
  5
252
330
1F
100
AcDbEntity
  8
0-0
  6
JWW_DASHED1
 62
   120
370
     5
100
AcDbLine
 10
318.321154115097
 20
856.1728852647827
 30
0.0
 11
289.0174414458298
 21
885.4765979340526
 31
0.0
  0
LINE
  5
253
330
1F
100
AcDbEntity
  8
0-0
  6
JWW_DASHED1
 62
   120
370
     5
100
AcDbLine
 10
318.3211541150936
 20
866.0723802013681
 30
0.0
 11
298.916936382407
 21
885.4765979340526
 31
0.0
  0
LINE
  5
254
330
1F
100
AcDbEntity
  8
0-0
  6
JWW_DASHED1
 62
   120
370
     5
100
AcDbLine
 10
509.9325958984733
 20
-812.5234020659519
 30
0.0
 11
508.3211541150879
 21
-810.9119602825664
 31
0.0
  0
LINE
  5
255
330
1F
100
AcDbEntity
  8
0-0
  6
JWW_DASHED1
 62
   120
370
     5
100
AcDbLine
 10
519.8320908351186
 20
-812.5234020659614
 30
0.0
 11
508.3211541150777
 21
-801.012465345922
 31
0.0
  0
LINE
  5
256
330
1F
100
AcDbEntity
  8
0-0
  6
JWW_DASHED1
 62
   120
370
     5
100
AcDbLine
 10
529.7315857717026
 20
-812.5234020659663
 30
0.0
 11
508.3211541150743
 21
-791.1129704093364
 31
0.0
  0
LINE
  5
257
330
1F
100
AcDbEntity
  8
0-0
  6
JWW_DASHED1
 62
   120
370
     5
100
AcDbLine
 10
539.6310807083139
 20
-812.5234020659436
 30
0.0
 11
508.3211541150948
 21
-781.2134754727234
 31
0.0
  0
LINE
  5
258
330
1F
100
AcDbEntity
  8
0-0
  6
JWW_DASHED1
 62
   120
370
     5
100
AcDbLine
 10
549.5305756449013
 20
-812.5234020659487
 30
0.0
 11
508.3211541150879
 21
-771.3139805361377
 31
0.0
  0
LINE
  5
259
330
1F
100
AcDbEntity
  8
0-0
  6
JWW_DASHED1
 62
   120
370
     5
100
AcDbLine
 10
559.4300705815467
 20
-812.5234020659583
 30
0.0
 11
508.3211541150811
 21
-761.4144855994938
 31
0.0
  0
LINE
  5
25A
330
1F
100
AcDbEntity
  8
0-0
  6
JWW_DASHED1
 62
   120
370
     5
100
AcDbLine
 10
569.3295655181307
 20
-812.523402065963
 30
0.0
 11
508.3211541150743
 21
-751.5149906629081
 31
0.0
  0
LINE
  5
25B
330
1F
100
AcDbEntity
  8
0-0
  6
JWW_DASHED1
 62
   120
370
     5
100
AcDbLine
 10
579.2290604547454
 20
-812.5234020659409
 30
0.0
 11
508.3211541150982
 21
-741.6154957262946
 31
0.0
  0
LINE
  5
25C
330
1F
100
AcDbEntity
  8
0-0
  6
JWW_DASHED1
 62
   120
370
     5
100
AcDbLine
 10
589.1285553913874
 20
-812.5234020659502
 30
0.0
 11
508.3211541150879
 21
-731.7160007896503
 31
0.0
  0
LINE
  5
25D
330
1F
100
AcDbEntity
  8
0-0
  6
JWW_DASHED1
 62
   120
370
     5
100
AcDbLine
 10
599.0280503279748
 20
-812.5234020659549
 30
0.0
 11
508.3211541150811
 21
-721.8165058530643
 31
0.0
  0
LINE
  5
25E
330
1F
100
AcDbEntity
  8
0-0
  6
JWW_DASHED1
 62
   120
370
     5
100
AcDbLine
 10
608.9275452646168
 20
-812.5234020659643
 30
0.0
 11
508.3211541150743
 21
-711.9170109164208
 31
0.0
  0
LINE
  5
25F
330
1F
100
AcDbEntity
  8
0-0
  6
JWW_DASHED1
 62
   120
370
     5
100
AcDbLine
 10
618.8270402011838
 20
-812.5234020659507
 30
0.0
 11
508.3211541150845
 21
-702.0175159798503
 31
0.0
  0
LINE
  5
260
330
1F
100
AcDbEntity
  8
0-0
  6
JWW_DASHED1
 62
   120
370
     5
100
AcDbLine
 10
628.7265351378155
 20
-812.5234020659466
 30
0.0
 11
508.3211541150914
 21
-692.1180210432213
 31
0.0
  0
LINE
  5
261
330
1F
100
AcDbEntity
  8
0-0
  6
JWW_DASHED1
 62
   120
370
     5
100
AcDbLine
 10
638.6260300744029
 20
-812.5234020659517
 30
0.0
 11
508.3211541150879
 21
-682.2185261066359
 31
0.0
  0
LINE
  5
262
330
1F
100
AcDbEntity
  8
0-0
  6
JWW_DASHED1
 62
   120
370
     5
100
AcDbLine
 10
648.5255250110483
 20
-812.5234020659611
 30
0.0
 11
508.3211541150777
 21
-672.3190311699925
 31
0.0
  0
LINE
  5
263
330
1F
100
AcDbEntity
  8
0-0
  6
JWW_DASHED1
 62
   120
370
     5
100
AcDbLine
 10
658.4250199476323
 20
-812.5234020659658
 30
0.0
 11
508.3211541150743
 21
-662.419536233407
 31
0.0
  0
LINE
  5
264
330
1F
100
AcDbEntity
  8
0-0
  6
JWW_DASHED1
 62
   120
370
     5
100
AcDbLine
 10
668.3245148842436
 20
-812.5234020659439
 30
0.0
 11
508.3211541150948
 21
-652.5200412967928
 31
0.0
  0
LINE
  5
265
330
1F
100
AcDbEntity
  8
0-0
  6
JWW_DASHED1
 62
   120
370
     5
100
AcDbLine
 10
678.224009820889
 20
-812.5234020659532
 30
0.0
 11
508.3211541150845
 21
-642.6205463601482
 31
0.0
  0
LINE
  5
266
330
1F
100
AcDbEntity
  8
0-0
  6
JWW_DASHED1
 62
   120
370
     5
100
AcDbLine
 10
688.123504757473
 20
-812.523402065958
 30
0.0
 11
508.3211541150811
 21
-632.7210514235642
 31
0.0
  0
LINE
  5
267
330
1F
100
AcDbEntity
  8
0-0
  6
JWW_DASHED1
 62
   120
370
     5
100
AcDbLine
 10
698.022999694115
 20
-812.5234020659622
 30
0.0
 11
508.3211541150709
 21
-622.8215564869199
 31
0.0
  0
LINE
  5
268
330
1F
100
AcDbEntity
  8
0-0
  6
JWW_DASHED1
 62
   120
370
     5
100
AcDbLine
 10
707.9224946306751
 20
-812.5234020659407
 30
0.0
 11
508.3211541150948
 21
-612.922061550364
 31
0.0
  0
LINE
  5
269
330
1F
100
AcDbEntity
  8
0-0
  6
JWW_DASHED1
 62
   120
370
     5
100
AcDbLine
 10
717.8219895673171
 20
-812.5234020659494
 30
0.0
 11
508.3211541150879
 21
-603.0225666137195
 31
0.0
  0
LINE
  5
26A
330
1F
100
AcDbEntity
  8
0-0
  6
JWW_DASHED1
 62
   120
370
     5
100
AcDbLine
 10
727.7214845039045
 20
-812.5234020659545
 30
0.0
 11
508.3211541150811
 21
-593.123071677134
 31
0.0
  0
LINE
  5
26B
330
1F
100
AcDbEntity
  8
0-0
  6
JWW_DASHED1
 62
   120
370
     5
100
AcDbLine
 10
737.6209794405465
 20
-812.5234020659641
 30
0.0
 11
508.3211541150743
 21
-583.2235767404916
 31
0.0
  0
LINE
  5
26C
330
1F
100
AcDbEntity
  8
0-0
  6
JWW_DASHED1
 62
   120
370
     5
100
AcDbLine
 10
747.5204743770998
 20
-812.5234020659375
 30
0.0
 11
508.3211541150982
 21
-573.3240818039353
 31
0.0
  0
LINE
  5
26D
330
1F
100
AcDbEntity
  8
0-0
  6
JWW_DASHED1
 62
   120
370
     5
100
AcDbLine
 10
757.4199693137452
 20
-812.5234020659464
 30
0.0
 11
508.3211541150914
 21
-563.4245868672909
 31
0.0
  0
LINE
  5
26E
330
1F
100
AcDbEntity
  8
0-0
  6
JWW_DASHED1
 62
   120
370
     5
100
AcDbLine
 10
767.3194642503906
 20
-812.5234020659561
 30
0.0
 11
508.3211541150811
 21
-553.5250919306485
 31
0.0
  0
LINE
  5
26F
330
1F
100
AcDbEntity
  8
0-0
  6
JWW_DASHED1
 62
   120
370
     5
100
AcDbLine
 10
777.218959186978
 20
-812.5234020659611
 30
0.0
 11
508.3211541150777
 21
-543.625596994063
 31
0.0
  0
LINE
  5
270
330
1F
100
AcDbEntity
  8
0-0
  6
JWW_DASHED1
 62
   120
370
     5
100
AcDbLine
 10
787.1184541235893
 20
-812.5234020659385
 30
0.0
 11
508.3211541150982
 21
-533.7261020574477
 31
0.0
  0
LINE
  5
271
330
1F
100
AcDbEntity
  8
0-0
  6
JWW_DASHED1
 62
   120
370
     5
100
AcDbLine
 10
797.0179490601734
 20
-812.5234020659439
 30
0.0
 11
508.3211541150948
 21
-523.8266071208623
 31
0.0
  0
LINE
  5
272
330
1F
100
AcDbEntity
  8
0-0
  6
JWW_DASHED1
 62
   120
370
     5
100
AcDbLine
 10
806.9174439968187
 20
-812.5234020659528
 30
0.0
 11
508.3211541150845
 21
-513.9271121842177
 31
0.0
  0
LINE
  5
273
330
1F
100
AcDbEntity
  8
0-0
  6
JWW_DASHED1
 62
   120
370
     5
100
AcDbLine
 10
816.8169389334028
 20
-812.523402065958
 30
0.0
 11
508.3211541150811
 21
-504.0276172476349
 31
0.0
  0
LINE
  5
274
330
1F
100
AcDbEntity
  8
0-0
  6
JWW_DASHED1
 62
   120
370
     5
100
AcDbLine
 10
826.7164338700413
 20
-812.5234020659585
 30
0.0
 11
508.3211541150709
 21
-494.1281223109904
 31
0.0
  0
LINE
  5
275
330
1F
100
AcDbEntity
  8
0-0
  6
JWW_DASHED1
 62
   120
370
     5
100
AcDbLine
 10
836.6159288066015
 20
-812.52340206594
 30
0.0
 11
508.3211541150948
 21
-484.2286273744335
 31
0.0
  0
LINE
  5
276
330
1F
100
AcDbEntity
  8
0-0
  6
JWW_DASHED1
 62
   120
370
     5
100
AcDbLine
 10
846.5154237432469
 20
-812.5234020659494
 30
0.0
 11
508.3211541150879
 21
-474.3291324377887
 31
0.0
  0
LINE
  5
277
330
1F
100
AcDbEntity
  8
0-0
  6
JWW_DASHED1
 62
   120
370
     5
100
AcDbLine
 10
856.4149186798923
 20
-812.523402065959
 30
0.0
 11
508.3211541150811
 21
-464.4296375011476
 31
0.0
  0
LINE
  5
278
330
1F
100
AcDbEntity
  8
0-0
  6
JWW_DASHED1
 62
   120
370
     5
100
AcDbLine
 10
866.3144136164763
 20
-812.5234020659643
 30
0.0
 11
508.3211541150743
 21
-454.5301425645619
 31
0.0
  0
LINE
  5
279
330
1F
100
AcDbEntity
  8
0-0
  6
JWW_DASHED1
 62
   120
370
     5
100
AcDbLine
 10
876.213908553091
 20
-812.5234020659415
 30
0.0
 11
508.3211541150948
 21
-444.6306476279459
 31
0.0
  0
LINE
  5
27A
330
1F
100
AcDbEntity
  8
0-0
  6
JWW_DASHED1
 62
   120
370
     5
100
AcDbLine
 10
886.113403489675
 20
-812.5234020659464
 30
0.0
 11
508.3211541150879
 21
-434.7311526913602
 31
0.0
  0
LINE
  5
27B
330
1F
100
AcDbEntity
  8
0-0
  6
JWW_DASHED1
 62
   120
370
     5
100
AcDbLine
 10
896.0128984263204
 20
-812.5234020659561
 30
0.0
 11
508.3211541150845
 21
-424.8316577547195
 31
0.0
  0
LINE
  5
27C
330
1F
100
AcDbEntity
  8
0-0
  6
JWW_DASHED1
 62
   120
370
     5
100
AcDbLine
 10
905.9123933629044
 20
-812.5234020659605
 30
0.0
 11
508.3211541150777
 21
-414.9321628181337
 31
0.0
  0
LINE
  5
27D
330
1F
100
AcDbEntity
  8
0-0
  6
JWW_DASHED1
 62
   120
370
     5
100
AcDbLine
 10
915.8118882995191
 20
-812.5234020659385
 30
0.0
 11
508.3211541150982
 21
-405.0326678815173
 31
0.0
  0
LINE
  5
27E
330
1F
100
AcDbEntity
  8
0-0
  6
JWW_DASHED1
 62
   120
370
     5
100
AcDbLine
 10
925.7113832361645
 20
-812.5234020659477
 30
0.0
 11
508.3211541150879
 21
-395.1331729448728
 31
0.0
  0
LINE
  5
27F
330
1F
100
AcDbEntity
  8
0-0
  6
JWW_DASHED1
 62
   120
370
     5
100
AcDbLine
 10
935.6108781727485
 20
-812.5234020659524
 30
0.0
 11
508.3211541150811
 21
-385.2336780082871
 31
0.0
  0
LINE
  5
280
330
1F
100
AcDbEntity
  8
0-0
  6
JWW_DASHED1
 62
   120
370
     5
100
AcDbLine
 10
945.5103731093939
 20
-812.5234020659619
 30
0.0
 11
508.3211541150777
 21
-375.3341830716468
 31
0.0
  0
LINE
  5
281
330
1F
100
AcDbEntity
  8
0-0
  6
JWW_DASHED1
 62
   120
370
     5
100
AcDbLine
 10
955.4098680459506
 20
-812.5234020659392
 30
0.0
 11
508.3211541150845
 21
-365.434688135073
 31
0.0
  0
LINE
  5
282
330
1F
100
AcDbEntity
  8
0-0
  6
JWW_DASHED1
 62
   120
370
     5
100
AcDbLine
 10
965.3093629825926
 20
-812.5234020659447
 30
0.0
 11
508.3211541150914
 21
-355.5351931984438
 31
0.0
  0
LINE
  5
283
330
1F
100
AcDbEntity
  8
0-0
  6
JWW_DASHED1
 62
   120
370
     5
100
AcDbLine
 10
975.2088579191766
 20
-812.5234020659498
 30
0.0
 11
508.3211541150845
 21
-345.6356982618581
 31
0.0
  0
LINE
  5
284
330
1F
100
AcDbEntity
  8
0-0
  6
JWW_DASHED1
 62
   120
370
     5
100
AcDbLine
 10
985.108352855822
 20
-812.5234020659587
 30
0.0
 11
508.3211541150811
 21
-335.7362033252183
 31
0.0
  0
LINE
  5
285
330
1F
100
AcDbEntity
  8
0-0
  6
JWW_DASHED1
 62
   120
370
     5
100
AcDbLine
 10
995.007847792406
 20
-812.5234020659639
 30
0.0
 11
508.3211541150743
 21
-325.8367083886326
 31
0.0
  0
LINE
  5
286
330
1F
100
AcDbEntity
  8
0-0
  6
JWW_DASHED1
 62
   120
370
     5
100
AcDbLine
 10
1004.907342729021
 20
-812.5234020659415
 30
0.0
 11
508.3211541150948
 21
-315.9372134520153
 31
0.0
  0
LINE
  5
287
330
1F
100
AcDbEntity
  8
0-0
  6
JWW_DASHED1
 62
   120
370
     5
100
AcDbLine
 10
1014.806837665664
 20
-812.5234020659509
 30
0.0
 11
508.3211541150845
 21
-306.0377185153708
 31
0.0
  0
LINE
  5
288
330
1F
100
AcDbEntity
  8
0-0
  6
JWW_DASHED1
 62
   120
370
     5
100
AcDbLine
 10
1024.70633260225
 20
-812.5234020659561
 30
0.0
 11
508.3211541150845
 21
-296.1382235787897
 31
0.0
  0
LINE
  5
289
330
1F
100
AcDbEntity
  8
0-0
  6
JWW_DASHED1
 62
   120
370
     5
100
AcDbLine
 10
1034.60582753888
 20
-812.5234020659509
 30
0.0
 11
508.3211541150743
 21
-286.2387286421452
 31
0.0
  0
LINE
  5
28A
330
1F
100
AcDbEntity
  8
0-0
  6
JWW_DASHED1
 62
   120
370
     5
100
AcDbLine
 10
1044.505322475449
 20
-812.5234020659383
 30
0.0
 11
508.3211541150948
 21
-276.3392337055868
 31
0.0
  0
LINE
  5
28B
330
1F
100
AcDbEntity
  8
0-0
  6
JWW_DASHED1
 62
   120
370
     5
100
AcDbLine
 10
1054.404817412093
 20
-812.5234020659475
 30
0.0
 11
508.3211541150879
 21
-266.4397387689422
 31
0.0
  0
LINE
  5
28C
330
1F
100
AcDbEntity
  8
0-0
  6
JWW_DASHED1
 62
   120
370
     5
100
AcDbLine
 10
1064.304312348678
 20
-812.5234020659524
 30
0.0
 11
508.3211541150811
 21
-256.5402438323565
 31
0.0
  0
LINE
  5
28D
330
1F
100
AcDbEntity
  8
0-0
  6
JWW_DASHED1
 62
   120
370
     5
100
AcDbLine
 10
1074.203807285324
 20
-812.5234020659622
 30
0.0
 11
508.3211541150777
 21
-246.6407488957171
 31
0.0
  0
LINE
  5
28E
330
1F
100
AcDbEntity
  8
0-0
  6
JWW_DASHED1
 62
   120
370
     5
100
AcDbLine
 10
1084.103302221877
 20
-812.5234020659357
 30
0.0
 11
508.3211541150845
 21
-236.741253959142
 31
0.0
  0
LINE
  5
28F
330
1F
100
AcDbEntity
  8
0-0
  6
JWW_DASHED1
 62
   120
370
     5
100
AcDbLine
 10
1094.002797158521
 20
-812.5234020659443
 30
0.0
 11
508.3211541150879
 21
-226.8417590225133
 31
0.0
  0
LINE
  5
290
330
1F
100
AcDbEntity
  8
0-0
  6
JWW_DASHED1
 62
   120
370
     5
100
AcDbLine
 10
1098.321154115087
 20
-806.9422640858749
 30
0.0
 11
508.3211541150811
 21
-216.9422640858687
 31
0.0
  0
LINE
  5
291
330
1F
100
AcDbEntity
  8
0-0
  6
JWW_DASHED1
 62
   120
370
     5
100
AcDbLine
 10
1098.32115411508
 20
-797.0427691492891
 30
0.0
 11
508.3211541150811
 21
-207.042769149289
 31
0.0
  0
LINE
  5
292
330
1F
100
AcDbEntity
  8
0-0
  6
JWW_DASHED1
 62
   120
370
     5
100
AcDbLine
 10
1098.321154115104
 20
-787.1432742126764
 30
0.0
 11
508.3211541150982
 21
-197.1432742126704
 31
0.0
  0
LINE
  5
293
330
1F
100
AcDbEntity
  8
0-0
  6
JWW_DASHED1
 62
   120
370
     5
100
AcDbLine
 10
1098.321154115099
 20
-777.2437792760907
 30
0.0
 11
508.3211541150914
 21
-187.2437792760843
 31
0.0
  0
LINE
  5
294
330
1F
100
AcDbEntity
  8
0-0
  6
JWW_DASHED1
 62
   120
370
     5
100
AcDbLine
 10
1098.32115411509
 20
-767.3442843394458
 30
0.0
 11
508.3211541150811
 21
-177.3442843394398
 31
0.0
  0
LINE
  5
295
330
1F
100
AcDbEntity
  8
0-0
  6
JWW_DASHED1
 62
   120
370
     5
100
AcDbLine
 10
1098.321154115083
 20
-757.4447894028608
 30
0.0
 11
508.3211541150845
 21
-167.4447894028604
 31
0.0
  0
LINE
  5
296
330
1F
100
AcDbEntity
  8
0-0
  6
JWW_DASHED1
 62
   120
370
     5
100
AcDbLine
 10
1098.32115411509
 20
-747.5452944662322
 30
0.0
 11
508.3211541150743
 21
-157.5452944662159
 31
0.0
  0
LINE
  5
297
330
1F
100
AcDbEntity
  8
0-0
  6
JWW_DASHED1
 62
   120
370
     5
100
AcDbLine
 10
1098.321154115097
 20
-737.645799529603
 30
0.0
 11
508.3211541150914
 21
-147.6457995295969
 31
0.0
  0
LINE
  5
298
330
1F
100
AcDbEntity
  8
0-0
  6
JWW_DASHED1
 62
   120
370
     5
100
AcDbLine
 10
1098.321154115092
 20
-727.7463045930172
 30
0.0
 11
508.3211541150879
 21
-137.7463045930116
 31
0.0
  0
LINE
  5
299
330
1F
100
AcDbEntity
  8
0-0
  6
JWW_DASHED1
 62
   120
370
     5
100
AcDbLine
 10
1098.321154115083
 20
-717.8468096563736
 30
0.0
 11
508.3211541150811
 21
-127.8468096563731
 31
0.0
  0
LINE
  5
29A
330
1F
100
AcDbEntity
  8
0-0
  6
JWW_DASHED1
 62
   120
370
     5
100
AcDbLine
 10
1098.32115411508
 20
-707.9473147197883
 30
0.0
 11
508.3211541150777
 21
-117.9473147197874
 31
0.0
  0
LINE
  5
29B
330
1F
100
AcDbEntity
  8
0-0
  6
JWW_DASHED1
 62
   120
370
     5
100
AcDbLine
 10
1098.3211541151
 20
-698.0478197831743
 30
0.0
 11
508.3211541150948
 21
-108.0478197831684
 31
0.0
  0
LINE
  5
29C
330
1F
100
AcDbEntity
  8
0-0
  6
JWW_DASHED1
 62
   120
370
     5
100
AcDbLine
 10
1098.321154115094
 20
-688.1483248465886
 30
0.0
 11
508.3211541150879
 21
-98.14832484658268
 31
0.0
  0
LINE
  5
29D
330
1F
100
AcDbEntity
  8
0-0
  6
JWW_DASHED1
 62
   120
370
     5
100
AcDbLine
 10
1098.321154115087
 20
-678.2488299099454
 30
0.0
 11
508.3211541150879
 21
-88.24882990994496
 31
0.0
  0
LINE
  5
29E
330
1F
100
AcDbEntity
  8
0-0
  6
JWW_DASHED1
 62
   120
370
     5
100
AcDbLine
 10
1098.321154115082
 20
-668.3493349733596
 30
0.0
 11
508.3211541150811
 21
-78.34933497335925
 31
0.0
  0
LINE
  5
29F
330
1F
100
AcDbEntity
  8
0-0
  6
JWW_DASHED1
 62
   120
370
     5
100
AcDbLine
 10
1098.321154115102
 20
-658.4498400367453
 30
0.0
 11
508.3211541150948
 21
-68.44984003673986
 31
0.0
  0
LINE
  5
2A0
330
1F
100
AcDbEntity
  8
0-0
  6
JWW_DASHED1
 62
   120
370
     5
100
AcDbLine
 10
1098.321154115094
 20
-648.550345100101
 30
0.0
 11
508.3211541150879
 21
-58.55034510009531
 31
0.0
  0
LINE
  5
2A1
330
1F
100
AcDbEntity
  8
0-0
  6
JWW_DASHED1
 62
   120
370
     5
100
AcDbLine
 10
1098.321154115089
 20
-638.6508501635155
 30
0.0
 11
508.3211541150811
 21
-48.6508501635096
 31
0.0
  0
LINE
  5
2A2
330
1F
100
AcDbEntity
  8
0-0
  6
JWW_DASHED1
 62
   120
370
     5
100
AcDbLine
 10
1098.32115411508
 20
-628.7513552268724
 30
0.0
 11
508.3211541150811
 21
-38.75135522687231
 31
0.0
  0
LINE
  5
2A3
330
1F
100
AcDbEntity
  8
0-0
  6
JWW_DASHED1
 62
   120
370
     5
100
AcDbLine
 10
1098.32115411509
 20
-618.8518602903027
 30
0.0
 11
508.3211541150743
 21
-28.8518602902866
 31
0.0
  0
LINE
  5
2A4
330
1F
100
AcDbEntity
  8
0-0
  6
JWW_DASHED1
 62
   120
370
     5
100
AcDbLine
 10
1098.321154115097
 20
-608.9523653536725
 30
0.0
 11
508.3211541150914
 21
-18.95236535366635
 31
0.0
  0
LINE
  5
2A5
330
1F
100
AcDbEntity
  8
0-0
  6
JWW_DASHED1
 62
   120
370
     5
100
AcDbLine
 10
1098.32115411509
 20
-599.0528704170865
 30
0.0
 11
508.3211541150845
 21
-9.052870417081067
 31
0.0
  0
LINE
  5
2A6
330
1F
100
AcDbEntity
  8
0-0
  6
JWW_DASHED1
 62
   120
370
     5
100
AcDbLine
 10
1098.321154115083
 20
-589.1533754804441
 30
0.0
 11
508.3211541150845
 21
0.8466245195562294
 31
0.0
  0
LINE
  5
2A7
330
1F
100
AcDbEntity
  8
0-0
  6
JWW_DASHED1
 62
   120
370
     5
100
AcDbLine
 10
1098.321154115078
 20
-579.2538805438584
 30
0.0
 11
508.3211541150777
 21
10.74611945614151
 31
0.0
  0
LINE
  5
2A8
330
1F
100
AcDbEntity
  8
0-0
  6
JWW_DASHED1
 62
   120
370
     5
100
AcDbLine
 10
1098.321154115099
 20
-569.3543856072436
 30
0.0
 11
508.3211541150948
 21
20.64561439276218
 31
0.0
  0
LINE
  5
2A9
330
1F
100
AcDbEntity
  8
0-0
  6
JWW_DASHED1
 62
   120
370
     5
100
AcDbLine
 10
1098.32115411509
 20
-559.454890670599
 30
0.0
 11
508.3211541150845
 21
30.54510932940673
 31
0.0
  0
LINE
  5
2AA
330
1F
100
AcDbEntity
  8
0-0
  6
JWW_DASHED1
 62
   120
370
     5
100
AcDbLine
 10
1098.321154115087
 20
-549.5553957340157
 30
0.0
 11
508.3211541150879
 21
40.44460426598434
 31
0.0
  0
LINE
  5
2AB
330
1F
100
AcDbEntity
  8
0-0
  6
JWW_DASHED1
 62
   120
370
     5
100
AcDbLine
 10
1098.321154115077
 20
-539.6559007973715
 30
0.0
 11
508.3211541150777
 21
50.34409920262888
 31
0.0
  0
LINE
  5
2AC
330
1F
100
AcDbEntity
  8
0-0
  6
JWW_DASHED1
 62
   120
370
     5
100
AcDbLine
 10
1098.3211541151
 20
-529.756405860815
 30
0.0
 11
508.3211541150948
 21
60.24359413919115
 31
0.0
  0
LINE
  5
2AD
330
1F
100
AcDbEntity
  8
0-0
  6
JWW_DASHED1
 62
   120
370
     5
100
AcDbLine
 10
1098.321154115094
 20
-519.8569109241706
 30
0.0
 11
508.3211541150879
 21
70.14308907583569
 31
0.0
  0
LINE
  5
2AE
330
1F
100
AcDbEntity
  8
0-0
  6
JWW_DASHED1
 62
   120
370
     5
100
AcDbLine
 10
1098.321154115087
 20
-509.9574159875845
 30
0.0
 11
508.3211541150811
 21
80.04258401242097
 31
0.0
  0
LINE
  5
2AF
330
1F
100
AcDbEntity
  8
0-0
  6
JWW_DASHED1
 62
   120
370
     5
100
AcDbLine
 10
1098.32115411508
 20
-500.0579210509432
 30
0.0
 11
508.3211541150811
 21
89.94207894905699
 31
0.0
  0
LINE
  5
2B0
330
1F
100
AcDbEntity
  8
0-0
  6
JWW_DASHED1
 62
   120
370
     5
100
AcDbLine
 10
1098.32115411509
 20
-490.1584261143732
 30
0.0
 11
508.3211541150743
 21
99.8415738856427
 31
0.0
  0
LINE
  5
2B1
330
1F
100
AcDbEntity
  8
0-0
  6
JWW_DASHED1
 62
   120
370
     5
100
AcDbLine
 10
1098.321154115095
 20
-480.2589311777419
 30
0.0
 11
508.3211541150879
 21
109.7410688222642
 31
0.0
  0
LINE
  5
2B2
330
1F
100
AcDbEntity
  8
0-0
  6
JWW_DASHED1
 62
   120
370
     5
100
AcDbLine
 10
1098.321154115087
 20
-470.3594362410969
 30
0.0
 11
508.3211541150811
 21
119.6405637589088
 31
0.0
  0
LINE
  5
2B3
330
1F
100
AcDbEntity
  8
0-0
  6
JWW_DASHED1
 62
   120
370
     5
100
AcDbLine
 10
1098.321154115083
 20
-460.459941304515
 30
0.0
 11
508.3211541150845
 21
129.5400586954851
 31
0.0
  0
LINE
  5
2B4
330
1F
100
AcDbEntity
  8
0-0
  6
JWW_DASHED1
 62
   120
370
     5
100
AcDbLine
 10
1098.321154115104
 20
-450.5604463678986
 30
0.0
 11
508.3211541150811
 21
139.4395536321228
 31
0.0
  0
LINE
  5
2B5
330
1F
100
AcDbEntity
  8
0-0
  6
JWW_DASHED1
 62
   120
370
     5
100
AcDbLine
 10
1098.321154115097
 20
-440.6609514313129
 30
0.0
 11
508.3211541150914
 21
149.3390485686928
 31
0.0
  0
LINE
  5
2B6
330
1F
100
AcDbEntity
  8
0-0
  6
JWW_DASHED1
 62
   120
370
     5
100
AcDbLine
 10
1098.321154115089
 20
-430.7614564946684
 30
0.0
 11
508.3211541150811
 21
159.2385435053373
 31
0.0
  0
LINE
  5
2B7
330
1F
100
AcDbEntity
  8
0-0
  6
JWW_DASHED1
 62
   120
370
     5
100
AcDbLine
 10
1098.321154115087
 20
-420.8619615580865
 30
0.0
 11
508.3211541150879
 21
169.1380384419141
 31
0.0
  0
LINE
  5
2B8
330
1F
100
AcDbEntity
  8
0-0
  6
JWW_DASHED1
 62
   120
370
     5
100
AcDbLine
 10
1098.321154115077
 20
-410.962466621442
 30
0.0
 11
508.3211541150777
 21
179.0375333785582
 31
0.0
  0
LINE
  5
2B9
330
1F
100
AcDbEntity
  8
0-0
  6
JWW_DASHED1
 62
   120
370
     5
100
AcDbLine
 10
1098.321154115097
 20
-401.0629716848251
 30
0.0
 11
508.3211541150914
 21
188.9370283151801
 31
0.0
  0
LINE
  5
2BA
330
1F
100
AcDbEntity
  8
0-0
  6
JWW_DASHED1
 62
   120
370
     5
100
AcDbLine
 10
1098.32115411509
 20
-391.1634767482399
 30
0.0
 11
508.3211541150845
 21
198.8365232517658
 31
0.0
  0
LINE
  5
2BB
330
1F
100
AcDbEntity
  8
0-0
  6
JWW_DASHED1
 62
   120
370
     5
100
AcDbLine
 10
1098.321154115087
 20
-381.2639818115991
 30
0.0
 11
508.3211541150845
 21
208.736018188401
 31
0.0
  0
LINE
  5
2BC
330
1F
100
AcDbEntity
  8
0-0
  6
JWW_DASHED1
 62
   120
370
     5
100
AcDbLine
 10
1098.32115411508
 20
-371.3644868750134
 30
0.0
 11
508.3211541150811
 21
218.6355131249867
 31
0.0
  0
LINE
  5
2BD
330
1F
100
AcDbEntity
  8
0-0
  6
JWW_DASHED1
 62
   120
370
     5
100
AcDbLine
 10
1098.3211541151
 20
-361.464991938397
 30
0.0
 11
508.3211541150948
 21
228.5350080616091
 31
0.0
  0
LINE
  5
2BE
330
1F
100
AcDbEntity
  8
0-0
  6
JWW_DASHED1
 62
   120
370
     5
100
AcDbLine
 10
1098.321154115094
 20
-351.5654970018113
 30
0.0
 11
508.3211541150879
 21
238.4345029981948
 31
0.0
  0
LINE
  5
2BF
330
1F
100
AcDbEntity
  8
0-0
  6
JWW_DASHED1
 62
   120
370
     5
100
AcDbLine
 10
1098.321154115085
 20
-341.6660020651668
 30
0.0
 11
508.3211541150777
 21
248.3339979348393
 31
0.0
  0
LINE
  5
2C0
330
1F
100
AcDbEntity
  8
0-0
  6
JWW_DASHED1
 62
   120
370
     5
100
AcDbLine
 10
1098.321154115083
 20
-331.7665071285853
 30
0.0
 11
508.3211541150845
 21
258.2334928714148
 31
0.0
  0
LINE
  5
2C1
330
1F
100
AcDbEntity
  8
0-0
  6
JWW_DASHED1
 62
   120
370
     5
100
AcDbLine
 10
1098.321154115102
 20
-321.8670121919681
 30
0.0
 11
508.3211541150948
 21
268.1329878080376
 31
0.0
  0
LINE
  5
2C2
330
1F
100
AcDbEntity
  8
0-0
  6
JWW_DASHED1
 62
   120
370
     5
100
AcDbLine
 10
1098.321154115094
 20
-311.9675172553235
 30
0.0
 11
508.3211541150879
 21
278.0324827446817
 31
0.0
  0
LINE
  5
2C3
330
1F
100
AcDbEntity
  8
0-0
  6
JWW_DASHED1
 62
   120
370
     5
100
AcDbLine
 10
1098.321154115087
 20
-302.0680223187378
 30
0.0
 11
508.3211541150811
 21
287.9319776812679
 31
0.0
  0
LINE
  5
2C4
330
1F
100
AcDbEntity
  8
0-0
  6
JWW_DASHED1
 62
   120
370
     5
100
AcDbLine
 10
1098.321154115083
 20
-292.1685273820984
 30
0.0
 11
508.3211541150811
 21
297.8314726179022
 31
0.0
  0
LINE
  5
2C5
330
1F
100
AcDbEntity
  8
0-0
  6
JWW_DASHED1
 62
   120
370
     5
100
AcDbLine
 10
1098.321154115094
 20
-282.2690324455284
 30
0.0
 11
508.3211541150777
 21
307.7309675544879
 31
0.0
  0
LINE
  5
2C6
330
1F
100
AcDbEntity
  8
0-0
  6
JWW_DASHED1
 62
   120
370
     5
100
AcDbLine
 10
1098.321154115095
 20
-272.3695375088946
 30
0.0
 11
508.3211541150879
 21
317.6304624911111
 31
0.0
  0
LINE
  5
2C7
330
1F
100
AcDbEntity
  8
0-0
  6
JWW_DASHED1
 62
   120
370
     5
100
AcDbLine
 10
1098.32115411509
 20
-262.4700425723088
 30
0.0
 11
508.3211541150845
 21
327.5299574276968
 31
0.0
  0
LINE
  5
2C8
330
1F
100
AcDbEntity
  8
0-0
  6
JWW_DASHED1
 62
   120
370
     5
100
AcDbLine
 10
1098.321154115087
 20
-252.5705476356698
 30
0.0
 11
508.3211541150879
 21
337.4294523643303
 31
0.0
  0
LINE
  5
2C9
330
1F
100
AcDbEntity
  8
0-0
  6
JWW_DASHED1
 62
   120
370
     5
100
AcDbLine
 10
1098.321154115082
 20
-242.6710526990846
 30
0.0
 11
508.3211541150811
 21
347.328947300916
 31
0.0
  0
LINE
  5
2CA
330
1F
100
AcDbEntity
  8
0-0
  6
JWW_DASHED1
 62
   120
370
     5
100
AcDbLine
 10
1098.321154115097
 20
-232.771557762466
 30
0.0
 11
508.3211541150914
 21
357.2284422375396
 31
0.0
  0
LINE
  5
2CB
330
1F
100
AcDbEntity
  8
0-0
  6
JWW_DASHED1
 62
   120
370
     5
100
AcDbLine
 10
1098.32115411509
 20
-222.8720628258219
 30
0.0
 11
508.3211541150811
 21
367.1279371741842
 31
0.0
  0
LINE
  5
2CC
330
1F
100
AcDbEntity
  8
0-0
  6
JWW_DASHED1
 62
   120
370
     5
100
AcDbLine
 10
1098.321154115083
 20
-212.9725678892362
 30
0.0
 11
508.3211541150777
 21
377.02743211077
 31
0.0
  0
LINE
  5
2CD
330
1F
100
AcDbEntity
  8
0-0
  6
JWW_DASHED1
 62
   120
370
     5
100
AcDbLine
 10
1098.32115411508
 20
-203.0730729525968
 30
0.0
 11
508.3211541150811
 21
386.9269270474034
 31
0.0
  0
LINE
  5
2CE
330
1F
100
AcDbEntity
  8
0-0
  6
JWW_DASHED1
 62
   120
370
     5
100
AcDbLine
 10
1098.3211541151
 20
-193.1735780160375
 30
0.0
 11
508.3211541150948
 21
396.8264219839682
 31
0.0
  0
LINE
  5
2CF
330
1F
100
AcDbEntity
  8
0-0
  6
JWW_DASHED1
 62
   120
370
     5
100
AcDbLine
 10
1098.321154115092
 20
-183.2740830793929
 30
0.0
 11
508.3211541150879
 21
406.7259169206127
 31
0.0
  0
LINE
  5
2D0
330
1F
100
AcDbEntity
  8
0-0
  6
JWW_DASHED1
 62
   120
370
     5
100
AcDbLine
 10
1098.321154115087
 20
-173.3745881428072
 30
0.0
 11
508.3211541150811
 21
416.6254118571985
 31
0.0
  0
LINE
  5
2D1
330
1F
100
AcDbEntity
  8
0-0
  6
JWW_DASHED1
 62
   120
370
     5
100
AcDbLine
 10
1098.321154115083
 20
-163.4750932061687
 30
0.0
 11
508.3211541150811
 21
426.5249067938315
 31
0.0
  0
LINE
  5
2D2
330
1F
100
AcDbEntity
  8
0-0
  6
JWW_DASHED1
 62
   120
370
     5
100
AcDbLine
 10
1098.321154115094
 20
-153.5755982695991
 30
0.0
 11
508.3211541150777
 21
436.4244017304172
 31
0.0
  0
LINE
  5
2D3
330
1F
100
AcDbEntity
  8
0-0
  6
JWW_DASHED1
 62
   120
370
     5
100
AcDbLine
 10
1098.321154115094
 20
-143.676103332964
 30
0.0
 11
508.3211541150879
 21
446.3238966670417
 31
0.0
  0
LINE
  5
2D4
330
1F
100
AcDbEntity
  8
0-0
  6
JWW_DASHED1
 62
   120
370
     5
100
AcDbLine
 10
1098.321154115085
 20
-133.7766083963194
 30
0.0
 11
508.3211541150811
 21
456.2233916036863
 31
0.0
  0
LINE
  5
2D5
330
1F
100
AcDbEntity
  8
0-0
  6
JWW_DASHED1
 62
   120
370
     5
100
AcDbLine
 10
1098.321154115087
 20
-123.8771134597405
 30
0.0
 11
508.3211541150879
 21
466.12288654026
 31
0.0
  0
LINE
  5
2D6
330
1F
100
AcDbEntity
  8
0-0
  6
JWW_DASHED1
 62
   120
370
     5
100
AcDbLine
 10
1098.321154115104
 20
-113.9776185231212
 30
0.0
 11
508.3211541150811
 21
476.0223814769003
 31
0.0
  0
LINE
  5
2D7
330
1F
100
AcDbEntity
  8
0-0
  6
JWW_DASHED1
 62
   120
370
     5
100
AcDbLine
 10
1098.321154115097
 20
-104.0781235865354
 30
0.0
 11
508.3211541150914
 21
485.9218764134703
 31
0.0
  0
LINE
  5
2D8
330
1F
100
AcDbEntity
  8
0-0
  6
JWW_DASHED1
 62
   120
370
     5
100
AcDbLine
 10
1098.321154115089
 20
-94.17862864989132
 30
0.0
 11
508.3211541150811
 21
495.8213713501148
 31
0.0
  0
LINE
  5
2D9
330
1F
100
AcDbEntity
  8
0-0
  6
JWW_DASHED1
 62
   120
370
     5
100
AcDbLine
 10
1098.32115411509
 20
-84.279133713312
 30
0.0
 11
508.3211541150879
 21
505.7208662866881
 31
0.0
  0
LINE
  5
2DA
330
1F
100
AcDbEntity
  8
0-0
  6
JWW_DASHED1
 62
   120
370
     5
100
AcDbLine
 10
1098.32115411508
 20
-74.37963877666789
 30
0.0
 11
508.3211541150811
 21
515.6203612233322
 31
0.0
  0
LINE
  5
2DB
330
1F
100
AcDbEntity
  8
0-0
  6
JWW_DASHED1
 62
   120
370
     5
100
AcDbLine
 10
1098.321154115097
 20
-64.48014384004807
 30
0.0
 11
508.3211541150914
 21
525.5198561599581
 31
0.0
  0
LINE
  5
2DC
330
1F
100
AcDbEntity
  8
0-0
  6
JWW_DASHED1
 62
   120
370
     5
100
AcDbLine
 10
1098.32115411509
 20
-54.58064890346236
 30
0.0
 11
508.3211541150845
 21
535.4193510965433
 31
0.0
  0
LINE
  5
2DD
330
1F
100
AcDbEntity
  8
0-0
  6
JWW_DASHED1
 62
   120
370
     5
100
AcDbLine
 10
1098.321154115089
 20
-44.68115396682464
 30
0.0
 11
508.3211541150879
 21
545.3188460331755
 31
0.0
  0
LINE
  5
2DE
330
1F
100
AcDbEntity
  8
0-0
  6
JWW_DASHED1
 62
   120
370
     5
100
AcDbLine
 10
1098.321154115083
 20
-34.78165903023893
 30
0.0
 11
508.3211541150845
 21
555.2183409697612
 31
0.0
  0
LINE
  5
2DF
330
1F
100
AcDbEntity
  8
0-0
  6
JWW_DASHED1
 62
   120
370
     5
100
AcDbLine
 10
1098.321154115099
 20
-24.88216409361911
 30
0.0
 11
508.3211541150948
 21
565.1178359063865
 31
0.0
  0
LINE
  5
2E0
330
1F
100
AcDbEntity
  8
0-0
  6
JWW_DASHED1
 62
   120
370
     5
100
AcDbLine
 10
1098.321154115094
 20
-14.9826691570334
 30
0.0
 11
508.3211541150879
 21
575.0173308429723
 31
0.0
  0
LINE
  5
2E1
330
1F
100
AcDbEntity
  8
0-0
  6
JWW_DASHED1
 62
   120
370
     5
100
AcDbLine
 10
1098.321154115083
 20
-5.083174220388855
 30
0.0
 11
508.3211541150777
 21
584.9168257796168
 31
0.0
  0
LINE
  5
2E2
330
1F
100
AcDbEntity
  8
0-0
  6
JWW_DASHED1
 62
   120
370
     5
100
AcDbLine
 10
1098.321154115087
 20
4.816320716188756
 30
0.0
 11
508.3211541150879
 21
594.8163207161894
 31
0.0
  0
LINE
  5
2E3
330
1F
100
AcDbEntity
  8
0-0
  6
JWW_DASHED1
 62
   120
370
     5
100
AcDbLine
 10
1098.3211541151
 20
14.71581565280985
 30
0.0
 11
508.3211541150811
 21
604.7158156528304
 31
0.0
  0
LINE
  5
2E4
330
1F
100
AcDbEntity
  8
0-0
  6
JWW_DASHED1
 62
   120
370
     5
100
AcDbLine
 10
1098.321154115094
 20
24.61531058945397
 30
0.0
 11
508.3211541150879
 21
614.6153105894597
 31
0.0
  0
LINE
  5
2E5
330
1F
100
AcDbEntity
  8
0-0
  6
JWW_DASHED1
 62
   120
370
     5
100
AcDbLine
 10
1098.321154115087
 20
34.51480552603968
 30
0.0
 11
508.3211541150811
 21
624.5148055260454
 31
0.0
  0
LINE
  5
2E6
330
1F
100
AcDbEntity
  8
0-0
  6
JWW_DASHED1
 62
   120
370
     5
100
AcDbLine
 10
1098.321154115087
 20
44.41430046267612
 30
0.0
 11
508.3211541150845
 21
634.4143004626767
 31
0.0
  0
LINE
  5
2E7
330
1F
100
AcDbEntity
  8
0-0
  6
JWW_DASHED1
 62
   120
370
     5
100
AcDbLine
 10
1098.32115411508
 20
54.31379539926183
 30
0.0
 11
508.3211541150811
 21
644.313795399262
 31
0.0
  0
LINE
  5
2E8
330
1F
100
AcDbEntity
  8
0-0
  6
JWW_DASHED1
 62
   120
370
     5
100
AcDbLine
 10
1098.321154115095
 20
64.2132903358825
 30
0.0
 11
508.3211541150879
 21
654.2132903358886
 31
0.0
  0
LINE
  5
2E9
330
1F
100
AcDbEntity
  8
0-0
  6
JWW_DASHED1
 62
   120
370
     5
100
AcDbLine
 10
1098.32115411509
 20
74.11278527246822
 30
0.0
 11
508.3211541150845
 21
664.112785272474
 31
0.0
  0
LINE
  5
2EA
330
1F
100
AcDbEntity
  8
0-0
  6
JWW_DASHED1
 62
   120
370
     5
100
AcDbLine
 10
1098.32115411509
 20
84.01228020910466
 30
0.0
 11
508.3211541150879
 21
674.0122802091048
 31
0.0
  0
LINE
  5
2EB
330
1F
100
AcDbEntity
  8
0-0
  6
JWW_DASHED1
 62
   120
370
     5
100
AcDbLine
 10
1098.321154115083
 20
93.91177514568994
 30
0.0
 11
508.3211541150845
 21
683.9117751456901
 31
0.0
  0
LINE
  5
2EC
330
1F
100
AcDbEntity
  8
0-0
  6
JWW_DASHED1
 62
   120
370
     5
100
AcDbLine
 10
1098.321154115097
 20
103.8112700823115
 30
0.0
 11
508.3211541150914
 21
693.8112700823172
 31
0.0
  0
LINE
  5
2ED
330
1F
100
AcDbEntity
  8
0-0
  6
JWW_DASHED1
 62
   120
370
     5
100
AcDbLine
 10
1098.321154115089
 20
113.710765018956
 30
0.0
 11
508.3211541150811
 21
703.7107650189616
 31
0.0
  0
LINE
  5
2EE
330
1F
100
AcDbEntity
  8
0-0
  6
JWW_DASHED1
 62
   120
370
     5
100
AcDbLine
 10
1098.321154115083
 20
123.6102599555417
 30
0.0
 11
508.3211541150777
 21
713.6102599555475
 31
0.0
  0
LINE
  5
2EF
330
1F
100
AcDbEntity
  8
0-0
  6
JWW_DASHED1
 62
   120
370
     5
100
AcDbLine
 10
1098.321154115083
 20
133.5097548921773
 30
0.0
 11
508.3211541150811
 21
723.5097548921774
 31
0.0
  0
LINE
  5
2F0
330
1F
100
AcDbEntity
  8
0-0
  6
JWW_DASHED1
 62
   120
370
     5
100
AcDbLine
 10
1098.3211541151
 20
143.4092498287404
 30
0.0
 11
508.3211541150811
 21
733.4092498287614
 31
0.0
  0
LINE
  5
2F1
330
1F
100
AcDbEntity
  8
0-0
  6
JWW_DASHED1
 62
   120
370
     5
100
AcDbLine
 10
1098.32115411509
 20
153.308744765385
 30
0.0
 11
508.3211541150845
 21
743.3087447653907
 31
0.0
  0
LINE
  5
2F2
330
1F
100
AcDbEntity
  8
0-0
  6
JWW_DASHED1
 62
   120
370
     5
100
AcDbLine
 10
1098.321154115087
 20
163.2082397019703
 30
0.0
 11
508.3211541150811
 21
753.2082397019759
 31
0.0
  0
LINE
  5
2F3
330
1F
100
AcDbEntity
  8
0-0
  6
JWW_DASHED1
 62
   120
370
     5
100
AcDbLine
 10
1098.321154115087
 20
173.1077346386054
 30
0.0
 11
508.3211541150845
 21
763.107734638606
 31
0.0
  0
LINE
  5
2F4
330
1F
100
AcDbEntity
  8
0-0
  6
JWW_DASHED1
 62
   120
370
     5
100
AcDbLine
 10
1098.32115411508
 20
183.0072295751916
 30
0.0
 11
508.3211541150811
 21
773.0072295751917
 31
0.0
  0
LINE
  5
2F5
330
1F
100
AcDbEntity
  8
0-0
  6
JWW_DASHED1
 62
   120
370
     5
100
AcDbLine
 10
1098.321154115094
 20
192.9067245118131
 30
0.0
 11
508.3211541150879
 21
782.9067245118192
 31
0.0
  0
LINE
  5
2F6
330
1F
100
AcDbEntity
  8
0-0
  6
JWW_DASHED1
 62
   120
370
     5
100
AcDbLine
 10
1098.321154115085
 20
202.8062194484576
 30
0.0
 11
508.3211541150777
 21
792.8062194484637
 31
0.0
  0
LINE
  5
2F7
330
1F
100
AcDbEntity
  8
0-0
  6
JWW_DASHED1
 62
   120
370
     5
100
AcDbLine
 10
1098.32115411509
 20
212.7057143850335
 30
0.0
 11
508.3211541150879
 21
802.7057143850345
 31
0.0
  0
LINE
  5
2F8
330
1F
100
AcDbEntity
  8
0-0
  6
JWW_DASHED1
 62
   120
370
     5
100
AcDbLine
 10
1098.321154115097
 20
222.6052093216627
 30
0.0
 11
508.3211541150811
 21
812.6052093216787
 31
0.0
  0
LINE
  5
2F9
330
1F
100
AcDbEntity
  8
0-0
  6
JWW_DASHED1
 62
   120
370
     5
100
AcDbLine
 10
1098.321154115097
 20
232.504704258242
 30
0.0
 11
508.3211541150914
 21
822.5047042582478
 31
0.0
  0
LINE
  5
2FA
330
1F
100
AcDbEntity
  8
0-0
  6
JWW_DASHED1
 62
   120
370
     5
100
AcDbLine
 10
1098.321154115087
 20
242.4041991948862
 30
0.0
 11
508.3211541150811
 21
832.4041991948923
 31
0.0
  0
LINE
  5
2FB
330
1F
100
AcDbEntity
  8
0-0
  6
JWW_DASHED1
 62
   120
370
     5
100
AcDbLine
 10
1098.321154115083
 20
252.3036941314719
 30
0.0
 11
508.3211541150777
 21
842.3036941314775
 31
0.0
  0
LINE
  5
2FC
330
1F
100
AcDbEntity
  8
0-0
  6
JWW_DASHED1
 62
   120
370
     5
100
AcDbLine
 10
1098.321154115083
 20
262.2031890681066
 30
0.0
 11
508.3211541150811
 21
852.2031890681071
 31
0.0
  0
LINE
  5
2FD
330
1F
100
AcDbEntity
  8
0-0
  6
JWW_DASHED1
 62
   120
370
     5
100
AcDbLine
 10
1098.321154115095
 20
272.1026840047298
 30
0.0
 11
508.3211541150879
 21
862.1026840047355
 31
0.0
  0
LINE
  5
2FE
330
1F
100
AcDbEntity
  8
0-0
  6
JWW_DASHED1
 62
   120
370
     5
100
AcDbLine
 10
1098.32115411509
 20
282.0021789413155
 30
0.0
 11
508.3211541150845
 21
872.0021789413213
 31
0.0
  0
LINE
  5
2FF
330
1F
100
AcDbEntity
  8
0-0
  6
JWW_DASHED1
 62
   120
370
     5
100
AcDbLine
 10
1098.32115411509
 20
291.9016738779499
 30
0.0
 11
508.3211541150914
 21
881.90167387795
 31
0.0
  0
LINE
  5
300
330
1F
100
AcDbEntity
  8
0-0
  6
JWW_DASHED1
 62
   120
370
     5
100
AcDbLine
 10
1098.321154115087
 20
301.8011688145351
 30
0.0
 11
514.6457249955668
 21
885.4765979340526
 31
0.0
  0
LINE
  5
301
330
1F
100
AcDbEntity
  8
0-0
  6
JWW_DASHED1
 62
   120
370
     5
100
AcDbLine
 10
1098.321154115083
 20
875.9718751380126
 30
0.0
 11
1088.816431319044
 21
885.4765979340526
 31
0.0
  0
LINE
  5
302
330
1F
100
AcDbEntity
  8
0-0
  6
JWW_DASHED1
 62
   120
370
     5
100
AcDbLine
 10
1098.321154115099
 20
311.7006637511579
 30
0.0
 11
524.5452199322019
 21
885.4765979340526
 31
0.0
  0
LINE
  5
303
330
1F
100
AcDbEntity
  8
0-0
  6
JWW_DASHED1
 62
   120
370
     5
100
AcDbLine
 10
1098.321154115094
 20
321.6001586877437
 30
0.0
 11
534.4447148687825
 21
885.4765979340526
 31
0.0
  0
LINE
  5
304
330
1F
100
AcDbEntity
  8
0-0
  6
JWW_DASHED1
 62
   120
370
     5
100
AcDbLine
 10
1098.321154115083
 20
331.4996536243882
 30
0.0
 11
544.3442098054177
 21
885.4765979340526
 31
0.0
  0
LINE
  5
305
330
1F
100
AcDbEntity
  8
0-0
  6
JWW_DASHED1
 62
   120
370
     5
100
AcDbLine
 10
1098.32115411509
 20
341.3991485609632
 30
0.0
 11
554.2437047419983
 21
885.4765979340526
 31
0.0
  0
LINE
  5
306
330
1F
100
AcDbEntity
  8
0-0
  6
JWW_DASHED1
 62
   120
370
     5
100
AcDbLine
 10
1098.3211541151
 20
351.2986434975869
 30
0.0
 11
564.1431996786334
 21
885.4765979340526
 31
0.0
  0
LINE
  5
307
330
1F
100
AcDbEntity
  8
0-0
  6
JWW_DASHED1
 62
   120
370
     5
100
AcDbLine
 10
1098.321154115092
 20
361.1981384342315
 30
0.0
 11
574.0426946152686
 21
885.4765979340526
 31
0.0
  0
LINE
  5
308
330
1F
100
AcDbEntity
  8
0-0
  6
JWW_DASHED1
 62
   120
370
     5
100
AcDbLine
 10
1098.321154115087
 20
371.0976333708172
 30
0.0
 11
583.9421895518492
 21
885.4765979340526
 31
0.0
  0
LINE
  5
309
330
1F
100
AcDbEntity
  8
0-0
  6
JWW_DASHED1
 62
   120
370
     5
100
AcDbLine
 10
1098.321154115089
 20
380.9971283074506
 30
0.0
 11
593.8416844884844
 21
885.4765979340526
 31
0.0
  0
LINE
  5
30A
330
1F
100
AcDbEntity
  8
0-0
  6
JWW_DASHED1
 62
   120
370
     5
100
AcDbLine
 10
1098.321154115083
 20
390.8966232440363
 30
0.0
 11
603.741179425065
 21
885.4765979340526
 31
0.0
  0
LINE
  5
30B
330
1F
100
AcDbEntity
  8
0-0
  6
JWW_DASHED1
 62
   120
370
     5
100
AcDbLine
 10
1098.321154115094
 20
400.7961181806604
 30
0.0
 11
613.6406743617001
 21
885.4765979340526
 31
0.0
  0
LINE
  5
30C
330
1F
100
AcDbEntity
  8
0-0
  6
JWW_DASHED1
 62
   120
370
     5
100
AcDbLine
 10
1098.32115411509
 20
410.6956131172457
 30
0.0
 11
623.5401692982807
 21
885.4765979340526
 31
0.0
  0
LINE
  5
30D
330
1F
100
AcDbEntity
  8
0-0
  6
JWW_DASHED1
 62
   120
370
     5
100
AcDbLine
 10
1098.321154115092
 20
420.5951080538787
 30
0.0
 11
633.4396642349159
 21
885.4765979340526
 31
0.0
  0
LINE
  5
30E
330
1F
100
AcDbEntity
  8
0-0
  6
JWW_DASHED1
 62
   120
370
     5
100
AcDbLine
 10
1098.321154115087
 20
430.4946029904644
 30
0.0
 11
643.3391591714965
 21
885.4765979340526
 31
0.0
  0
LINE
  5
30F
330
1F
100
AcDbEntity
  8
0-0
  6
JWW_DASHED1
 62
   120
370
     5
100
AcDbLine
 10
1098.321154115097
 20
440.394097927089
 30
0.0
 11
653.2386541081316
 21
885.4765979340526
 31
0.0
  0
LINE
  5
310
330
1F
100
AcDbEntity
  8
0-0
  6
JWW_DASHED1
 62
   120
370
     5
100
AcDbLine
 10
1098.321154115089
 20
450.2935928637335
 30
0.0
 11
663.1381490447668
 21
885.4765979340526
 31
0.0
  0
LINE
  5
311
330
1F
100
AcDbEntity
  8
0-0
  6
JWW_DASHED1
 62
   120
370
     5
100
AcDbLine
 10
1098.321154115083
 20
460.1930878003188
 30
0.0
 11
673.0376439813508
 21
885.4765979340526
 31
0.0
  0
LINE
  5
312
330
1F
100
AcDbEntity
  8
0-0
  6
JWW_DASHED1
 62
   120
370
     5
100
AcDbLine
 10
1098.321154115087
 20
470.0925827369518
 30
0.0
 11
682.9371389179826
 21
885.4765979340526
 31
0.0
  0
LINE
  5
313
330
1F
100
AcDbEntity
  8
0-0
  6
JWW_DASHED1
 62
   120
370
     5
100
AcDbLine
 10
1098.3211541151
 20
479.9920776735175
 30
0.0
 11
692.8366338545666
 21
885.4765979340526
 31
0.0
  0
LINE
  5
314
330
1F
100
AcDbEntity
  8
0-0
  6
JWW_DASHED1
 62
   120
370
     5
100
AcDbLine
 10
1098.32115411509
 20
489.891572610162
 30
0.0
 11
702.7361287911983
 21
885.4765979340526
 31
0.0
  0
LINE
  5
315
330
1F
100
AcDbEntity
  8
0-0
  6
JWW_DASHED1
 62
   120
370
     5
100
AcDbLine
 10
1098.321154115087
 20
499.7910675467473
 30
0.0
 11
712.6356237277789
 21
885.4765979340526
 31
0.0
  0
LINE
  5
316
330
1F
100
AcDbEntity
  8
0-0
  6
JWW_DASHED1
 62
   120
370
     5
100
AcDbLine
 10
1098.321154115089
 20
509.6905624833803
 30
0.0
 11
722.5351186644141
 21
885.4765979340526
 31
0.0
  0
LINE
  5
317
330
1F
100
AcDbEntity
  8
0-0
  6
JWW_DASHED1
 62
   120
370
     5
100
AcDbLine
 10
1098.321154115083
 20
519.5900574199657
 30
0.0
 11
732.4346136009947
 21
885.4765979340526
 31
0.0
  0
LINE
  5
318
330
1F
100
AcDbEntity
  8
0-0
  6
JWW_DASHED1
 62
   120
370
     5
100
AcDbLine
 10
1098.321154115094
 20
529.4895523565906
 30
0.0
 11
742.3341085376298
 21
885.4765979340526
 31
0.0
  0
LINE
  5
319
330
1F
100
AcDbEntity
  8
0-0
  6
JWW_DASHED1
 62
   120
370
     5
100
AcDbLine
 10
1098.321154115083
 20
539.3890472932351
 30
0.0
 11
752.233603474265
 21
885.4765979340526
 31
0.0
  0
LINE
  5
31A
330
1F
100
AcDbEntity
  8
0-0
  6
JWW_DASHED1
 62
   120
370
     5
100
AcDbLine
 10
1098.321154115092
 20
549.2885422298084
 30
0.0
 11
762.1330984108456
 21
885.4765979340526
 31
0.0
  0
LINE
  5
31B
330
1F
100
AcDbEntity
  8
0-0
  6
JWW_DASHED1
 62
   120
370
     5
100
AcDbLine
 10
1098.321154115099
 20
559.1880371664367
 30
0.0
 11
772.0325933474808
 21
885.4765979340526
 31
0.0
  0
LINE
  5
31C
330
1F
100
AcDbEntity
  8
0-0
  6
JWW_DASHED1
 62
   120
370
     5
100
AcDbLine
 10
1098.321154115097
 20
569.0875321030195
 30
0.0
 11
781.9320882840614
 21
885.4765979340526
 31
0.0
  0
LINE
  5
31D
330
1F
100
AcDbEntity
  8
0-0
  6
JWW_DASHED1
 62
   120
370
     5
100
AcDbLine
 10
1098.321154115087
 20
578.9870270396641
 30
0.0
 11
791.8315832206965
 21
885.4765979340526
 31
0.0
  0
LINE
  5
31E
330
1F
100
AcDbEntity
  8
0-0
  6
JWW_DASHED1
 62
   120
370
     5
100
AcDbLine
 10
1098.321154115083
 20
588.8865219762498
 30
0.0
 11
801.7310781572805
 21
885.4765979340526
 31
0.0
  0
LINE
  5
31F
330
1F
100
AcDbEntity
  8
0-0
  6
JWW_DASHED1
 62
   120
370
     5
100
AcDbLine
 10
1098.321154115087
 20
598.7860169128807
 30
0.0
 11
811.6305730939123
 21
885.4765979340526
 31
0.0
  0
LINE
  5
320
330
1F
100
AcDbEntity
  8
0-0
  6
JWW_DASHED1
 62
   120
370
     5
100
AcDbLine
 10
1098.321154115095
 20
608.6855118495068
 30
0.0
 11
821.5300680305475
 21
885.4765979340526
 31
0.0
  0
LINE
  5
321
330
1F
100
AcDbEntity
  8
0-0
  6
JWW_DASHED1
 62
   120
370
     5
100
AcDbLine
 10
1098.32115411509
 20
618.5850067860927
 30
0.0
 11
831.429562967128
 21
885.4765979340526
 31
0.0
  0
LINE
  5
322
330
1F
100
AcDbEntity
  8
0-0
  6
JWW_DASHED1
 62
   120
370
     5
100
AcDbLine
 10
1098.321154115094
 20
628.484501722724
 30
0.0
 11
841.3290579037632
 21
885.4765979340526
 31
0.0
  0
LINE
  5
323
330
1F
100
AcDbEntity
  8
0-0
  6
JWW_DASHED1
 62
   120
370
     5
100
AcDbLine
 10
1098.32115411509
 20
638.3839966593088
 30
0.0
 11
851.2285528403438
 21
885.4765979340526
 31
0.0
  0
LINE
  5
324
330
1F
100
AcDbEntity
  8
0-0
  6
JWW_DASHED1
 62
   120
370
     5
100
AcDbLine
 10
1098.321154115097
 20
648.2834915959359
 30
0.0
 11
861.128047776979
 21
885.4765979340526
 31
0.0
  0
LINE
  5
325
330
1F
100
AcDbEntity
  8
0-0
  6
JWW_DASHED1
 62
   120
370
     5
100
AcDbLine
 10
1098.321154115094
 20
658.1829865325211
 30
0.0
 11
871.0275427135596
 21
885.4765979340526
 31
0.0
  0
LINE
  5
326
330
1F
100
AcDbEntity
  8
0-0
  6
JWW_DASHED1
 62
   120
370
     5
100
AcDbLine
 10
1098.321154115083
 20
668.0824814691662
 30
0.0
 11
880.9270376501981
 21
885.4765979340526
 31
0.0
  0
LINE
  5
327
330
1F
100
AcDbEntity
  8
0-0
  6
JWW_DASHED1
 62
   120
370
     5
100
AcDbLine
 10
1098.321154115092
 20
677.9819764057381
 30
0.0
 11
890.8265325867753
 21
885.4765979340526
 31
0.0
  0
LINE
  5
328
330
1F
100
AcDbEntity
  8
0-0
  6
JWW_DASHED1
 62
   120
370
     5
100
AcDbLine
 10
1098.321154115099
 20
687.8814713423665
 30
0.0
 11
900.7260275234105
 21
885.4765979340526
 31
0.0
  0
LINE
  5
329
330
1F
100
AcDbEntity
  8
0-0
  6
JWW_DASHED1
 62
   120
370
     5
100
AcDbLine
 10
1098.32115411509
 20
697.7809662790089
 30
0.0
 11
910.6255224600457
 21
885.4765979340526
 31
0.0
  0
LINE
  5
32A
330
1F
100
AcDbEntity
  8
0-0
  6
JWW_DASHED1
 62
   120
370
     5
100
AcDbLine
 10
1098.321154115087
 20
707.6804612155946
 30
0.0
 11
920.5250173966263
 21
885.4765979340526
 31
0.0
  0
LINE
  5
32B
330
1F
100
AcDbEntity
  8
0-0
  6
JWW_DASHED1
 62
   120
370
     5
100
AcDbLine
 10
1098.32115411509
 20
717.5799561522251
 30
0.0
 11
930.4245123332614
 21
885.4765979340526
 31
0.0
  0
LINE
  5
32C
330
1F
100
AcDbEntity
  8
0-0
  6
JWW_DASHED1
 62
   120
370
     5
100
AcDbLine
 10
1098.321154115087
 20
727.4794510888104
 30
0.0
 11
940.324007269842
 21
885.4765979340526
 31
0.0
  0
LINE
  5
32D
330
1F
100
AcDbEntity
  8
0-0
  6
JWW_DASHED1
 62
   120
370
     5
100
AcDbLine
 10
1098.321154115094
 20
737.3789460254375
 30
0.0
 11
950.223502206479
 21
885.4765979340526
 31
0.0
  0
LINE
  5
32E
330
1F
100
AcDbEntity
  8
0-0
  6
JWW_DASHED1
 62
   120
370
     5
100
AcDbLine
 10
1098.32115411509
 20
747.2784409620227
 30
0.0
 11
960.1229971430596
 21
885.4765979340526
 31
0.0
  0
LINE
  5
32F
330
1F
100
AcDbEntity
  8
0-0
  6
JWW_DASHED1
 62
   120
370
     5
100
AcDbLine
 10
1098.321154115094
 20
757.1779358986532
 30
0.0
 11
970.0224920796948
 21
885.4765979340526
 31
0.0
  0
LINE
  5
330
330
1F
100
AcDbEntity
  8
0-0
  6
JWW_DASHED1
 62
   120
370
     5
100
AcDbLine
 10
1098.32115411509
 20
767.0774308352385
 30
0.0
 11
979.9219870162754
 21
885.4765979340526
 31
0.0
  0
LINE
  5
331
330
1F
100
AcDbEntity
  8
0-0
  6
JWW_DASHED1
 62
   120
370
     5
100
AcDbLine
 10
1098.321154115097
 20
776.9769257718665
 30
0.0
 11
989.8214819529105
 21
885.4765979340526
 31
0.0
  0
LINE
  5
332
330
1F
100
AcDbEntity
  8
0-0
  6
JWW_DASHED1
 62
   120
370
     5
100
AcDbLine
 10
1098.321154115087
 20
786.876420708511
 30
0.0
 11
999.7209768895457
 21
885.4765979340526
 31
0.0
  0
LINE
  5
333
330
1F
100
AcDbEntity
  8
0-0
  6
JWW_DASHED1
 62
   120
370
     5
100
AcDbLine
 10
1098.321154115083
 20
796.7759156450962
 30
0.0
 11
1009.620471826126
 21
885.4765979340526
 31
0.0
  0
LINE
  5
334
330
1F
100
AcDbEntity
  8
0-0
  6
JWW_DASHED1
 62
   120
370
     5
100
AcDbLine
 10
1098.321154115089
 20
806.6754105817258
 30
0.0
 11
1019.519966762761
 21
885.4765979340526
 31
0.0
  0
LINE
  5
335
330
1F
100
AcDbEntity
  8
0-0
  6
JWW_DASHED1
 62
   120
370
     5
100
AcDbLine
 10
1098.321154115099
 20
816.5749055182959
 30
0.0
 11
1029.419461699342
 21
885.4765979340526
 31
0.0
  0
LINE
  5
336
330
1F
100
AcDbEntity
  8
0-0
  6
JWW_DASHED1
 62
   120
370
     5
100
AcDbLine
 10
1098.32115411509
 20
826.4744004549395
 30
0.0
 11
1039.318956635977
 21
885.4765979340526
 31
0.0
  0
LINE
  5
337
330
1F
100
AcDbEntity
  8
0-0
  6
JWW_DASHED1
 62
   120
370
     5
100
AcDbLine
 10
1098.321154115085
 20
836.3738953915253
 30
0.0
 11
1049.218451572558
 21
885.4765979340526
 31
0.0
  0
LINE
  5
338
330
1F
100
AcDbEntity
  8
0-0
  6
JWW_DASHED1
 62
   120
370
     5
100
AcDbLine
 10
1098.32115411509
 20
846.2733903281544
 30
0.0
 11
1059.117946509193
 21
885.4765979340526
 31
0.0
  0
LINE
  5
339
330
1F
100
AcDbEntity
  8
0-0
  6
JWW_DASHED1
 62
   120
370
     5
100
AcDbLine
 10
1098.321154115099
 20
856.1728852647827
 30
0.0
 11
1069.01744144583
 21
885.4765979340526
 31
0.0
  0
LINE
  5
33A
330
1F
100
AcDbEntity
  8
0-0
  6
JWW_DASHED1
 62
   120
370
     5
100
AcDbLine
 10
1098.321154115094
 20
866.0723802013681
 30
0.0
 11
1078.916936382409
 21
885.4765979340526
 31
0.0
  0
LWPOLYLINE
  5
33B
330
1F
100
AcDbEntity
  8
寸法
  6
Continuous
 62
     7
370
     9
100
AcDbPolyline
 90
        4
 70
     1
 43
3.0
 10
-1637.178845884909
 20
1064.476597934053
 42
0.4142135623731
 10
-1638.678845884908
 20
1065.976597934053
 42
0.4142135623731
 10
-1640.178845884908
 20
1064.476597934053
 42
0.4142135623731
 10
-1638.678845884908
 20
1062.976597934054
 42
0.4142135623731
  0
LINE
  5
33C
330
1F
100
AcDbEntity
  8
寸法
  6
Continuous
 62
   120
370
     5
100
AcDbLine
 10
-1638.678845884908
 20
1064.476597934053
 30
0.0
 11
-1238.678845884909
 21
1064.476597934053
 31
0.0
  0
LINE
  5
33D
330
1F
100
AcDbEntity
  8
寸法
  6
Continuous
 62
   120
370
     5
100
AcDbLine
 10
-1638.678845884908
 20
1064.476597934053
 30
0.0
 11
-1638.678845884908
 21
-982.5234020659469
 31
0.0
  0
LINE
  5
33E
330
1F
100
AcDbEntity
  8
寸法
  6
Continuous
 62
   120
370
     5
100
AcDbLine
 10
-1638.678845884908
 20
-982.5234020659469
 30
0.0
 11
-1238.678845884909
 21
-982.5234020659469
 31
0.0
  0
LINE
  5
33F
330
1F
100
AcDbEntity
  8
寸法
  6
Continuous
 62
   120
370
     5
100
AcDbLine
 10
-1438.678845884908
 20
-962.5234020659464
 30
0.0
 11
-1238.678845884909
 21
-962.5234020659464
 31
0.0
  0
LWPOLYLINE
  5
340
330
1F
100
AcDbEntity
  8
寸法
  6
Continuous
 62
     7
370
     9
100
AcDbPolyline
 90
        4
 70
     1
 43
3.0
 10
-1637.178845884909
 20
-982.5234020659469
 42
0.4142135623731
 10
-1638.678845884908
 20
-981.023402065947
 42
0.4142135623731
 10
-1640.178845884908
 20
-982.5234020659469
 42
0.4142135623731
 10
-1638.678845884908
 20
-984.0234020659468
 42
0.4142135623731
  0
LWPOLYLINE
  5
341
330
1F
100
AcDbEntity
  8
寸法
  6
Continuous
 62
     7
370
     9
100
AcDbPolyline
 90
        4
 70
     1
 43
3.0
 10
-1437.178845884908
 20
-962.5234020659464
 42
0.4142135623731
 10
-1438.678845884908
 20
-961.0234020659465
 42
0.4142135623731
 10
-1440.178845884908
 20
-962.5234020659464
 42
0.4142135623731
 10
-1438.678845884908
 20
-964.0234020659464
 42
0.4142135623731
  0
LWPOLYLINE
  5
342
330
1F
100
AcDbEntity
  8
寸法
  6
Continuous
 62
     7
370
     9
100
AcDbPolyline
 90
        4
 70
     1
 43
3.0
 10
-1437.178845884908
 20
1020.476597934053
 42
0.4142135623731
 10
-1438.678845884908
 20
1021.976597934053
 42
0.4142135623731
 10
-1440.178845884908
 20
1020.476597934053
 42
0.4142135623731
 10
-1438.678845884908
 20
1018.976597934053
 42
0.4142135623731
  0
LINE
  5
343
330
1F
100
AcDbEntity
  8
寸法
  6
Continuous
 62
   120
370
     5
100
AcDbLine
 10
-1438.678845884908
 20
1020.476597934053
 30
0.0
 11
-1438.678845884908
 21
-962.5234020659464
 31
0.0
  0
LINE
  5
344
330
1F
100
AcDbEntity
  8
寸法
  6
Continuous
 62
   120
370
     5
100
AcDbLine
 10
-1438.678845884908
 20
1020.476597934053
 30
0.0
 11
-1238.678845884909
 21
1020.476597934053
 31
0.0
  0
LINE
  5
345
330
1F
100
AcDbEntity
  8
寸法
  6
Continuous
 62
   120
370
     5
100
AcDbLine
 10
-1158.678845884907
 20
-1432.523402065947
 30
0.0
 11
-1158.678845884907
 21
-1032.523402065947
 31
0.0
  0
LINE
  5
346
330
1F
100
AcDbEntity
  8
寸法
  6
Continuous
 62
   120
370
     5
100
AcDbLine
 10
-1188.678845884907
 20
-1632.523402065947
 30
0.0
 11
-1188.678845884907
 21
-1032.523402065947
 31
0.0
  0
LINE
  5
347
330
1F
100
AcDbEntity
  8
寸法
  6
Continuous
 62
   120
370
     5
100
AcDbLine
 10
-1158.678845884907
 20
-1432.523402065947
 30
0.0
 11
1205.321154115092
 21
-1432.523402065947
 31
0.0
  0
LINE
  5
348
330
1F
100
AcDbEntity
  8
寸法
  6
Continuous
 62
   120
370
     5
100
AcDbLine
 10
1205.321154115092
 20
-1432.523402065947
 30
0.0
 11
1205.321154115092
 21
-1032.523402065947
 31
0.0
  0
LINE
  5
349
330
1F
100
AcDbEntity
  8
寸法
  6
Continuous
 62
   120
370
     5
100
AcDbLine
 10
-1188.678845884907
 20
-1632.523402065947
 30
0.0
 11
1235.321154115092
 21
-1632.523402065946
 31
0.0
  0
LINE
  5
34A
330
1F
100
AcDbEntity
  8
寸法
  6
Continuous
 62
   120
370
     5
100
AcDbLine
 10
1235.321154115092
 20
-1632.523402065946
 30
0.0
 11
1235.321154115092
 21
-1032.523402065947
 31
0.0
  0
LINE
  5
34B
330
1F
100
AcDbEntity
  8
寸法
  6
Continuous
 62
   120
370
     5
100
AcDbLine
 10
398.3211541150925
 20
-1232.523402065946
 30
0.0
 11
398.3211541150925
 21
-1032.523402065947
 31
0.0
  0
LINE
  5
34C
330
1F
100
AcDbEntity
  8
寸法
  6
Continuous
 62
   120
370
     5
100
AcDbLine
 10
1208.321154115092
 20
-1232.523402065946
 30
0.0
 11
1208.321154115092
 21
-1032.523402065947
 31
0.0
  0
LINE
  5
34D
330
1F
100
AcDbEntity
  8
寸法
  6
Continuous
 62
   120
370
     5
100
AcDbLine
 10
1208.321154115092
 20
-1232.523402065946
 30
0.0
 11
398.3211541150925
 21
-1232.523402065946
 31
0.0
  0
LWPOLYLINE
  5
34E
330
1F
100
AcDbEntity
  8
寸法
  6
Continuous
 62
     7
370
     9
100
AcDbPolyline
 90
        4
 70
     1
 43
3.0
 10
-1157.178845884907
 20
-1432.523402065947
 42
0.4142135623731
 10
-1158.678845884907
 20
-1431.023402065947
 42
0.4142135623731
 10
-1160.178845884907
 20
-1432.523402065947
 42
0.4142135623731
 10
-1158.678845884907
 20
-1434.023402065947
 42
0.4142135623731
  0
LWPOLYLINE
  5
34F
330
1F
100
AcDbEntity
  8
寸法
  6
Continuous
 62
     7
370
     9
100
AcDbPolyline
 90
        4
 70
     1
 43
3.0
 10
-1187.178845884907
 20
-1632.523402065947
 42
0.4142135623731
 10
-1188.678845884907
 20
-1631.023402065948
 42
0.4142135623731
 10
-1190.178845884907
 20
-1632.523402065947
 42
0.4142135623731
 10
-1188.678845884907
 20
-1634.023402065947
 42
0.4142135623731
  0
LWPOLYLINE
  5
350
330
1F
100
AcDbEntity
  8
寸法
  6
Continuous
 62
     7
370
     9
100
AcDbPolyline
 90
        4
 70
     1
 43
3.0
 10
1206.821154115092
 20
-1432.523402065947
 42
0.4142135623731
 10
1205.321154115092
 20
-1431.023402065947
 42
0.4142135623731
 10
1203.821154115092
 20
-1432.523402065947
 42
0.4142135623731
 10
1205.321154115092
 20
-1434.023402065947
 42
0.4142135623731
  0
LWPOLYLINE
  5
351
330
1F
100
AcDbEntity
  8
寸法
  6
Continuous
 62
     7
370
     9
100
AcDbPolyline
 90
        4
 70
     1
 43
3.0
 10
1236.821154115092
 20
-1632.523402065946
 42
0.4142135623731
 10
1235.321154115092
 20
-1631.023402065947
 42
0.4142135623731
 10
1233.821154115092
 20
-1632.523402065946
 42
0.4142135623731
 10
1235.321154115092
 20
-1634.023402065946
 42
0.4142135623731
  0
LWPOLYLINE
  5
352
330
1F
100
AcDbEntity
  8
寸法
  6
Continuous
 62
     7
370
     9
100
AcDbPolyline
 90
        4
 70
     1
 43
3.0
 10
399.8211541150925
 20
-1232.523402065946
 42
0.4142135623731
 10
398.3211541150925
 20
-1231.023402065946
 42
0.4142135623731
 10
396.8211541150925
 20
-1232.523402065946
 42
0.4142135623731
 10
398.3211541150925
 20
-1234.023402065946
 42
0.4142135623731
  0
LWPOLYLINE
  5
353
330
1F
100
AcDbEntity
  8
寸法
  6
Continuous
 62
     7
370
     9
100
AcDbPolyline
 90
        4
 70
     1
 43
3.0
 10
1209.821154115092
 20
-1232.523402065946
 42
0.4142135623731
 10
1208.321154115092
 20
-1231.023402065946
 42
0.4142135623731
 10
1206.821154115093
 20
-1232.523402065946
 42
0.4142135623731
 10
1208.321154115092
 20
-1234.023402065946
 42
0.4142135623731
  0
MTEXT
  5
354
330
1F
100
AcDbEntity
  8
寸法
  6
Continuous
 62
     7
370
    70
100
AcDbMText
 10
-1653.678845884908
 20
-174.1984020659467
 30
0.0
 40
57.14999999999999
 41
412.5
 46
0.0
 71
     7
 72
     1
  1
{\fＭＳ ゴシック|b0|i0|c128|p49;枠外＝2,047}
 11
6.123031769111886E-17
 21
1.0
 31
0.0
 73
     1
 44
1.0
  0
MTEXT
  5
355
330
1F
100
AcDbEntity
  8
寸法
  6
Continuous
 62
     7
370
    70
100
AcDbMText
 10
-1453.678845884908
 20
-180.1984020659464
 30
0.0
 40
57.14999999999999
 41
412.5
 46
0.0
 71
     7
 72
     1
  1
{\fＭＳ ゴシック|b0|i0|c128|p49;ＤＨ＝1,983}
 11
6.123031769111886E-17
 21
1.0
 31
0.0
 73
     1
 44
1.0
  0
MTEXT
  5
356
330
1F
100
AcDbEntity
  8
寸法
  6
Continuous
 62
     7
370
   211
100
AcDbMText
 10
634.5711541150924
 20
-1226.448402065946
 30
0.0
 40
57.15000000000002
 41
337.5000000000001
 46
0.0
 71
     7
 72
     1
  1
{\fＭＳ ゴシック|b0|i0|c128|p49;ＤＷ＝810}
 73
     1
 44
1.0
  0
MTEXT
  5
357
330
1F
100
AcDbEntity
  8
寸法
  6
Continuous
 62
     7
370
   211
100
AcDbMText
 10
-182.9288458849075
 20
-1426.448402065947
 30
0.0
 40
57.14999999999999
 41
412.5
 46
0.0
 71
     7
 72
     1
  1
{\fＭＳ ゴシック|b0|i0|c128|p49;枠内＝2,364}
 73
     1
 44
1.0
  0
MTEXT
  5
358
330
1F
100
AcDbEntity
  8
寸法
  6
Continuous
 62
     7
370
   211
100
AcDbMText
 10
-182.9288458849075
 20
-1626.448402065947
 30
0.0
 40
57.14999999999999
 41
412.5
 46
0.0
 71
     7
 72
     1
  1
{\fＭＳ ゴシック|b0|i0|c128|p49;枠外＝2,424}
 73
     1
 44
1.0
  0
ENDSEC
  0
SECTION
  2
OBJECTS
  0
DICTIONARY
  5
C
330
0
100
AcDbDictionary
281
     1
  3
ACAD_GROUP
350
D
  3
ACAD_LAYOUT
350
1A
  3
ACAD_MATERIAL
350
3B
  3
ACAD_MLEADERSTYLE
350
35A
  3
ACAD_MLINESTYLE
350
17
  3
ACAD_PLOTSETTINGS
350
19
  3
ACAD_PLOTSTYLENAME
350
E
  3
ACAD_TABLESTYLE
350
359
  3
ACAD_VISUALSTYLE
350
2A
  0
DICTIONARY
  5
D
102
{ACAD_REACTORS
330
C
102
}
330
C
100
AcDbDictionary
281
     1
  0
DICTIONARY
  5
1A
102
{ACAD_REACTORS
330
C
102
}
330
C
100
AcDbDictionary
281
     1
  3
Layout1
350
1E
  3
Layout2
350
26
  3
Model
350
22
  0
DICTIONARY
  5
3B
102
{ACAD_REACTORS
330
C
102
}
330
C
100
AcDbDictionary
281
     1
  3
ByBlock
350
3D
  3
ByLayer
350
3C
  3
Global
350
3E
  0
DICTIONARY
  5
35A
102
{ACAD_REACTORS
330
C
102
}
330
C
100
AcDbDictionary
281
     1
  0
DICTIONARY
  5
17
102
{ACAD_REACTORS
330
C
102
}
330
C
100
AcDbDictionary
281
     1
  3
Standard
350
18
  0
DICTIONARY
  5
19
102
{ACAD_REACTORS
330
C
102
}
330
C
100
AcDbDictionary
281
     1
  0
ACDBDICTIONARYWDFLT
  5
E
102
{ACAD_REACTORS
330
C
102
}
330
C
100
AcDbDictionary
281
     1
  3
Normal
350
F
100
AcDbDictionaryWithDefault
340
F
  0
DICTIONARY
  5
359
102
{ACAD_REACTORS
330
C
102
}
330
C
100
AcDbDictionary
281
     1
  0
DICTIONARY
  5
2A
102
{ACAD_REACTORS
330
C
102
}
330
C
100
AcDbDictionary
281
     1
  3
2dWireframe
350
2F
  3
3D Hidden
350
31
  3
3dWireframe
350
30
  3
Basic
350
32
  3
Brighten
350
36
  3
ColorChange
350
3A
  3
Conceptual
350
34
  3
Dim
350
35
  3
Facepattern
350
39
  3
Flat
350
2B
  3
FlatWithEdges
350
2C
  3
Gouraud
350
2D
  3
GouraudWithEdges
350
2E
  3
Linepattern
350
38
  3
Realistic
350
33
  3
Thicken
350
37
  0
LAYOUT
  5
1E
102
{ACAD_REACTORS
330
1A
102
}
330
1A
100
AcDbPlotSettings
  1

  2
none_device
  4

  6

 40
0.0
 41
0.0
 42
0.0
 43
0.0
 44
0.0
 45
0.0
 46
0.0
 47
0.0
 48
0.0
 49
0.0
140
0.0
141
0.0
142
1.0
143
1.0
 70
   688
 72
     0
 73
     0
 74
     5
  7

 75
    16
 76
     0
 77
     5
 78
   300
147
1.0
148
0.0
149
0.0
100
AcDbLayout
  1
Layout1
 70
     1
 71
     1
 10
0.0
 20
0.0
 11
420.0
 21
297.0
 12
0.0
 22
0.0
 32
0.0
 14
1.000000000000000E+20
 24
1.000000000000000E+20
 34
1.000000000000000E+20
 15
-1.000000000000000E+20
 25
-1.000000000000000E+20
 35
-1.000000000000000E+20
146
0.0
 13
0.0
 23
0.0
 33
0.0
 16
1.0
 26
0.0
 36
0.0
 17
0.0
 27
1.0
 37
0.0
 76
     0
330
1B
  0
LAYOUT
  5
26
102
{ACAD_REACTORS
330
1A
102
}
330
1A
100
AcDbPlotSettings
  1

  2
none_device
  4

  6

 40
0.0
 41
0.0
 42
0.0
 43
0.0
 44
0.0
 45
0.0
 46
0.0
 47
0.0
 48
0.0
 49
0.0
140
0.0
141
0.0
142
1.0
143
1.0
 70
   688
 72
     0
 73
     0
 74
     5
  7

 75
    16
 76
     0
 77
     5
 78
   300
147
1.0
148
0.0
149
0.0
100
AcDbLayout
  1
Layout2
 70
     1
 71
     2
 10
0.0
 20
0.0
 11
0.0
 21
0.0
 12
0.0
 22
0.0
 32
0.0
 14
0.0
 24
0.0
 34
0.0
 15
0.0
 25
0.0
 35
0.0
146
0.0
 13
0.0
 23
0.0
 33
0.0
 16
1.0
 26
0.0
 36
0.0
 17
0.0
 27
1.0
 37
0.0
 76
     0
330
23
  0
LAYOUT
  5
22
102
{ACAD_REACTORS
330
1A
102
}
330
1A
100
AcDbPlotSettings
  1

  2
none_device
  4

  6

 40
0.0
 41
0.0
 42
0.0
 43
0.0
 44
0.0
 45
0.0
 46
0.0
 47
0.0
 48
0.0
 49
0.0
140
0.0
141
0.0
142
1.0
143
1.0
 70
  1712
 72
     0
 73
     0
 74
     0
  7

 75
     0
 76
     0
 77
     5
 78
   300
147
1.0
148
0.0
149
0.0
100
AcDbLayout
  1
Model
 70
     1
 71
     0
 10
-4455.0
 20
-3150.0
 11
4455.0
 21
3150.0
 12
0.0
 22
0.0
 32
0.0
 14
-4455.0
 24
-3150.0
 34
0.0
 15
4455.0
 25
3150.0
 35
0.0
146
0.0
 13
0.0
 23
0.0
 33
0.0
 16
1.0
 26
0.0
 36
0.0
 17
0.0
 27
1.0
 37
0.0
 76
     0
330
1F
331
29
  0
MATERIAL
  5
3D
102
{ACAD_REACTORS
330
3B
102
}
330
3B
100
AcDbMaterial
  1
ByBlock
 72
     1
 94
      127
  0
MATERIAL
  5
3C
102
{ACAD_REACTORS
330
3B
102
}
330
3B
100
AcDbMaterial
  1
ByLayer
 72
     1
 94
      127
  0
MATERIAL
  5
3E
102
{ACAD_REACTORS
330
3B
102
}
330
3B
100
AcDbMaterial
  1
Global
 72
     1
 94
      127
  0
MLINESTYLE
  5
18
102
{ACAD_REACTORS
330
17
102
}
330
17
100
AcDbMlineStyle
  2
Standard
 70
     0
  3

 62
   256
 51
90.0
 52
90.0
 71
     2
 49
0.5
 62
   256
  6
BYLAYER
 49
-0.5
 62
   256
  6
BYLAYER
  0
ACDBPLACEHOLDER
  5
F
102
{ACAD_REACTORS
330
E
102
}
330
E
  0
VISUALSTYLE
  5
2F
102
{ACAD_REACTORS
330
2A
102
}
330
2A
100
AcDbVisualStyle
  2
2dWireframe
 70
     4
177
     2
291
     0
 71
     0
176
     1
 72
     2
176
     1
 73
     0
176
     1
 90
        0
176
     1
 40
-0.6
176
     1
 41
-30.0
176
     1
 62
     5
 63
     7
421
 16777215
176
     1
 74
     1
176
     1
 91
        4
176
     1
 64
     7
176
     1
 65
   257
176
     1
 75
     1
176
     1
175
     1
176
     1
 42
1.0
176
     1
 92
        0
176
     1
 66
   257
176
     1
 43
1.0
176
     1
 76
     1
176
     1
 77
     6
176
     1
 78
     2
176
     1
 67
     7
176
     1
 79
     5
176
     1
170
     0
176
     1
171
     0
176
     1
290
     0
176
     1
 93
        1
176
     1
 44
0.0
176
     1
173
     0
176
     1
  0
VISUALSTYLE
  5
31
102
{ACAD_REACTORS
330
2A
102
}
330
2A
100
AcDbVisualStyle
  2
3D Hidden
 70
     6
177
     2
291
     0
 71
     1
176
     1
 72
     2
176
     1
 73
     2
176
     1
 90
        0
176
     1
 40
-0.6
176
     1
 41
-30.0
176
     1
 62
     5
 63
     7
421
 16777215
176
     1
 74
     2
176
     1
 91
        2
176
     1
 64
     7
176
     1
 65
   257
176
     1
 75
     2
176
     1
175
     1
176
     1
 42
40.0
176
     1
 92
        0
176
     1
 66
   257
176
     1
 43
1.0
176
     1
 76
     1
176
     1
 77
     6
176
     1
 78
     2
176
     1
 67
     7
176
     1
 79
     3
176
     1
170
     0
176
     1
171
     0
176
     1
290
     0
176
     1
 93
        1
176
     1
 44
0.0
176
     1
173
     0
176
     1
  0
VISUALSTYLE
  5
30
102
{ACAD_REACTORS
330
2A
102
}
330
2A
100
AcDbVisualStyle
  2
3dWireframe
 70
     5
177
     2
291
     0
 71
     0
176
     1
 72
     2
176
     1
 73
     0
176
     1
 90
        0
176
     1
 40
-0.6
176
     1
 41
-30.0
176
     1
 62
     5
 63
     7
421
 16777215
176
     1
 74
     1
176
     1
 91
        4
176
     1
 64
     7
176
     1
 65
   257
176
     1
 75
     1
176
     1
175
     1
176
     1
 42
1.0
176
     1
 92
        0
176
     1
 66
   257
176
     1
 43
1.0
176
     1
 76
     1
176
     1
 77
     6
176
     1
 78
     2
176
     1
 67
     7
176
     1
 79
     5
176
     1
170
     0
176
     1
171
     0
176
     1
290
     0
176
     1
 93
        1
176
     1
 44
0.0
176
     1
173
     0
176
     1
  0
VISUALSTYLE
  5
32
102
{ACAD_REACTORS
330
2A
102
}
330
2A
100
AcDbVisualStyle
  2
Basic
 70
     7
177
     2
291
     1
 71
     1
176
     1
 72
     0
176
     1
 73
     1
176
     1
 90
        0
176
     1
 40
-0.6
176
     1
 41
-30.0
176
     1
 62
     5
 63
     7
421
 16777215
176
     1
 74
     0
176
     1
 91
        4
176
     1
 64
     7
176
     1
 65
   257
176
     1
 75
     1
176
     1
175
     1
176
     1
 42
1.0
176
     1
 92
        8
176
     1
 66
     7
176
     1
 43
1.0
176
     1
 76
     1
176
     1
 77
     6
176
     1
 78
     2
176
     1
 67
     7
176
     1
 79
     5
176
     1
170
     0
176
     1
171
     0
176
     1
290
     0
176
     1
 93
        1
176
     1
 44
0.0
176
     1
173
     0
176
     1
  0
VISUALSTYLE
  5
36
102
{ACAD_REACTORS
330
2A
102
}
330
2A
100
AcDbVisualStyle
  2
Brighten
 70
    12
177
     2
291
     1
 71
     2
176
     1
 72
     2
176
     1
 73
     0
176
     1
 90
        0
176
     1
 40
-0.6
176
     1
 41
-30.0
176
     1
 62
     5
 63
     7
421
 16777215
176
     1
 74
     1
176
     1
 91
        4
176
     1
 64
     7
176
     1
 65
   257
176
     1
 75
     1
176
     1
175
     1
176
     1
 42
1.0
176
     1
 92
        8
176
     1
 66
     7
176
     1
 43
1.0
176
     1
 76
     1
176
     1
 77
     6
176
     1
 78
     2
176
     1
 67
     7
176
     1
 79
     5
176
     1
170
     0
176
     1
171
     0
176
     1
290
     0
176
     1
 93
        1
176
     1
 44
50.0
176
     1
173
     0
176
     1
  0
VISUALSTYLE
  5
3A
102
{ACAD_REACTORS
330
2A
102
}
330
2A
100
AcDbVisualStyle
  2
ColorChange
 70
    16
177
     2
291
     1
 71
     2
176
     1
 72
     2
176
     1
 73
     3
176
     1
 90
        0
176
     1
 40
-0.6
176
     1
 41
-30.0
176
     1
 62
     5
 63
     8
421
  8421504
176
     1
 74
     1
176
     1
 91
        4
176
     1
 64
     7
176
     1
 65
   257
176
     1
 75
     1
176
     1
175
     1
176
     1
 42
1.0
176
     1
 92
        8
176
     1
 66
     8
424
  8421504
176
     1
 43
1.0
176
     1
 76
     1
176
     1
 77
     6
176
     1
 78
     2
176
     1
 67
     7
176
     1
 79
     5
176
     1
170
     0
176
     1
171
     0
176
     1
290
     0
176
     1
 93
        1
176
     1
 44
0.0
176
     1
173
     0
176
     1
  0
VISUALSTYLE
  5
34
102
{ACAD_REACTORS
330
2A
102
}
330
2A
100
AcDbVisualStyle
  2
Conceptual
 70
     9
177
     2
291
     0
 71
     3
176
     1
 72
     2
176
     1
 73
     0
176
     1
 90
        0
176
     1
 40
-0.6
176
     1
 41
-30.0
176
     1
 62
     5
 63
     7
421
 16777215
176
     1
 74
     2
176
     1
 91
        2
176
     1
 64
     7
176
     1
 65
   257
176
     1
 75
     1
176
     1
175
     1
176
     1
 42
40.0
176
     1
 92
        8
176
     1
 66
     7
176
     1
 43
1.0
176
     1
 76
     1
176
     1
 77
     6
176
     1
 78
     2
176
     1
 67
     7
176
     1
 79
     3
176
     1
170
     0
176
     1
171
     0
176
     1
290
     0
176
     1
 93
        1
176
     1
 44
0.0
176
     1
173
     0
176
     1
  0
VISUALSTYLE
  5
35
102
{ACAD_REACTORS
330
2A
102
}
330
2A
100
AcDbVisualStyle
  2
Dim
 70
    11
177
     2
291
     1
 71
     2
176
     1
 72
     2
176
     1
 73
     0
176
     1
 90
        0
176
     1
 40
-0.6
176
     1
 41
-30.0
176
     1
 62
     5
 63
     7
421
 16777215
176
     1
 74
     1
176
     1
 91
        4
176
     1
 64
     7
176
     1
 65
   257
176
     1
 75
     1
176
     1
175
     1
176
     1
 42
1.0
176
     1
 92
        8
176
     1
 66
     7
176
     1
 43
1.0
176
     1
 76
     1
176
     1
 77
     6
176
     1
 78
     2
176
     1
 67
     7
176
     1
 79
     5
176
     1
170
     0
176
     1
171
     0
176
     1
290
     0
176
     1
 93
        1
176
     1
 44
-50.0
176
     1
173
     0
176
     1
  0
VISUALSTYLE
  5
39
102
{ACAD_REACTORS
330
2A
102
}
330
2A
100
AcDbVisualStyle
  2
Facepattern
 70
    15
177
     2
291
     1
 71
     2
176
     1
 72
     2
176
     1
 73
     0
176
     1
 90
        0
176
     1
 40
-0.6
176
     1
 41
-30.0
176
     1
 62
     5
 63
     7
421
 16777215
176
     1
 74
     1
176
     1
 91
        4
176
     1
 64
     7
176
     1
 65
   257
176
     1
 75
     1
176
     1
175
     1
176
     1
 42
1.0
176
     1
 92
        8
176
     1
 66
     7
176
     1
 43
1.0
176
     1
 76
     1
176
     1
 77
     6
176
     1
 78
     2
176
     1
 67
     7
176
     1
 79
     5
176
     1
170
     0
176
     1
171
     0
176
     1
290
     0
176
     1
 93
        1
176
     1
 44
0.0
176
     1
173
     0
176
     1
  0
VISUALSTYLE
  5
2B
102
{ACAD_REACTORS
330
2A
102
}
330
2A
100
AcDbVisualStyle
  2
Flat
 70
     0
177
     2
291
     1
 71
     2
176
     1
 72
     1
176
     1
 73
     1
176
     1
 90
        2
176
     1
 40
-0.6
176
     1
 41
30.0
176
     1
 62
     5
 63
     7
421
 16777215
176
     1
 74
     0
176
     1
 91
        4
176
     1
 64
     7
176
     1
 65
   257
176
     1
 75
     1
176
     1
175
     1
176
     1
 42
1.0
176
     1
 92
        8
176
     1
 66
     7
176
     1
 43
1.0
176
     1
 76
     1
176
     1
 77
     6
176
     1
 78
     2
176
     1
 67
     7
176
     1
 79
     5
176
     1
170
     0
176
     1
171
     0
176
     1
290
     0
176
     1
 93
       13
176
     1
 44
0.0
176
     1
173
     0
176
     1
  0
VISUALSTYLE
  5
2C
102
{ACAD_REACTORS
330
2A
102
}
330
2A
100
AcDbVisualStyle
  2
FlatWithEdges
 70
     1
177
     2
291
     1
 71
     2
176
     1
 72
     1
176
     1
 73
     1
176
     1
 90
        2
176
     1
 40
-0.6
176
     1
 41
30.0
176
     1
 62
     5
 63
     7
421
 16777215
176
     1
 74
     1
176
     1
 91
        4
176
     1
 64
     7
176
     1
 65
   257
176
     1
 75
     1
176
     1
175
     1
176
     1
 42
1.0
176
     1
 92
        0
176
     1
 66
   257
176
     1
 43
1.0
176
     1
 76
     1
176
     1
 77
     6
176
     1
 78
     2
176
     1
 67
     7
176
     1
 79
     5
176
     1
170
     0
176
     1
171
     0
176
     1
290
     0
176
     1
 93
       13
176
     1
 44
0.0
176
     1
173
     0
176
     1
  0
VISUALSTYLE
  5
2D
102
{ACAD_REACTORS
330
2A
102
}
330
2A
100
AcDbVisualStyle
  2
Gouraud
 70
     2
177
     2
291
     1
 71
     2
176
     1
 72
     2
176
     1
 73
     1
176
     1
 90
        2
176
     1
 40
-0.6
176
     1
 41
30.0
176
     1
 62
     5
 63
     7
421
 16777215
176
     1
 74
     0
176
     1
 91
        4
176
     1
 64
     7
176
     1
 65
   257
176
     1
 75
     1
176
     1
175
     1
176
     1
 42
1.0
176
     1
 92
        0
176
     1
 66
     7
176
     1
 43
1.0
176
     1
 76
     1
176
     1
 77
     6
176
     1
 78
     2
176
     1
 67
     7
176
     1
 79
     5
176
     1
170
     0
176
     1
171
     0
176
     1
290
     0
176
     1
 93
       13
176
     1
 44
0.0
176
     1
173
     0
176
     1
  0
VISUALSTYLE
  5
2E
102
{ACAD_REACTORS
330
2A
102
}
330
2A
100
AcDbVisualStyle
  2
GouraudWithEdges
 70
     3
177
     2
291
     1
 71
     2
176
     1
 72
     2
176
     1
 73
     1
176
     1
 90
        2
176
     1
 40
-0.6
176
     1
 41
30.0
176
     1
 62
     5
 63
     7
421
 16777215
176
     1
 74
     1
176
     1
 91
        4
176
     1
 64
     7
176
     1
 65
   257
176
     1
 75
     1
176
     1
175
     1
176
     1
 42
1.0
176
     1
 92
        0
176
     1
 66
   257
176
     1
 43
1.0
176
     1
 76
     1
176
     1
 77
     6
176
     1
 78
     2
176
     1
 67
     7
176
     1
 79
     5
176
     1
170
     0
176
     1
171
     0
176
     1
290
     0
176
     1
 93
       13
176
     1
 44
0.0
176
     1
173
     0
176
     1
  0
VISUALSTYLE
  5
38
102
{ACAD_REACTORS
330
2A
102
}
330
2A
100
AcDbVisualStyle
  2
Linepattern
 70
    14
177
     2
291
     1
 71
     2
176
     1
 72
     2
176
     1
 73
     0
176
     1
 90
        0
176
     1
 40
-0.6
176
     1
 41
-30.0
176
     1
 62
     5
 63
     7
421
 16777215
176
     1
 74
     1
176
     1
 91
        4
176
     1
 64
     7
176
     1
 65
   257
176
     1
 75
     7
176
     1
175
     7
176
     1
 42
1.0
176
     1
 92
        8
176
     1
 66
     7
176
     1
 43
1.0
176
     1
 76
     1
176
     1
 77
     6
176
     1
 78
     2
176
     1
 67
     7
176
     1
 79
     5
176
     1
170
     0
176
     1
171
     0
176
     1
290
     0
176
     1
 93
        1
176
     1
 44
0.0
176
     1
173
     0
176
     1
  0
VISUALSTYLE
  5
33
102
{ACAD_REACTORS
330
2A
102
}
330
2A
100
AcDbVisualStyle
  2
Realistic
 70
     8
177
     2
291
     0
 71
     2
176
     1
 72
     2
176
     1
 73
     0
176
     1
 90
        0
176
     1
 40
-0.6
176
     1
 41
-30.0
176
     1
 62
     5
 63
     7
421
 16777215
176
     1
 74
     1
176
     1
 91
        0
176
     1
 64
     7
176
     1
 65
   257
176
     1
 75
     1
176
     1
175
     1
176
     1
 42
1.0
176
     1
 92
        8
176
     1
 66
     8
424
  7895160
176
     1
 43
1.0
176
     1
 76
     1
176
     1
 77
     6
176
     1
 78
     2
176
     1
 67
     7
176
     1
 79
     5
176
     1
170
     0
176
     1
171
     0
176
     1
290
     0
176
     1
 93
       13
176
     1
 44
0.0
176
     1
173
     0
176
     1
  0
VISUALSTYLE
  5
37
102
{ACAD_REACTORS
330
2A
102
}
330
2A
100
AcDbVisualStyle
  2
Thicken
 70
    13
177
     2
291
     1
 71
     2
176
     1
 72
     2
176
     1
 73
     0
176
     1
 90
        0
176
     1
 40
-0.6
176
     1
 41
-30.0
176
     1
 62
     5
 63
     7
421
 16777215
176
     1
 74
     1
176
     1
 91
        4
176
     1
 64
     7
176
     1
 65
   257
176
     1
 75
     1
176
     1
175
     1
176
     1
 42
1.0
176
     1
 92
       12
176
     1
 66
     7
176
     1
 43
1.0
176
     1
 76
     1
176
     1
 77
     6
176
     1
 78
     2
176
     1
 67
     7
176
     1
 79
     5
176
     1
170
     0
176
     1
171
     0
176
     1
290
     0
176
     1
 93
        1
176
     1
 44
0.0
176
     1
173
     0
176
     1
  0
ENDSEC
  0
EOF
