  0
SECTION
  2
HEADER
  9
$ACADVER
  1
AC1024
  9
$ACADMAINTVER
 70
     6
  9
$DWGCODEPAGE
  3
ANSI_932
  9
$INSBASE
 10
0.0
 20
0.0
 30
0.0
  9
$EXTMIN
 10
-6300.0
 20
-4455.0
 30
0.0
  9
$EXTMAX
 10
6300.0
 20
4455.0
 30
0.0
  9
$LIMMIN
 10
-6300.0
 20
-4455.0
  9
$LIMMAX
 10
6300.0
 20
4455.0
  9
$ORTHOMODE
 70
     0
  9
$REGENMODE
 70
     1
  9
$FILLMODE
 70
     1
  9
$QTEXTMODE
 70
     0
  9
$MIRRTEXT
 70
     1
  9
$LTSCALE
 40
30.0
  9
$ATTMODE
 70
     1
  9
$TEXTSIZE
 40
2.5
  9
$TRACEWID
 40
1.0
  9
$TEXTSTYLE
  7
Standard
  9
$CLAYER
  8
0
  9
$CELTYPE
  6
ByLayer
  9
$CECOLOR
 62
   256
  9
$CELTSCALE
 40
1.0
  9
$DISPSILH
 70
     0
  9
$DIMSCALE
 40
1.0
  9
$DIMASZ
 40
2.5
  9
$DIMEXO
 40
0.625
  9
$DIMDLI
 40
3.75
  9
$DIMRND
 40
0.0
  9
$DIMDLE
 40
0.0
  9
$DIMEXE
 40
1.25
  9
$DIMTP
 40
0.0
  9
$DIMTM
 40
0.0
  9
$DIMTXT
 40
2.5
  9
$DIMCEN
 40
2.5
  9
$DIMTSZ
 40
0.0
  9
$DIMTOL
 70
     0
  9
$DIMLIM
 70
     0
  9
$DIMTIH
 70
     0
  9
$DIMTOH
 70
     0
  9
$DIMSE1
 70
     0
  9
$DIMSE2
 70
     0
  9
$DIMTAD
 70
     1
  9
$DIMZIN
 70
     8
  9
$DIMBLK
  1

  9
$DIMASO
 70
     1
  9
$DIMSHO
 70
     1
  9
$DIMPOST
  1

  9
$DIMAPOST
  1

  9
$DIMALT
 70
     0
  9
$DIMALTD
 70
     3
  9
$DIMALTF
 40
0.03937007874016
  9
$DIMLFAC
 40
1.0
  9
$DIMTOFL
 70
     1
  9
$DIMTVP
 40
0.0
  9
$DIMTIX
 70
     0
  9
$DIMSOXD
 70
     0
  9
$DIMSAH
 70
     0
  9
$DIMBLK1
  1

  9
$DIMBLK2
  1

  9
$DIMSTYLE
  2
ISO-25
  9
$DIMCLRD
 70
     0
  9
$DIMCLRE
 70
     0
  9
$DIMCLRT
 70
     0
  9
$DIMTFAC
 40
1.0
  9
$DIMGAP
 40
0.625
  9
$DIMJUST
 70
     0
  9
$DIMSD1
 70
     0
  9
$DIMSD2
 70
     0
  9
$DIMTOLJ
 70
     0
  9
$DIMTZIN
 70
     8
  9
$DIMALTZ
 70
     0
  9
$DIMALTTZ
 70
     0
  9
$DIMUPT
 70
     0
  9
$DIMDEC
 70
     2
  9
$DIMTDEC
 70
     2
  9
$DIMALTU
 70
     2
  9
$DIMALTTD
 70
     3
  9
$DIMTXSTY
  7
Standard
  9
$DIMAUNIT
 70
     0
  9
$DIMADEC
 70
     0
  9
$DIMALTRND
 40
0.0
  9
$DIMAZIN
 70
     0
  9
$DIMDSEP
 70
    44
  9
$DIMATFIT
 70
     3
  9
$DIMFRAC
 70
     0
  9
$DIMLDRBLK
  1

  9
$DIMLUNIT
 70
     2
  9
$DIMLWD
 70
    -2
  9
$DIMLWE
 70
    -2
  9
$DIMTMOVE
 70
     0
  9
$DIMFXL
 40
1.0
  9
$DIMFXLON
 70
     0
  9
$DIMJOGANG
 40
0.7853981633974483
  9
$DIMTFILL
 70
     0
  9
$DIMTFILLCLR
 70
     0
  9
$DIMARCSYM
 70
     0
  9
$DIMLTYPE
  6

  9
$DIMLTEX1
  6

  9
$DIMLTEX2
  6

  9
$DIMTXTDIRECTION
 70
     0
  9
$LUNITS
 70
     2
  9
$LUPREC
 70
     4
  9
$SKETCHINC
 40
1.0
  9
$FILLETRAD
 40
10.0
  9
$AUNITS
 70
     0
  9
$AUPREC
 70
     0
  9
$MENU
  1
.
  9
$ELEVATION
 40
0.0
  9
$PELEVATION
 40
0.0
  9
$THICKNESS
 40
0.0
  9
$LIMCHECK
 70
     0
  9
$CHAMFERA
 40
10.0
  9
$CHAMFERB
 40
10.0
  9
$CHAMFERC
 40
20.0
  9
$CHAMFERD
 40
0.0
  9
$SKPOLY
 70
     0
  9
$TDCREATE
 40
2457953.399727639
  9
$TDUCREATE
 40
2457953.024727639
  9
$TDUPDATE
 40
2457953.39972765
  9
$TDUUPDATE
 40
2457953.02472765
  9
$TDINDWG
 40
0.0000000116
  9
$TDUSRTIMER
 40
0.0000000116
  9
$USRTIMER
 70
     1
  9
$ANGBASE
 50
0.0
  9
$ANGDIR
 70
     0
  9
$PDMODE
 70
     0
  9
$PDSIZE
 40
0.0
  9
$PLINEWID
 40
0.0
  9
$SPLFRAME
 70
     0
  9
$SPLINETYPE
 70
     6
  9
$SPLINESEGS
 70
     8
  9
$HANDSEED
  5
3C2
  9
$SURFTAB1
 70
     6
  9
$SURFTAB2
 70
     6
  9
$SURFTYPE
 70
     6
  9
$SURFU
 70
     6
  9
$SURFV
 70
     6
  9
$UCSBASE
  2

  9
$UCSNAME
  2

  9
$UCSORG
 10
0.0
 20
0.0
 30
0.0
  9
$UCSXDIR
 10
1.0
 20
0.0
 30
0.0
  9
$UCSYDIR
 10
0.0
 20
1.0
 30
0.0
  9
$UCSORTHOREF
  2

  9
$UCSORTHOVIEW
 70
     0
  9
$UCSORGTOP
 10
0.0
 20
0.0
 30
0.0
  9
$UCSORGBOTTOM
 10
0.0
 20
0.0
 30
0.0
  9
$UCSORGLEFT
 10
0.0
 20
0.0
 30
0.0
  9
$UCSORGRIGHT
 10
0.0
 20
0.0
 30
0.0
  9
$UCSORGFRONT
 10
0.0
 20
0.0
 30
0.0
  9
$UCSORGBACK
 10
0.0
 20
0.0
 30
0.0
  9
$PUCSBASE
  2

  9
$PUCSNAME
  2

  9
$PUCSORG
 10
0.0
 20
0.0
 30
0.0
  9
$PUCSXDIR
 10
1.0
 20
0.0
 30
0.0
  9
$PUCSYDIR
 10
0.0
 20
1.0
 30
0.0
  9
$PUCSORTHOREF
  2

  9
$PUCSORTHOVIEW
 70
     0
  9
$PUCSORGTOP
 10
0.0
 20
0.0
 30
0.0
  9
$PUCSORGBOTTOM
 10
0.0
 20
0.0
 30
0.0
  9
$PUCSORGLEFT
 10
0.0
 20
0.0
 30
0.0
  9
$PUCSORGRIGHT
 10
0.0
 20
0.0
 30
0.0
  9
$PUCSORGFRONT
 10
0.0
 20
0.0
 30
0.0
  9
$PUCSORGBACK
 10
0.0
 20
0.0
 30
0.0
  9
$USERI1
 70
     0
  9
$USERI2
 70
     0
  9
$USERI3
 70
     0
  9
$USERI4
 70
     0
  9
$USERI5
 70
     0
  9
$USERR1
 40
0.0
  9
$USERR2
 40
0.0
  9
$USERR3
 40
0.0
  9
$USERR4
 40
0.0
  9
$USERR5
 40
0.0
  9
$WORLDVIEW
 70
     1
  9
$SHADEDGE
 70
     3
  9
$SHADEDIF
 70
    70
  9
$TILEMODE
 70
     1
  9
$MAXACTVP
 70
    64
  9
$PINSBASE
 10
0.0
 20
0.0
 30
0.0
  9
$PLIMCHECK
 70
     0
  9
$PEXTMIN
 10
1.000000000000000E+20
 20
1.000000000000000E+20
 30
1.000000000000000E+20
  9
$PEXTMAX
 10
-1.000000000000000E+20
 20
-1.000000000000000E+20
 30
-1.000000000000000E+20
  9
$PLIMMIN
 10
0.0
 20
0.0
  9
$PLIMMAX
 10
420.0
 20
297.0
  9
$UNITMODE
 70
     0
  9
$VISRETAIN
 70
     1
  9
$PLINEGEN
 70
     0
  9
$PSLTSCALE
 70
     1
  9
$TREEDEPTH
 70
  3020
  9
$CMLSTYLE
  2
Standard
  9
$CMLJUST
 70
     0
  9
$CMLSCALE
 40
20.0
  9
$PROXYGRAPHICS
 70
     1
  9
$MEASUREMENT
 70
     1
  9
$CELWEIGHT
370
    -1
  9
$ENDCAPS
280
     0
  9
$JOINSTYLE
280
     0
  9
$LWDISPLAY
290
     0
  9
$INSUNITS
 70
     4
  9
$HYPERLINKBASE
  1

  9
$STYLESHEET
  1

  9
$XEDIT
290
     1
  9
$CEPSNTYPE
380
     0
  9
$PSTYLEMODE
290
     1
  9
$FINGERPRINTGUID
  2
{B8282016-7083-4746-89FD-BB99BBD91BF0}
  9
$VERSIONGUID
  2
{FAEB1C32-E019-11D5-929B-00C0DF256EC4}
  9
$EXTNAMES
290
     1
  9
$PSVPSCALE
 40
0.0
  9
$OLESTARTUP
290
     0
  9
$SORTENTS
280
   127
  9
$INDEXCTL
280
     0
  9
$HIDETEXT
280
     1
  9
$XCLIPFRAME
280
     2
  9
$HALOGAP
280
     0
  9
$OBSCOLOR
 70
   257
  9
$OBSLTYPE
280
     0
  9
$INTERSECTIONDISPLAY
280
     0
  9
$INTERSECTIONCOLOR
 70
   257
  9
$DIMASSOC
280
     2
  9
$PROJECTNAME
  1

  9
$CAMERADISPLAY
290
     0
  9
$LENSLENGTH
 40
50.0
  9
$CAMERAHEIGHT
 40
0.0
  9
$STEPSPERSEC
 40
2.0
  9
$STEPSIZE
 40
6.0
  9
$3DDWFPREC
 40
2.0
  9
$PSOLWIDTH
 40
5.0
  9
$PSOLHEIGHT
 40
80.0
  9
$LOFTANG1
 40
1.570796326794897
  9
$LOFTANG2
 40
1.570796326794897
  9
$LOFTMAG1
 40
0.0
  9
$LOFTMAG2
 40
0.0
  9
$LOFTPARAM
 70
     7
  9
$LOFTNORMALS
280
     1
  9
$LATITUDE
 40
37.795
  9
$LONGITUDE
 40
-122.394
  9
$NORTHDIRECTION
 40
0.0
  9
$TIMEZONE
 70
 -8000
  9
$LIGHTGLYPHDISPLAY
280
     1
  9
$TILEMODELIGHTSYNCH
280
     1
  9
$SOLIDHIST
280
     1
  9
$SHOWHIST
280
     1
  9
$DWFFRAME
280
     2
  9
$DGNFRAME
280
     2
  9
$REALWORLDSCALE
290
     1
  9
$INTERFERECOLOR
 62
   256
  9
$CSHADOW
280
     0
  9
$SHADOWPLANELOCATION
 40
0.0
  0
ENDSEC
  0
SECTION
  2
CLASSES
  0
CLASS
  1
ACDBDICTIONARYWDFLT
  2
AcDbDictionaryWithDefault
  3
ObjectDBX Classes
 90
        0
 91
        4
280
     0
281
     0
  0
CLASS
  1
VISUALSTYLE
  2
AcDbVisualStyle
  3
ObjectDBX Classes
 90
     4095
 91
        4
280
     0
281
     0
  0
CLASS
  1
MATERIAL
  2
AcDbMaterial
  3
ObjectDBX Classes
 90
     1153
 91
        4
280
     0
281
     0
  0
ENDSEC
  0
SECTION
  2
TABLES
  0
TABLE
  2
VPORT
  5
8
330
0
100
AcDbSymbolTable
 70
     1
  0
VPORT
  5
29
330
8
100
AcDbSymbolTableRecord
100
AcDbViewportTableRecord
  2
*Active
 70
     0
 10
0.0
 20
0.0
 11
1.0
 21
1.0
 12
0.0
 22
0.0
 13
0.0
 23
0.0
 14
10.0
 24
10.0
 15
10.0
 25
10.0
 16
0.0
 26
0.0
 36
1.0
 17
0.0
 27
0.0
 37
0.0
 40
9801.0
 41
1.414141414141414
 42
50.0
 43
0.0
 44
0.0
 50
0.0
 51
0.0
 71
     0
 72
 10000
 73
     1
 74
     3
 75
     0
 76
     0
 77
     0
 78
     0
281
     0
 65
     1
110
0.0
120
0.0
130
0.0
111
1.0
121
0.0
131
0.0
112
0.0
122
1.0
132
0.0
 79
     0
146
0.0
 60
     3
 61
     5
292
     1
282
     1
141
0.0
142
0.0
 63
   250
  0
ENDTAB
  0
TABLE
  2
LTYPE
  5
5
330
0
100
AcDbSymbolTable
 70
     3
  0
LTYPE
  5
14
330
5
100
AcDbSymbolTableRecord
100
AcDbLinetypeTableRecord
  2
ByBlock
 70
     0
  3

 72
    65
 73
     0
 40
0.0
  0
LTYPE
  5
15
330
5
100
AcDbSymbolTableRecord
100
AcDbLinetypeTableRecord
  2
ByLayer
 70
     0
  3

 72
    65
 73
     0
 40
0.0
  0
LTYPE
  5
16
330
5
100
AcDbSymbolTableRecord
100
AcDbLinetypeTableRecord
  2
Continuous
 70
     0
  3
Solid line
 72
    65
 73
     0
 40
0.0
  0
LTYPE
  5
3F
330
5
100
AcDbSymbolTableRecord
100
AcDbLinetypeTableRecord
  2
JWW_HOJO
 70
     0
  3
  -   -   -   -   -   -   -   - 
 72
    65
 73
     2
 40
1.693333333333333
 49
-1.27
 74
     0
 49
0.4233333333333333
 74
     0
  0
LTYPE
  5
40
330
5
100
AcDbSymbolTableRecord
100
AcDbLinetypeTableRecord
  2
JWW_CENTER1
 70
     0
  3
-----  --  ----------  --  -----
 72
    65
 73
     4
 40
3.386666666666667
 49
2.116666666666667
 74
     0
 49
-0.4233333333333333
 74
     0
 49
0.4233333333333333
 74
     0
 49
-0.4233333333333333
 74
     0
  0
ENDTAB
  0
TABLE
  2
LAYER
  5
2
330
0
100
AcDbSymbolTable
 70
    13
  0
LAYER
  5
10
330
2
100
AcDbSymbolTableRecord
100
AcDbLayerTableRecord
  2
0
 70
     0
 62
     7
  6
Continuous
370
    -3
390
F
347
3E
  0
LAYER
  5
41
330
2
100
AcDbSymbolTableRecord
100
AcDbLayerTableRecord
  2
0-0_補助線
 70
     0
 62
     7
  6
Continuous
370
    -3
390
F
347
3E
  0
LAYER
  5
42
330
2
100
AcDbSymbolTableRecord
100
AcDbLayerTableRecord
  2
F-1_枠
 70
     0
 62
     7
  6
Continuous
370
    -3
390
F
347
3E
  0
LAYER
  5
43
330
2
100
AcDbSymbolTableRecord
100
AcDbLayerTableRecord
  2
F-0_補助線
 70
     0
 62
     7
  6
Continuous
370
    -3
390
F
347
3E
  0
LAYER
  5
44
330
2
100
AcDbSymbolTableRecord
100
AcDbLayerTableRecord
  2
0-4_枠
 70
     0
 62
     7
  6
Continuous
370
    -3
390
F
347
3E
  0
LAYER
  5
45
330
2
100
AcDbSymbolTableRecord
100
AcDbLayerTableRecord
  2
0-B_寸法
 70
     0
 62
     7
  6
Continuous
370
    -3
390
F
347
3E
  0
LAYER
  5
46
330
2
100
AcDbSymbolTableRecord
100
AcDbLayerTableRecord
  2
0-2_扉
 70
     0
 62
     7
  6
Continuous
370
    -3
390
F
347
3E
  0
LAYER
  5
47
330
2
100
AcDbSymbolTableRecord
100
AcDbLayerTableRecord
  2
0-3_仕上げ
 70
     0
 62
     7
  6
Continuous
370
    -3
390
F
347
3E
  0
LAYER
  5
48
330
2
100
AcDbSymbolTableRecord
100
AcDbLayerTableRecord
  2
0-1_通り芯
 70
     0
 62
     7
  6
Continuous
370
    -3
390
F
347
3E
  0
LAYER
  5
49
330
2
100
AcDbSymbolTableRecord
100
AcDbLayerTableRecord
  2
0-9_取手彫込
 70
     0
 62
     7
  6
Continuous
370
    -3
390
F
347
3E
  0
LAYER
  5
4A
330
2
100
AcDbSymbolTableRecord
100
AcDbLayerTableRecord
  2
F-A_文字
 70
     0
 62
     7
  6
Continuous
370
    -3
390
F
347
3E
  0
LAYER
  5
4B
330
2
100
AcDbSymbolTableRecord
100
AcDbLayerTableRecord
  2
0-A_文字
 70
     0
 62
     7
  6
Continuous
370
    -3
390
F
347
3E
  0
LAYER
  5
4C
330
2
100
AcDbSymbolTableRecord
100
AcDbLayerTableRecord
  2
F-C
 70
     0
 62
     7
  6
Continuous
370
    -3
390
F
347
3E
  0
ENDTAB
  0
TABLE
  2
STYLE
  5
3
330
0
100
AcDbSymbolTable
 70
     1
  0
STYLE
  5
11
330
3
100
AcDbSymbolTableRecord
100
AcDbTextStyleTableRecord
  2
Standard
 70
     0
 40
0.0
 41
1.0
 50
0.0
 71
     0
 42
2.5
  3
txt
  4

  0
ENDTAB
  0
TABLE
  2
VIEW
  5
6
330
0
100
AcDbSymbolTable
 70
     0
  0
ENDTAB
  0
TABLE
  2
UCS
  5
7
330
0
100
AcDbSymbolTable
 70
     0
  0
ENDTAB
  0
TABLE
  2
APPID
  5
9
330
0
100
AcDbSymbolTable
 70
     1
  0
APPID
  5
12
330
9
100
AcDbSymbolTableRecord
100
AcDbRegAppTableRecord
  2
ACAD
 70
     0
  0
ENDTAB
  0
TABLE
  2
DIMSTYLE
  5
A
330
0
100
AcDbSymbolTable
 70
     1
100
AcDbDimStyleTable
  0
DIMSTYLE
105
27
330
A
100
AcDbSymbolTableRecord
100
AcDbDimStyleTableRecord
  2
ISO-25
 70
     0
 41
2.5
 42
0.625
 43
3.75
 44
1.25
 73
     0
 74
     0
 77
     1
 78
     8
140
2.5
141
2.5
143
0.03937007874016
147
0.625
171
     3
172
     1
178
     0
271
     2
272
     2
274
     3
278
    44
283
     0
284
     8
340
11
  0
ENDTAB
  0
TABLE
  2
BLOCK_RECORD
  5
1
330
0
100
AcDbSymbolTable
 70
     1
  0
BLOCK_RECORD
  5
1F
330
1
100
AcDbSymbolTableRecord
100
AcDbBlockTableRecord
  2
*Model_Space
340
22
 70
     0
280
     1
281
     0
  0
BLOCK_RECORD
  5
1B
330
1
100
AcDbSymbolTableRecord
100
AcDbBlockTableRecord
  2
*Paper_Space
340
1E
 70
     0
280
     1
281
     0
  0
BLOCK_RECORD
  5
23
330
1
100
AcDbSymbolTableRecord
100
AcDbBlockTableRecord
  2
*Paper_Space0
340
26
 70
     0
280
     1
281
     0
  0
ENDTAB
  0
ENDSEC
  0
SECTION
  2
BLOCKS
  0
BLOCK
  5
20
330
1F
100
AcDbEntity
  8
0
100
AcDbBlockBegin
  2
*Model_Space
 70
     0
 10
0.0
 20
0.0
 30
0.0
  3
*Model_Space
  1

  0
ENDBLK
  5
21
330
1F
100
AcDbEntity
  8
0
100
AcDbBlockEnd
  0
BLOCK
  5
1C
330
1B
100
AcDbEntity
 67
     1
  8
0
100
AcDbBlockBegin
  2
*Paper_Space
 70
     0
 10
0.0
 20
0.0
 30
0.0
  3
*Paper_Space
  1

  0
ENDBLK
  5
1D
330
1B
100
AcDbEntity
 67
     1
  8
0
100
AcDbBlockEnd
  0
BLOCK
  5
24
330
23
100
AcDbEntity
  8
0
100
AcDbBlockBegin
  2
*Paper_Space0
 70
     0
 10
0.0
 20
0.0
 30
0.0
  3
*Paper_Space0
  1

  0
ENDBLK
  5
25
330
23
100
AcDbEntity
  8
0
100
AcDbBlockEnd
  0
ENDSEC
  0
SECTION
  2
ENTITIES
  0
LINE
  5
4D
330
1F
100
AcDbEntity
  8
0-0_補助線
  6
JWW_HOJO
 62
     7
370
     9
100
AcDbLine
 10
-5490.000018557987
 20
3565.500148463894
 30
0.0
 11
5699.998762800888
 21
3565.500148463894
 31
0.0
  0
LINE
  5
4E
330
1F
100
AcDbEntity
  8
F-1_枠
  6
Continuous
 62
   200
370
    20
100
AcDbLine
 10
-5999.999752560178
 20
3964.999818544131
 30
0.0
 11
5699.998762800888
 21
3964.999818544131
 31
0.0
  0
LINE
  5
4F
330
1F
100
AcDbEntity
  8
F-0_補助線
  6
JWW_HOJO
 62
   120
370
     5
100
AcDbLine
 10
-6300.0
 20
-4455.0
 30
0.0
 11
-6300.0
 21
4424.999604096284
 31
0.0
  0
LINE
  5
50
330
1F
100
AcDbEntity
  8
F-0_補助線
  6
JWW_HOJO
 62
   120
370
     5
100
AcDbLine
 10
-6300.0
 20
4424.999604096284
 30
0.0
 11
5999.999010240709
 21
4424.999604096284
 31
0.0
  0
LINE
  5
51
330
1F
100
AcDbEntity
  8
F-0_補助線
  6
JWW_HOJO
 62
   120
370
     5
100
AcDbLine
 10
5999.999010240709
 20
4424.999604096284
 30
0.0
 11
5999.999010240709
 21
-4455.0
 31
0.0
  0
LINE
  5
52
330
1F
100
AcDbEntity
  8
F-0_補助線
  6
JWW_HOJO
 62
   120
370
     5
100
AcDbLine
 10
5999.999010240709
 20
-4455.0
 30
0.0
 11
-6300.0
 21
-4455.0
 31
0.0
  0
LINE
  5
53
330
1F
100
AcDbEntity
  8
F-0_補助線
  6
JWW_HOJO
 62
   200
370
    20
100
AcDbLine
 10
-5989.999990205507
 20
84.49993236644843
 30
0.0
 11
5916.796875
 21
84.49993236644843
 31
0.0
  0
LINE
  5
54
330
1F
100
AcDbEntity
  8
F-0_補助線
  6
JWW_HOJO
 62
   200
370
    20
100
AcDbLine
 10
-5989.999990205507
 20
4064.999901024072
 30
0.0
 11
6008.108108108109
 21
4064.999901024072
 31
0.0
  0
LINE
  5
55
330
1F
100
AcDbEntity
  8
F-1_枠
  6
Continuous
 62
   200
370
    20
100
AcDbLine
 10
-5999.999752560178
 20
4164.999983504013
 30
0.0
 11
5699.998762800888
 21
4164.999983504013
 31
0.0
  0
LINE
  5
56
330
1F
100
AcDbEntity
  8
F-1_枠
  6
Continuous
 62
   200
370
    20
100
AcDbLine
 10
-5999.999752560178
 20
4169.999505120355
 30
0.0
 11
5699.998762800888
 21
4169.999505120355
 31
0.0
  0
LINE
  5
57
330
1F
100
AcDbEntity
  8
F-1_枠
  6
Continuous
 62
   200
370
    20
100
AcDbLine
 10
-5999.999752560178
 20
4174.999769056166
 30
0.0
 11
5699.998762800888
 21
4174.999769056166
 31
0.0
  0
LINE
  5
58
330
1F
100
AcDbEntity
  8
F-1_枠
  6
Continuous
 62
   200
370
    20
100
AcDbLine
 10
5689.998977248734
 20
4174.999769056166
 30
0.0
 11
5689.998977248734
 21
-4205.000164959882
 31
0.0
  0
LINE
  5
59
330
1F
100
AcDbEntity
  8
F-1_枠
  6
Continuous
 62
   200
370
    20
100
AcDbLine
 10
5694.998498865077
 20
4174.999769056166
 30
0.0
 11
5694.998498865077
 21
-4205.000164959882
 31
0.0
  0
LINE
  5
5A
330
1F
100
AcDbEntity
  8
F-1_枠
  6
Continuous
 62
   200
370
    20
100
AcDbLine
 10
5699.998762800888
 20
4174.999769056166
 30
0.0
 11
5699.998762800888
 21
-4205.000164959882
 31
0.0
  0
LINE
  5
5B
330
1F
100
AcDbEntity
  8
F-1_枠
  6
Continuous
 62
   200
370
    20
100
AcDbLine
 10
-5989.999990205507
 20
4174.999769056166
 30
0.0
 11
-5989.999990205507
 21
-4205.000164959882
 31
0.0
  0
LINE
  5
5C
330
1F
100
AcDbEntity
  8
F-1_枠
  6
Continuous
 62
   200
370
    20
100
AcDbLine
 10
-5994.999975771518
 20
4174.999769056166
 30
0.0
 11
-5994.999975771518
 21
-4205.000164959882
 31
0.0
  0
LINE
  5
5D
330
1F
100
AcDbEntity
  8
F-1_枠
  6
Continuous
 62
   200
370
    20
100
AcDbLine
 10
-5999.999984535011
 20
4174.999769056166
 30
0.0
 11
-5999.999984535011
 21
-4205.000164959882
 31
0.0
  0
LINE
  5
5E
330
1F
100
AcDbEntity
  8
F-1_枠
  6
Continuous
 62
   200
370
    20
100
AcDbLine
 10
-5989.999990205507
 20
-15.50015011349217
 30
0.0
 11
5689.998977248734
 21
-15.50015011349217
 31
0.0
  0
LINE
  5
5F
330
1F
100
AcDbEntity
  8
F-1_枠
  6
Continuous
 62
   200
370
    20
100
AcDbLine
 10
-5989.999990205507
 20
190.5001831054688
 30
0.0
 11
5689.998977248734
 21
190.5001831054688
 31
0.0
  0
LINE
  5
60
330
1F
100
AcDbEntity
  8
F-1_枠
  6
Continuous
 62
   200
370
    20
100
AcDbLine
 10
-5989.999990205507
 20
184.5000148463899
 30
0.0
 11
5689.998977248734
 21
184.5000148463899
 31
0.0
  0
LINE
  5
61
330
1F
100
AcDbEntity
  8
F-1_枠
  6
Continuous
 62
   200
370
    20
100
AcDbLine
 10
-5490.000018557987
 20
4174.999769056166
 30
0.0
 11
-5490.000018557987
 21
-3790.000179909372
 31
0.0
  0
LINE
  5
62
330
1F
100
AcDbEntity
  8
F-1_枠
  6
Continuous
 62
   200
370
    20
100
AcDbLine
 10
99.99947934537346
 20
-3790.000179909372
 30
0.0
 11
99.99947934537346
 21
4174.999769056166
 31
0.0
  0
LINE
  5
63
330
1F
100
AcDbEntity
  8
0-0_補助線
  6
JWW_HOJO
 62
     7
370
     9
100
AcDbLine
 10
-5490.000018557987
 20
1218.000148463894
 30
0.0
 11
5699.998762800888
 21
1218.000148463894
 31
0.0
  0
LINE
  5
64
330
1F
100
AcDbEntity
  8
0-0_補助線
  6
JWW_HOJO
 62
   120
370
     5
100
AcDbLine
 10
-5490.000018557987
 20
1168.000148463894
 30
0.0
 11
5699.998762800888
 21
1168.000148463894
 31
0.0
  0
LINE
  5
65
330
1F
100
AcDbEntity
  8
0-0_補助線
  6
JWW_HOJO
 62
     7
370
     9
100
AcDbLine
 10
-5490.000018557987
 20
-415.0002145509467
 30
0.0
 11
5699.998762800888
 21
-415.0002145509467
 31
0.0
  0
LINE
  5
66
330
1F
100
AcDbEntity
  8
0-0_補助線
  6
JWW_HOJO
 62
     7
370
     9
100
AcDbLine
 10
-5490.000018557987
 20
-2762.500214550947
 30
0.0
 11
5699.998762800888
 21
-2762.500214550947
 31
0.0
  0
LINE
  5
67
330
1F
100
AcDbEntity
  8
0-0_補助線
  6
JWW_HOJO
 62
   120
370
     5
100
AcDbLine
 10
-5490.000018557987
 20
-2812.500214550947
 30
0.0
 11
5699.998762800888
 21
-2812.500214550947
 31
0.0
  0
LINE
  5
68
330
1F
100
AcDbEntity
  8
0-0_補助線
  6
JWW_HOJO
 62
     7
370
     9
100
AcDbLine
 10
-5490.000018557987
 20
3426.000148463893
 30
0.0
 11
5699.998762800888
 21
3426.000148463893
 31
0.0
  0
LINE
  5
69
330
1F
100
AcDbEntity
  8
0-0_補助線
  6
JWW_HOJO
 62
     7
370
     9
100
AcDbLine
 10
-5490.000018557987
 20
2189.000148463893
 30
0.0
 11
5699.998762800888
 21
2189.000148463893
 31
0.0
  0
LINE
  5
6A
330
1F
100
AcDbEntity
  8
0-0_補助線
  6
JWW_HOJO
 62
     7
370
     9
100
AcDbLine
 10
-5490.000018557987
 20
2121.000148463893
 30
0.0
 11
5699.998762800888
 21
2121.000148463893
 31
0.0
  0
LINE
  5
6B
330
1F
100
AcDbEntity
  8
0-0_補助線
  6
JWW_HOJO
 62
     7
370
     9
100
AcDbLine
 10
-5490.000018557987
 20
1334.000148463893
 30
0.0
 11
5699.998762800888
 21
1334.000148463893
 31
0.0
  0
LINE
  5
6C
330
1F
100
AcDbEntity
  8
0-0_補助線
  6
JWW_HOJO
 62
     7
370
     9
100
AcDbLine
 10
-5490.000018557987
 20
-554.5002145509468
 30
0.0
 11
5699.998762800888
 21
-554.5002145509468
 31
0.0
  0
LINE
  5
6D
330
1F
100
AcDbEntity
  8
0-0_補助線
  6
JWW_HOJO
 62
     7
370
     9
100
AcDbLine
 10
-5490.000018557987
 20
-1791.500214550947
 30
0.0
 11
5699.998762800888
 21
-1791.500214550947
 31
0.0
  0
LINE
  5
6E
330
1F
100
AcDbEntity
  8
0-0_補助線
  6
JWW_HOJO
 62
     7
370
     9
100
AcDbLine
 10
-5490.000018557987
 20
-1859.500214550947
 30
0.0
 11
5699.998762800888
 21
-1859.500214550947
 31
0.0
  0
LINE
  5
6F
330
1F
100
AcDbEntity
  8
0-0_補助線
  6
JWW_HOJO
 62
     7
370
     9
100
AcDbLine
 10
-5490.000018557987
 20
-2646.500214550947
 30
0.0
 11
5699.998762800888
 21
-2646.500214550947
 31
0.0
  0
LINE
  5
70
330
1F
100
AcDbEntity
  8
0-4_枠
  6
Continuous
 62
    92
370
    13
100
AcDbLine
 10
1926.999228297056
 20
1218.000148463894
 30
0.0
 11
1926.999228297056
 21
3565.500148463894
 31
0.0
  0
LINE
  5
71
330
1F
100
AcDbEntity
  8
0-4_枠
  6
Continuous
 62
    92
370
    13
100
AcDbLine
 10
1956.999228297056
 20
1218.000148463894
 30
0.0
 11
1956.999228297056
 21
3529.500148463893
 31
0.0
  0
LINE
  5
72
330
1F
100
AcDbEntity
  8
0-B_寸法
  6
Continuous
 62
   120
370
     5
100
AcDbLine
 10
1426.999228297055
 20
1218.000148463893
 30
0.0
 11
1876.999228297055
 21
1218.000148463893
 31
0.0
  0
LINE
  5
73
330
1F
100
AcDbEntity
  8
0-B_寸法
  6
Continuous
 62
   120
370
     5
100
AcDbLine
 10
1926.999228297056
 20
518.000148463893
 30
0.0
 11
1926.999228297056
 21
1168.000148463893
 31
0.0
  0
LINE
  5
74
330
1F
100
AcDbEntity
  8
0-B_寸法
  6
Continuous
 62
   120
370
     5
100
AcDbLine
 10
1959.499228297055
 20
718.0001484638937
 30
0.0
 11
1959.499228297055
 21
1168.000148463893
 31
0.0
  0
LINE
  5
75
330
1F
100
AcDbEntity
  8
0-B_寸法
  6
Continuous
 62
   120
370
     5
100
AcDbLine
 10
1426.999228297055
 20
3565.500148463894
 30
0.0
 11
1426.999228297055
 21
1218.000148463893
 31
0.0
  0
LINE
  5
76
330
1F
100
AcDbEntity
  8
0-B_寸法
  6
Continuous
 62
   120
370
     5
100
AcDbLine
 10
1426.999228297055
 20
3565.500148463894
 30
0.0
 11
1876.999228297055
 21
3565.500148463894
 31
0.0
  0
LINE
  5
77
330
1F
100
AcDbEntity
  8
0-B_寸法
  6
Continuous
 62
   120
370
     5
100
AcDbLine
 10
1626.999228297056
 20
3522.000148463893
 30
0.0
 11
1876.999228297055
 21
3522.000148463893
 31
0.0
  0
LINE
  5
78
330
1F
100
AcDbEntity
  8
0-B_寸法
  6
Continuous
 62
   120
370
     5
100
AcDbLine
 10
1626.999228297056
 20
1238.000148463894
 30
0.0
 11
1876.999228297055
 21
1238.000148463894
 31
0.0
  0
LINE
  5
79
330
1F
100
AcDbEntity
  8
0-B_寸法
  6
Continuous
 62
   120
370
     5
100
AcDbLine
 10
1626.999228297056
 20
3522.000148463893
 30
0.0
 11
1626.999228297056
 21
1238.000148463894
 31
0.0
  0
LWPOLYLINE
  5
7A
330
1F
100
AcDbEntity
  8
0-B_寸法
  6
Continuous
 62
     7
370
     9
100
AcDbPolyline
 90
        4
 70
     1
 43
3.0
 10
1428.499228297055
 20
1218.000148463893
 42
0.4142135623731
 10
1426.999228297055
 20
1219.500148463893
 42
0.4142135623731
 10
1425.499228297055
 20
1218.000148463893
 42
0.4142135623731
 10
1426.999228297055
 20
1216.500148463893
 42
0.4142135623731
  0
LWPOLYLINE
  5
7B
330
1F
100
AcDbEntity
  8
0-B_寸法
  6
Continuous
 62
     7
370
     9
100
AcDbPolyline
 90
        4
 70
     1
 43
3.0
 10
1928.499228297056
 20
518.000148463893
 42
0.4142135623731
 10
1926.999228297056
 20
519.500148463893
 42
0.4142135623731
 10
1925.499228297056
 20
518.000148463893
 42
0.4142135623731
 10
1926.999228297056
 20
516.500148463893
 42
0.4142135623731
  0
LWPOLYLINE
  5
7C
330
1F
100
AcDbEntity
  8
0-B_寸法
  6
Continuous
 62
     7
370
     9
100
AcDbPolyline
 90
        4
 70
     1
 43
3.0
 10
1960.999228297055
 20
918.0001484638935
 42
0.4142135623731
 10
1959.499228297055
 20
919.5001484638937
 42
0.4142135623731
 10
1957.999228297055
 20
918.0001484638935
 42
0.4142135623731
 10
1959.499228297055
 20
916.5001484638935
 42
0.4142135623731
  0
LWPOLYLINE
  5
7D
330
1F
100
AcDbEntity
  8
0-B_寸法
  6
Continuous
 62
     7
370
     9
100
AcDbPolyline
 90
        4
 70
     1
 43
3.0
 10
1428.499228297055
 20
3565.500148463894
 42
0.4142135623731
 10
1426.999228297055
 20
3567.000148463893
 42
0.4142135623731
 10
1425.499228297055
 20
3565.500148463894
 42
0.4142135623731
 10
1426.999228297055
 20
3564.000148463894
 42
0.4142135623731
  0
LWPOLYLINE
  5
7E
330
1F
100
AcDbEntity
  8
0-B_寸法
  6
Continuous
 62
     7
370
     9
100
AcDbPolyline
 90
        4
 70
     1
 43
3.0
 10
1628.499228297056
 20
3522.000148463893
 42
0.4142135623731
 10
1626.999228297056
 20
3523.500148463893
 42
0.4142135623731
 10
1625.499228297056
 20
3522.000148463893
 42
0.4142135623731
 10
1626.999228297056
 20
3520.500148463894
 42
0.4142135623731
  0
LWPOLYLINE
  5
7F
330
1F
100
AcDbEntity
  8
0-B_寸法
  6
Continuous
 62
     7
370
     9
100
AcDbPolyline
 90
        4
 70
     1
 43
3.0
 10
1628.499228297056
 20
1238.000148463894
 42
0.4142135623731
 10
1626.999228297056
 20
1239.500148463894
 42
0.4142135623731
 10
1625.499228297056
 20
1238.000148463894
 42
0.4142135623731
 10
1626.999228297056
 20
1236.500148463894
 42
0.4142135623731
  0
LINE
  5
80
330
1F
100
AcDbEntity
  8
0-B_寸法
  6
Continuous
 62
   120
370
     5
100
AcDbLine
 10
1959.499228297055
 20
918.0001484638935
 30
0.0
 11
2353.499228297056
 21
918.0001484638935
 31
0.0
  0
LINE
  5
81
330
1F
100
AcDbEntity
  8
0-B_寸法
  6
Continuous
 62
   120
370
     5
100
AcDbLine
 10
2353.499228297056
 20
918.0001484638935
 30
0.0
 11
2353.499228297056
 21
1168.000148463893
 31
0.0
  0
LINE
  5
82
330
1F
100
AcDbEntity
  8
0-B_寸法
  6
Continuous
 62
   120
370
     5
100
AcDbLine
 10
2353.499228297056
 20
918.0001484638935
 30
0.0
 11
2354.499228297056
 21
918.0001484638935
 31
0.0
  0
LINE
  5
83
330
1F
100
AcDbEntity
  8
0-B_寸法
  6
Continuous
 62
   120
370
     5
100
AcDbLine
 10
2354.499228297056
 20
918.0001484638935
 30
0.0
 11
2354.499228297056
 21
1168.000148463893
 31
0.0
  0
LINE
  5
84
330
1F
100
AcDbEntity
  8
0-B_寸法
  6
Continuous
 62
   120
370
     5
100
AcDbLine
 10
2353.999228297056
 20
918.0001484638935
 30
0.0
 11
2388.85920993146
 21
1048.099371074407
 31
0.0
  0
LINE
  5
85
330
1F
100
AcDbEntity
  8
0-B_寸法
  6
Continuous
 62
   120
370
     5
100
AcDbLine
 10
2388.85920993146
 20
1048.099371074407
 30
0.0
 11
2436.729471013791
 21
1048.099371074407
 31
0.0
  0
LWPOLYLINE
  5
86
330
1F
100
AcDbEntity
  8
0-B_寸法
  6
Continuous
 62
     7
370
     9
100
AcDbPolyline
 90
        4
 70
     1
 43
3.0
 10
2354.999228297056
 20
918.0001484638935
 42
0.4142135623731
 10
2353.499228297056
 20
919.5001484638937
 42
0.4142135623731
 10
2351.999228297056
 20
918.0001484638935
 42
0.4142135623731
 10
2353.499228297056
 20
916.5001484638935
 42
0.4142135623731
  0
LWPOLYLINE
  5
87
330
1F
100
AcDbEntity
  8
0-B_寸法
  6
Continuous
 62
     7
370
     9
100
AcDbPolyline
 90
        4
 70
     1
 43
3.0
 10
2355.999228297056
 20
918.0001484638935
 42
0.4142135623731
 10
2354.499228297056
 20
919.5001484638937
 42
0.4142135623731
 10
2352.999228297056
 20
918.0001484638935
 42
0.4142135623731
 10
2354.499228297056
 20
916.5001484638935
 42
0.4142135623731
  0
LINE
  5
88
330
1F
100
AcDbEntity
  8
0-B_寸法
  6
Continuous
 62
   120
370
     5
100
AcDbLine
 10
2748.499228297055
 20
718.0001484638937
 30
0.0
 11
2748.499228297055
 21
1168.000148463893
 31
0.0
  0
LINE
  5
89
330
1F
100
AcDbEntity
  8
0-B_寸法
  6
Continuous
 62
   120
370
     5
100
AcDbLine
 10
2354.499228297056
 20
918.0001484638935
 30
0.0
 11
2748.499228297055
 21
918.0001484638935
 31
0.0
  0
LINE
  5
8A
330
1F
100
AcDbEntity
  8
0-B_寸法
  6
Continuous
 62
   120
370
     5
100
AcDbLine
 10
2748.499228297055
 20
718.0001484638937
 30
0.0
 11
2750.499228297055
 21
718.0001484638937
 31
0.0
  0
LINE
  5
8B
330
1F
100
AcDbEntity
  8
0-B_寸法
  6
Continuous
 62
   120
370
     5
100
AcDbLine
 10
2750.499228297055
 20
718.0001484638937
 30
0.0
 11
2750.499228297055
 21
1168.000148463893
 31
0.0
  0
LINE
  5
8C
330
1F
100
AcDbEntity
  8
0-B_寸法
  6
Continuous
 62
   120
370
     5
100
AcDbLine
 10
2749.499228297055
 20
718.0001484638937
 30
0.0
 11
2784.359209931459
 21
848.099371074407
 31
0.0
  0
LINE
  5
8D
330
1F
100
AcDbEntity
  8
0-B_寸法
  6
Continuous
 62
   120
370
     5
100
AcDbLine
 10
2784.359209931459
 20
848.099371074407
 30
0.0
 11
2832.229471013791
 21
848.099371074407
 31
0.0
  0
LWPOLYLINE
  5
8E
330
1F
100
AcDbEntity
  8
0-B_寸法
  6
Continuous
 62
     7
370
     9
100
AcDbPolyline
 90
        4
 70
     1
 43
3.0
 10
2749.999228297055
 20
718.0001484638937
 42
0.4142135623731
 10
2748.499228297055
 20
719.5001484638937
 42
0.4142135623731
 10
2746.999228297055
 20
718.0001484638937
 42
0.4142135623731
 10
2748.499228297055
 20
716.5001484638937
 42
0.4142135623731
  0
LWPOLYLINE
  5
8F
330
1F
100
AcDbEntity
  8
0-B_寸法
  6
Continuous
 62
     7
370
     9
100
AcDbPolyline
 90
        4
 70
     1
 43
3.0
 10
2749.999228297055
 20
918.0001484638935
 42
0.4142135623731
 10
2748.499228297055
 20
919.5001484638937
 42
0.4142135623731
 10
2746.999228297055
 20
918.0001484638935
 42
0.4142135623731
 10
2748.499228297055
 20
916.5001484638935
 42
0.4142135623731
  0
LWPOLYLINE
  5
90
330
1F
100
AcDbEntity
  8
0-B_寸法
  6
Continuous
 62
     7
370
     9
100
AcDbPolyline
 90
        4
 70
     1
 43
3.0
 10
2751.999228297055
 20
718.0001484638937
 42
0.4142135623731
 10
2750.499228297055
 20
719.5001484638937
 42
0.4142135623731
 10
2748.999228297056
 20
718.0001484638937
 42
0.4142135623731
 10
2750.499228297055
 20
716.5001484638937
 42
0.4142135623731
  0
LINE
  5
91
330
1F
100
AcDbEntity
  8
0-B_寸法
  6
Continuous
 62
   120
370
     5
100
AcDbLine
 10
2750.499228297055
 20
718.0001484638937
 30
0.0
 11
3539.499228297055
 21
718.0001484638937
 31
0.0
  0
LINE
  5
92
330
1F
100
AcDbEntity
  8
0-B_寸法
  6
Continuous
 62
   120
370
     5
100
AcDbLine
 10
3539.499228297055
 20
718.0001484638937
 30
0.0
 11
3539.499228297055
 21
1168.000148463893
 31
0.0
  0
LINE
  5
93
330
1F
100
AcDbEntity
  8
0-B_寸法
  6
Continuous
 62
   120
370
     5
100
AcDbLine
 10
3539.499228297055
 20
718.0001484638937
 30
0.0
 11
3541.499228297055
 21
718.0001484638937
 31
0.0
  0
LINE
  5
94
330
1F
100
AcDbEntity
  8
0-B_寸法
  6
Continuous
 62
   120
370
     5
100
AcDbLine
 10
3541.499228297055
 20
718.0001484638937
 30
0.0
 11
3541.499228297055
 21
1168.000148463893
 31
0.0
  0
LINE
  5
95
330
1F
100
AcDbEntity
  8
0-B_寸法
  6
Continuous
 62
   120
370
     5
100
AcDbLine
 10
3540.499228297054
 20
718.0001484638937
 30
0.0
 11
3575.359209931458
 21
848.099371074407
 31
0.0
  0
LINE
  5
96
330
1F
100
AcDbEntity
  8
0-B_寸法
  6
Continuous
 62
   120
370
     5
100
AcDbLine
 10
3575.359209931458
 20
848.099371074407
 30
0.0
 11
3623.22947101379
 21
848.099371074407
 31
0.0
  0
LWPOLYLINE
  5
97
330
1F
100
AcDbEntity
  8
0-B_寸法
  6
Continuous
 62
     7
370
     9
100
AcDbPolyline
 90
        4
 70
     1
 43
3.0
 10
3540.999228297055
 20
718.0001484638937
 42
0.4142135623731
 10
3539.499228297055
 20
719.5001484638937
 42
0.4142135623731
 10
3537.999228297055
 20
718.0001484638937
 42
0.4142135623731
 10
3539.499228297055
 20
716.5001484638937
 42
0.4142135623731
  0
LWPOLYLINE
  5
98
330
1F
100
AcDbEntity
  8
0-B_寸法
  6
Continuous
 62
     7
370
     9
100
AcDbPolyline
 90
        4
 70
     1
 43
3.0
 10
3542.999228297055
 20
718.0001484638937
 42
0.4142135623731
 10
3541.499228297055
 20
719.5001484638937
 42
0.4142135623731
 10
3539.999228297055
 20
718.0001484638937
 42
0.4142135623731
 10
3541.499228297055
 20
716.5001484638937
 42
0.4142135623731
  0
LINE
  5
99
330
1F
100
AcDbEntity
  8
0-4_枠
  6
Continuous
 62
    92
370
    13
100
AcDbLine
 10
1926.999228297056
 20
1218.000148463894
 30
0.0
 11
4362.999228297052
 21
1218.000148463894
 31
0.0
  0
LINE
  5
9A
330
1F
100
AcDbEntity
  8
0-4_枠
  6
Continuous
 62
    92
370
    13
100
AcDbLine
 10
4362.999228297052
 20
1218.000148463894
 30
0.0
 11
4362.999228297052
 21
3565.500148463894
 31
0.0
  0
LINE
  5
9B
330
1F
100
AcDbEntity
  8
0-4_枠
  6
Continuous
 62
    92
370
    13
100
AcDbLine
 10
1926.999228297056
 20
3565.500148463894
 30
0.0
 11
4362.999228297052
 21
3565.500148463894
 31
0.0
  0
LINE
  5
9C
330
1F
100
AcDbEntity
  8
0-4_枠
  6
Continuous
 62
    92
370
    13
100
AcDbLine
 10
1956.999228297056
 20
3529.500148463893
 30
0.0
 11
4332.999228297052
 21
3529.500148463893
 31
0.0
  0
LINE
  5
9D
330
1F
100
AcDbEntity
  8
0-4_枠
  6
Continuous
 62
    92
370
    13
100
AcDbLine
 10
1956.999228297056
 20
1230.000148463894
 30
0.0
 11
4332.999228297052
 21
1230.000148463894
 31
0.0
  0
LINE
  5
9E
330
1F
100
AcDbEntity
  8
0-4_枠
  6
Continuous
 62
    92
370
    13
100
AcDbLine
 10
4332.999228297052
 20
1218.000148463894
 30
0.0
 11
4332.999228297052
 21
3529.500148463893
 31
0.0
  0
LINE
  5
9F
330
1F
100
AcDbEntity
  8
0-B_寸法
  6
Continuous
 62
   120
370
     5
100
AcDbLine
 10
1926.999228297056
 20
518.000148463893
 30
0.0
 11
4362.999228297052
 21
518.0001484638937
 31
0.0
  0
LINE
  5
A0
330
1F
100
AcDbEntity
  8
0-B_寸法
  6
Continuous
 62
   120
370
     5
100
AcDbLine
 10
4362.999228297052
 20
518.0001484638937
 30
0.0
 11
4362.999228297052
 21
1168.000148463894
 31
0.0
  0
LINE
  5
A1
330
1F
100
AcDbEntity
  8
0-B_寸法
  6
Continuous
 62
   120
370
     5
100
AcDbLine
 10
3541.499228297055
 20
718.0001484638937
 30
0.0
 11
4330.499228297053
 21
718.0001484638937
 31
0.0
  0
LINE
  5
A2
330
1F
100
AcDbEntity
  8
0-B_寸法
  6
Continuous
 62
   120
370
     5
100
AcDbLine
 10
4330.499228297053
 20
718.0001484638937
 30
0.0
 11
4330.499228297053
 21
1168.000148463893
 31
0.0
  0
LWPOLYLINE
  5
A3
330
1F
100
AcDbEntity
  8
0-B_寸法
  6
Continuous
 62
     7
370
     9
100
AcDbPolyline
 90
        4
 70
     1
 43
3.0
 10
4364.499228297053
 20
518.0001484638937
 42
0.4142135623731
 10
4362.999228297052
 20
519.5001484638937
 42
0.4142135623731
 10
4361.499228297052
 20
518.0001484638937
 42
0.4142135623731
 10
4362.999228297052
 20
516.5001484638937
 42
0.4142135623731
  0
LWPOLYLINE
  5
A4
330
1F
100
AcDbEntity
  8
0-B_寸法
  6
Continuous
 62
     7
370
     9
100
AcDbPolyline
 90
        4
 70
     1
 43
3.0
 10
4331.999228297053
 20
718.0001484638937
 42
0.4142135623731
 10
4330.499228297053
 20
719.5001484638937
 42
0.4142135623731
 10
4328.999228297053
 20
718.0001484638937
 42
0.4142135623731
 10
4330.499228297053
 20
716.5001484638937
 42
0.4142135623731
  0
LWPOLYLINE
  5
A5
330
1F
100
AcDbEntity
  8
0-B_寸法
  6
Continuous
 62
     7
370
     9
100
AcDbPolyline
 90
        4
 70
     1
 43
3.0
 10
1960.999228297055
 20
718.0001484638937
 42
0.4142135623731
 10
1959.499228297055
 20
719.5001484638937
 42
0.4142135623731
 10
1957.999228297055
 20
718.0001484638937
 42
0.4142135623731
 10
1959.499228297055
 20
716.5001484638937
 42
0.4142135623731
  0
LINE
  5
A6
330
1F
100
AcDbEntity
  8
0-B_寸法
  6
Continuous
 62
   120
370
     5
100
AcDbLine
 10
1959.499228297055
 20
718.0001484638937
 30
0.0
 11
2748.499228297055
 21
718.0001484638937
 31
0.0
  0
LINE
  5
A7
330
1F
100
AcDbEntity
  8
0-2_扉
  6
Continuous
 62
    92
370
    13
100
AcDbLine
 10
-3235.000269606307
 20
1238.000148463894
 30
0.0
 11
-3235.000269606307
 21
3522.000148463893
 31
0.0
  0
LINE
  5
A8
330
1F
100
AcDbEntity
  8
0-4_枠
  6
Continuous
 62
    92
370
    13
100
AcDbLine
 10
-3267.500269606306
 20
1218.000148463894
 30
0.0
 11
-3267.500269606306
 21
3565.500148463894
 31
0.0
  0
LINE
  5
A9
330
1F
100
AcDbEntity
  8
0-4_枠
  6
Continuous
 62
    92
370
    13
100
AcDbLine
 10
-3237.500269606306
 20
1218.000148463894
 30
0.0
 11
-3237.500269606306
 21
3529.500148463893
 31
0.0
  0
LINE
  5
AA
330
1F
100
AcDbEntity
  8
0-B_寸法
  6
Continuous
 62
   120
370
     5
100
AcDbLine
 10
-3767.500269606308
 20
1218.000148463893
 30
0.0
 11
-3317.500269606308
 21
1218.000148463893
 31
0.0
  0
LINE
  5
AB
330
1F
100
AcDbEntity
  8
0-B_寸法
  6
Continuous
 62
   120
370
     5
100
AcDbLine
 10
-3267.500269606306
 20
518.000148463893
 30
0.0
 11
-3267.500269606306
 21
1168.000148463893
 31
0.0
  0
LINE
  5
AC
330
1F
100
AcDbEntity
  8
0-B_寸法
  6
Continuous
 62
   120
370
     5
100
AcDbLine
 10
-3235.000269606307
 20
718.0001484638937
 30
0.0
 11
-3235.000269606307
 21
1168.000148463893
 31
0.0
  0
LINE
  5
AD
330
1F
100
AcDbEntity
  8
0-B_寸法
  6
Continuous
 62
   120
370
     5
100
AcDbLine
 10
-3767.500269606308
 20
3565.500148463894
 30
0.0
 11
-3767.500269606308
 21
1218.000148463893
 31
0.0
  0
LINE
  5
AE
330
1F
100
AcDbEntity
  8
0-B_寸法
  6
Continuous
 62
   120
370
     5
100
AcDbLine
 10
-3767.500269606308
 20
3565.500148463894
 30
0.0
 11
-3317.500269606308
 21
3565.500148463894
 31
0.0
  0
LINE
  5
AF
330
1F
100
AcDbEntity
  8
0-B_寸法
  6
Continuous
 62
   120
370
     5
100
AcDbLine
 10
-3567.500269606306
 20
3522.000148463893
 30
0.0
 11
-3317.500269606308
 21
3522.000148463893
 31
0.0
  0
LINE
  5
B0
330
1F
100
AcDbEntity
  8
0-B_寸法
  6
Continuous
 62
   120
370
     5
100
AcDbLine
 10
-3567.500269606306
 20
1238.000148463894
 30
0.0
 11
-3317.500269606308
 21
1238.000148463894
 31
0.0
  0
LINE
  5
B1
330
1F
100
AcDbEntity
  8
0-B_寸法
  6
Continuous
 62
   120
370
     5
100
AcDbLine
 10
-3567.500269606306
 20
3522.000148463893
 30
0.0
 11
-3567.500269606306
 21
1238.000148463894
 31
0.0
  0
LWPOLYLINE
  5
B2
330
1F
100
AcDbEntity
  8
0-B_寸法
  6
Continuous
 62
     7
370
     9
100
AcDbPolyline
 90
        4
 70
     1
 43
3.0
 10
-3766.000269606308
 20
1218.000148463893
 42
0.4142135623731
 10
-3767.500269606308
 20
1219.500148463893
 42
0.4142135623731
 10
-3769.000269606308
 20
1218.000148463893
 42
0.4142135623731
 10
-3767.500269606308
 20
1216.500148463893
 42
0.4142135623731
  0
LWPOLYLINE
  5
B3
330
1F
100
AcDbEntity
  8
0-B_寸法
  6
Continuous
 62
     7
370
     9
100
AcDbPolyline
 90
        4
 70
     1
 43
3.0
 10
-3266.000269606306
 20
518.000148463893
 42
0.4142135623731
 10
-3267.500269606306
 20
519.500148463893
 42
0.4142135623731
 10
-3269.000269606306
 20
518.000148463893
 42
0.4142135623731
 10
-3267.500269606306
 20
516.500148463893
 42
0.4142135623731
  0
LWPOLYLINE
  5
B4
330
1F
100
AcDbEntity
  8
0-B_寸法
  6
Continuous
 62
     7
370
     9
100
AcDbPolyline
 90
        4
 70
     1
 43
3.0
 10
-3233.500269606307
 20
918.0001484638935
 42
0.4142135623731
 10
-3235.000269606307
 20
919.5001484638937
 42
0.4142135623731
 10
-3236.500269606307
 20
918.0001484638935
 42
0.4142135623731
 10
-3235.000269606307
 20
916.5001484638935
 42
0.4142135623731
  0
LWPOLYLINE
  5
B5
330
1F
100
AcDbEntity
  8
0-B_寸法
  6
Continuous
 62
     7
370
     9
100
AcDbPolyline
 90
        4
 70
     1
 43
3.0
 10
-3766.000269606308
 20
3565.500148463894
 42
0.4142135623731
 10
-3767.500269606308
 20
3567.000148463893
 42
0.4142135623731
 10
-3769.000269606308
 20
3565.500148463894
 42
0.4142135623731
 10
-3767.500269606308
 20
3564.000148463894
 42
0.4142135623731
  0
LWPOLYLINE
  5
B6
330
1F
100
AcDbEntity
  8
0-B_寸法
  6
Continuous
 62
     7
370
     9
100
AcDbPolyline
 90
        4
 70
     1
 43
3.0
 10
-3566.000269606306
 20
3522.000148463893
 42
0.4142135623731
 10
-3567.500269606306
 20
3523.500148463893
 42
0.4142135623731
 10
-3569.000269606306
 20
3522.000148463893
 42
0.4142135623731
 10
-3567.500269606306
 20
3520.500148463894
 42
0.4142135623731
  0
LWPOLYLINE
  5
B7
330
1F
100
AcDbEntity
  8
0-B_寸法
  6
Continuous
 62
     7
370
     9
100
AcDbPolyline
 90
        4
 70
     1
 43
3.0
 10
-3566.000269606306
 20
1238.000148463894
 42
0.4142135623731
 10
-3567.500269606306
 20
1239.500148463894
 42
0.4142135623731
 10
-3569.000269606306
 20
1238.000148463894
 42
0.4142135623731
 10
-3567.500269606306
 20
1236.500148463894
 42
0.4142135623731
  0
LINE
  5
B8
330
1F
100
AcDbEntity
  8
0-2_扉
  6
Continuous
 62
    92
370
    13
100
AcDbLine
 10
-3235.000269606307
 20
1238.000148463894
 30
0.0
 11
-2841.000269606307
 21
1238.000148463894
 31
0.0
  0
LINE
  5
B9
330
1F
100
AcDbEntity
  8
0-2_扉
  6
Continuous
 62
    92
370
    13
100
AcDbLine
 10
-3235.000269606307
 20
3522.000148463893
 30
0.0
 11
-2841.000269606307
 21
3522.000148463893
 31
0.0
  0
LINE
  5
BA
330
1F
100
AcDbEntity
  8
0-2_扉
  6
Continuous
 62
    92
370
    13
100
AcDbLine
 10
-2841.000269606307
 20
3522.000148463893
 30
0.0
 11
-2841.000269606307
 21
1238.000148463894
 31
0.0
  0
LINE
  5
BB
330
1F
100
AcDbEntity
  8
0-2_扉
  6
Continuous
 62
    92
370
    13
100
AcDbLine
 10
-2840.000269606306
 20
3522.000148463893
 30
0.0
 11
-2840.000269606306
 21
1238.000148463894
 31
0.0
  0
LINE
  5
BC
330
1F
100
AcDbEntity
  8
0-B_寸法
  6
Continuous
 62
   120
370
     5
100
AcDbLine
 10
-3235.000269606307
 20
918.0001484638935
 30
0.0
 11
-2841.000269606307
 21
918.0001484638935
 31
0.0
  0
LINE
  5
BD
330
1F
100
AcDbEntity
  8
0-B_寸法
  6
Continuous
 62
   120
370
     5
100
AcDbLine
 10
-2841.000269606307
 20
918.0001484638935
 30
0.0
 11
-2841.000269606307
 21
1168.000148463893
 31
0.0
  0
LINE
  5
BE
330
1F
100
AcDbEntity
  8
0-B_寸法
  6
Continuous
 62
   120
370
     5
100
AcDbLine
 10
-2841.000269606307
 20
918.0001484638935
 30
0.0
 11
-2840.000269606306
 21
918.0001484638935
 31
0.0
  0
LINE
  5
BF
330
1F
100
AcDbEntity
  8
0-B_寸法
  6
Continuous
 62
   120
370
     5
100
AcDbLine
 10
-2840.000269606306
 20
918.0001484638935
 30
0.0
 11
-2840.000269606306
 21
1168.000148463893
 31
0.0
  0
LINE
  5
C0
330
1F
100
AcDbEntity
  8
0-B_寸法
  6
Continuous
 62
   120
370
     5
100
AcDbLine
 10
-2840.500269606307
 20
918.0001484638935
 30
0.0
 11
-2805.640287971903
 21
1048.099371074407
 31
0.0
  0
LINE
  5
C1
330
1F
100
AcDbEntity
  8
0-B_寸法
  6
Continuous
 62
   120
370
     5
100
AcDbLine
 10
-2805.640287971903
 20
1048.099371074407
 30
0.0
 11
-2757.770026889571
 21
1048.099371074407
 31
0.0
  0
LWPOLYLINE
  5
C2
330
1F
100
AcDbEntity
  8
0-B_寸法
  6
Continuous
 62
     7
370
     9
100
AcDbPolyline
 90
        4
 70
     1
 43
3.0
 10
-2839.500269606307
 20
918.0001484638935
 42
0.4142135623731
 10
-2841.000269606307
 20
919.5001484638937
 42
0.4142135623731
 10
-2842.500269606307
 20
918.0001484638935
 42
0.4142135623731
 10
-2841.000269606307
 20
916.5001484638935
 42
0.4142135623731
  0
LWPOLYLINE
  5
C3
330
1F
100
AcDbEntity
  8
0-B_寸法
  6
Continuous
 62
     7
370
     9
100
AcDbPolyline
 90
        4
 70
     1
 43
3.0
 10
-2838.500269606306
 20
918.0001484638935
 42
0.4142135623731
 10
-2840.000269606306
 20
919.5001484638937
 42
0.4142135623731
 10
-2841.500269606306
 20
918.0001484638935
 42
0.4142135623731
 10
-2840.000269606306
 20
916.5001484638935
 42
0.4142135623731
  0
LINE
  5
C4
330
1F
100
AcDbEntity
  8
0-2_扉
  6
Continuous
 62
    92
370
    13
100
AcDbLine
 10
-2840.000269606306
 20
1238.000148463894
 30
0.0
 11
-2446.000269606306
 21
1238.000148463894
 31
0.0
  0
LINE
  5
C5
330
1F
100
AcDbEntity
  8
0-2_扉
  6
Continuous
 62
    92
370
    13
100
AcDbLine
 10
-2840.000269606306
 20
3522.000148463893
 30
0.0
 11
-2446.000269606306
 21
3522.000148463893
 31
0.0
  0
LINE
  5
C6
330
1F
100
AcDbEntity
  8
0-2_扉
  6
Continuous
 62
    92
370
    13
100
AcDbLine
 10
-2446.000269606306
 20
3522.000148463893
 30
0.0
 11
-2446.000269606306
 21
1238.000148463894
 31
0.0
  0
LINE
  5
C7
330
1F
100
AcDbEntity
  8
0-2_扉
  6
Continuous
 62
    92
370
    13
100
AcDbLine
 10
-2444.000269606308
 20
3522.000148463893
 30
0.0
 11
-2444.000269606308
 21
1238.000148463894
 31
0.0
  0
LINE
  5
C8
330
1F
100
AcDbEntity
  8
0-B_寸法
  6
Continuous
 62
   120
370
     5
100
AcDbLine
 10
-2446.000269606306
 20
718.0001484638937
 30
0.0
 11
-2446.000269606306
 21
1168.000148463893
 31
0.0
  0
LINE
  5
C9
330
1F
100
AcDbEntity
  8
0-B_寸法
  6
Continuous
 62
   120
370
     5
100
AcDbLine
 10
-2840.000269606306
 20
918.0001484638935
 30
0.0
 11
-2446.000269606306
 21
918.0001484638935
 31
0.0
  0
LINE
  5
CA
330
1F
100
AcDbEntity
  8
0-B_寸法
  6
Continuous
 62
   120
370
     5
100
AcDbLine
 10
-2446.000269606306
 20
718.0001484638937
 30
0.0
 11
-2444.000269606308
 21
718.0001484638937
 31
0.0
  0
LINE
  5
CB
330
1F
100
AcDbEntity
  8
0-B_寸法
  6
Continuous
 62
   120
370
     5
100
AcDbLine
 10
-2444.000269606308
 20
718.0001484638937
 30
0.0
 11
-2444.000269606308
 21
1168.000148463893
 31
0.0
  0
LINE
  5
CC
330
1F
100
AcDbEntity
  8
0-B_寸法
  6
Continuous
 62
   120
370
     5
100
AcDbLine
 10
-2445.000269606307
 20
718.0001484638937
 30
0.0
 11
-2410.140287971903
 21
848.099371074407
 31
0.0
  0
LINE
  5
CD
330
1F
100
AcDbEntity
  8
0-B_寸法
  6
Continuous
 62
   120
370
     5
100
AcDbLine
 10
-2410.140287971903
 20
848.099371074407
 30
0.0
 11
-2362.27002688957
 21
848.099371074407
 31
0.0
  0
LWPOLYLINE
  5
CE
330
1F
100
AcDbEntity
  8
0-B_寸法
  6
Continuous
 62
     7
370
     9
100
AcDbPolyline
 90
        4
 70
     1
 43
3.0
 10
-2444.500269606307
 20
718.0001484638937
 42
0.4142135623731
 10
-2446.000269606306
 20
719.5001484638937
 42
0.4142135623731
 10
-2447.500269606306
 20
718.0001484638937
 42
0.4142135623731
 10
-2446.000269606306
 20
716.5001484638937
 42
0.4142135623731
  0
LWPOLYLINE
  5
CF
330
1F
100
AcDbEntity
  8
0-B_寸法
  6
Continuous
 62
     7
370
     9
100
AcDbPolyline
 90
        4
 70
     1
 43
3.0
 10
-2444.500269606307
 20
918.0001484638935
 42
0.4142135623731
 10
-2446.000269606306
 20
919.5001484638937
 42
0.4142135623731
 10
-2447.500269606306
 20
918.0001484638935
 42
0.4142135623731
 10
-2446.000269606306
 20
916.5001484638935
 42
0.4142135623731
  0
LWPOLYLINE
  5
D0
330
1F
100
AcDbEntity
  8
0-B_寸法
  6
Continuous
 62
     7
370
     9
100
AcDbPolyline
 90
        4
 70
     1
 43
3.0
 10
-2442.500269606308
 20
718.0001484638937
 42
0.4142135623731
 10
-2444.000269606308
 20
719.5001484638937
 42
0.4142135623731
 10
-2445.500269606308
 20
718.0001484638937
 42
0.4142135623731
 10
-2444.000269606308
 20
716.5001484638937
 42
0.4142135623731
  0
LINE
  5
D1
330
1F
100
AcDbEntity
  8
0-2_扉
  6
Continuous
 62
    92
370
    13
100
AcDbLine
 10
-2444.000269606308
 20
1238.000148463894
 30
0.0
 11
-2050.000269606308
 21
1238.000148463894
 31
0.0
  0
LINE
  5
D2
330
1F
100
AcDbEntity
  8
0-2_扉
  6
Continuous
 62
    92
370
    13
100
AcDbLine
 10
-2444.000269606308
 20
3522.000148463893
 30
0.0
 11
-2050.000269606308
 21
3522.000148463893
 31
0.0
  0
LINE
  5
D3
330
1F
100
AcDbEntity
  8
0-2_扉
  6
Continuous
 62
    92
370
    13
100
AcDbLine
 10
-2049.000269606307
 20
1238.000148463894
 30
0.0
 11
-2049.000269606307
 21
3522.000148463893
 31
0.0
  0
LINE
  5
D4
330
1F
100
AcDbEntity
  8
0-2_扉
  6
Continuous
 62
    92
370
    13
100
AcDbLine
 10
-2050.000269606308
 20
1238.000148463894
 30
0.0
 11
-2050.000269606308
 21
3522.000148463893
 31
0.0
  0
LINE
  5
D5
330
1F
100
AcDbEntity
  8
0-4_枠
  6
Continuous
 62
    92
370
    13
100
AcDbLine
 10
-3267.500269606306
 20
1218.000148463894
 30
0.0
 11
-1622.500269606308
 21
1218.000148463894
 31
0.0
  0
LINE
  5
D6
330
1F
100
AcDbEntity
  8
0-4_枠
  6
Continuous
 62
    92
370
    13
100
AcDbLine
 10
-1622.500269606308
 20
1218.000148463894
 30
0.0
 11
-1622.500269606308
 21
3565.500148463894
 31
0.0
  0
LINE
  5
D7
330
1F
100
AcDbEntity
  8
0-4_枠
  6
Continuous
 62
    92
370
    13
100
AcDbLine
 10
-1652.500269606308
 20
1218.000148463894
 30
0.0
 11
-1652.500269606308
 21
3529.500148463893
 31
0.0
  0
LINE
  5
D8
330
1F
100
AcDbEntity
  8
0-4_枠
  6
Continuous
 62
    92
370
    13
100
AcDbLine
 10
-3267.500269606306
 20
3565.500148463894
 30
0.0
 11
-1622.500269606308
 21
3565.500148463894
 31
0.0
  0
LINE
  5
D9
330
1F
100
AcDbEntity
  8
0-4_枠
  6
Continuous
 62
    92
370
    13
100
AcDbLine
 10
-3237.500269606306
 20
3529.500148463893
 30
0.0
 11
-1652.500269606308
 21
3529.500148463893
 31
0.0
  0
LINE
  5
DA
330
1F
100
AcDbEntity
  8
0-4_枠
  6
Continuous
 62
    92
370
    13
100
AcDbLine
 10
-3237.500269606306
 20
1230.000148463894
 30
0.0
 11
-1652.500269606308
 21
1230.000148463894
 31
0.0
  0
LINE
  5
DB
330
1F
100
AcDbEntity
  8
0-2_扉
  6
Continuous
 62
    92
370
    13
100
AcDbLine
 10
-2049.000269606307
 20
1238.000148463894
 30
0.0
 11
-1655.000269606308
 21
1238.000148463894
 31
0.0
  0
LINE
  5
DC
330
1F
100
AcDbEntity
  8
0-2_扉
  6
Continuous
 62
    92
370
    13
100
AcDbLine
 10
-2049.000269606307
 20
3522.000148463893
 30
0.0
 11
-1655.000269606308
 21
3522.000148463893
 31
0.0
  0
LINE
  5
DD
330
1F
100
AcDbEntity
  8
0-2_扉
  6
Continuous
 62
    92
370
    13
100
AcDbLine
 10
-1655.000269606308
 20
1238.000148463894
 30
0.0
 11
-1655.000269606308
 21
3522.000148463893
 31
0.0
  0
LINE
  5
DE
330
1F
100
AcDbEntity
  8
0-B_寸法
  6
Continuous
 62
   120
370
     5
100
AcDbLine
 10
-3267.500269606306
 20
518.000148463893
 30
0.0
 11
-1622.500269606308
 21
518.0001484638937
 31
0.0
  0
LINE
  5
DF
330
1F
100
AcDbEntity
  8
0-B_寸法
  6
Continuous
 62
   120
370
     5
100
AcDbLine
 10
-1622.500269606308
 20
518.0001484638937
 30
0.0
 11
-1622.500269606308
 21
1168.000148463894
 31
0.0
  0
LINE
  5
E0
330
1F
100
AcDbEntity
  8
0-B_寸法
  6
Continuous
 62
   120
370
     5
100
AcDbLine
 10
-2444.000269606308
 20
718.0001484638937
 30
0.0
 11
-1655.000269606308
 21
718.0001484638937
 31
0.0
  0
LINE
  5
E1
330
1F
100
AcDbEntity
  8
0-B_寸法
  6
Continuous
 62
   120
370
     5
100
AcDbLine
 10
-1655.000269606308
 20
718.0001484638937
 30
0.0
 11
-1655.000269606308
 21
1168.000148463893
 31
0.0
  0
LWPOLYLINE
  5
E2
330
1F
100
AcDbEntity
  8
0-B_寸法
  6
Continuous
 62
     7
370
     9
100
AcDbPolyline
 90
        4
 70
     1
 43
3.0
 10
-1621.000269606308
 20
518.0001484638937
 42
0.4142135623731
 10
-1622.500269606308
 20
519.5001484638937
 42
0.4142135623731
 10
-1624.000269606308
 20
518.0001484638937
 42
0.4142135623731
 10
-1622.500269606308
 20
516.5001484638937
 42
0.4142135623731
  0
LWPOLYLINE
  5
E3
330
1F
100
AcDbEntity
  8
0-B_寸法
  6
Continuous
 62
     7
370
     9
100
AcDbPolyline
 90
        4
 70
     1
 43
3.0
 10
-1653.500269606308
 20
718.0001484638937
 42
0.4142135623731
 10
-1655.000269606308
 20
719.5001484638937
 42
0.4142135623731
 10
-1656.500269606308
 20
718.0001484638937
 42
0.4142135623731
 10
-1655.000269606308
 20
716.5001484638937
 42
0.4142135623731
  0
LWPOLYLINE
  5
E4
330
1F
100
AcDbEntity
  8
0-B_寸法
  6
Continuous
 62
     7
370
     9
100
AcDbPolyline
 90
        4
 70
     1
 43
3.0
 10
-3233.500269606307
 20
718.0001484638937
 42
0.4142135623731
 10
-3235.000269606307
 20
719.5001484638937
 42
0.4142135623731
 10
-3236.500269606307
 20
718.0001484638937
 42
0.4142135623731
 10
-3235.000269606307
 20
716.5001484638937
 42
0.4142135623731
  0
LINE
  5
E5
330
1F
100
AcDbEntity
  8
0-B_寸法
  6
Continuous
 62
   120
370
     5
100
AcDbLine
 10
-3235.000269606307
 20
718.0001484638937
 30
0.0
 11
-2446.000269606306
 21
718.0001484638937
 31
0.0
  0
LINE
  5
E6
330
1F
100
AcDbEntity
  8
0-3_仕上げ
  6
Continuous
 62
     7
370
     9
100
AcDbLine
 10
-3159.000269606321
 20
2193.000148463894
 30
0.0
 11
-3155.000269606325
 21
2197.000148463893
 31
0.0
  0
LINE
  5
E7
330
1F
100
AcDbEntity
  8
0-3_仕上げ
  6
Continuous
 62
     7
370
     9
100
AcDbLine
 10
-3159.000269606321
 20
2113.000148463893
 30
0.0
 11
-3155.000269606325
 21
2109.000148463893
 31
0.0
  0
LINE
  5
E8
330
1F
100
AcDbEntity
  8
0-3_仕上げ
  6
Continuous
 62
     7
370
     9
100
AcDbLine
 10
-3159.000269606321
 20
1238.000148463894
 30
0.0
 11
-3159.000269606321
 21
3522.000148463893
 31
0.0
  0
LINE
  5
E9
330
1F
100
AcDbEntity
  8
0-3_仕上げ
  6
Continuous
 62
     7
370
     9
100
AcDbLine
 10
-3159.000269606321
 20
3446.000148463894
 30
0.0
 11
-3155.000269606325
 21
3442.000148463894
 31
0.0
  0
LINE
  5
EA
330
1F
100
AcDbEntity
  8
0-3_仕上げ
  6
Continuous
 62
    92
370
    13
100
AcDbLine
 10
-3155.000269606325
 20
2197.000148463893
 30
0.0
 11
-3155.000269606325
 21
3442.000148463894
 31
0.0
  0
LINE
  5
EB
330
1F
100
AcDbEntity
  8
0-3_仕上げ
  6
Continuous
 62
     7
370
     9
100
AcDbLine
 10
-3159.000269606321
 20
1314.000148463893
 30
0.0
 11
-3155.000269606325
 21
1318.000148463894
 31
0.0
  0
LINE
  5
EC
330
1F
100
AcDbEntity
  8
0-3_仕上げ
  6
Continuous
 62
    92
370
    13
100
AcDbLine
 10
-3155.000269606325
 20
1318.000148463894
 30
0.0
 11
-3155.000269606325
 21
2109.000148463893
 31
0.0
  0
LINE
  5
ED
330
1F
100
AcDbEntity
  8
0-3_仕上げ
  6
Continuous
 62
     7
370
     9
100
AcDbLine
 10
-2872.500269606316
 20
1238.000148463894
 30
0.0
 11
-2872.500269606316
 21
3522.000148463893
 31
0.0
  0
LINE
  5
EE
330
1F
100
AcDbEntity
  8
0-3_仕上げ
  6
Continuous
 62
     7
370
     9
100
AcDbLine
 10
-2808.500269606319
 20
1238.000148463894
 30
0.0
 11
-2808.500269606319
 21
3522.000148463893
 31
0.0
  0
LINE
  5
EF
330
1F
100
AcDbEntity
  8
0-3_仕上げ
  6
Continuous
 62
     7
370
     9
100
AcDbLine
 10
-2522.000269606314
 20
2193.000148463894
 30
0.0
 11
-2526.00026960631
 21
2197.000148463893
 31
0.0
  0
LINE
  5
F0
330
1F
100
AcDbEntity
  8
0-3_仕上げ
  6
Continuous
 62
     7
370
     9
100
AcDbLine
 10
-2522.000269606314
 20
2113.000148463893
 30
0.0
 11
-2526.00026960631
 21
2109.000148463893
 31
0.0
  0
LINE
  5
F1
330
1F
100
AcDbEntity
  8
0-3_仕上げ
  6
Continuous
 62
     7
370
     9
100
AcDbLine
 10
-2522.000269606314
 20
1238.000148463894
 30
0.0
 11
-2522.000269606314
 21
3522.000148463893
 31
0.0
  0
LINE
  5
F2
330
1F
100
AcDbEntity
  8
0-3_仕上げ
  6
Continuous
 62
     7
370
     9
100
AcDbLine
 10
-2522.000269606314
 20
3446.000148463894
 30
0.0
 11
-2526.00026960631
 21
3442.000148463894
 31
0.0
  0
LINE
  5
F3
330
1F
100
AcDbEntity
  8
0-3_仕上げ
  6
Continuous
 62
    92
370
    13
100
AcDbLine
 10
-2526.00026960631
 20
2197.000148463893
 30
0.0
 11
-2526.00026960631
 21
3442.000148463894
 31
0.0
  0
LINE
  5
F4
330
1F
100
AcDbEntity
  8
0-3_仕上げ
  6
Continuous
 62
     7
370
     9
100
AcDbLine
 10
-2522.000269606314
 20
1314.000148463893
 30
0.0
 11
-2526.00026960631
 21
1318.000148463894
 31
0.0
  0
LINE
  5
F5
330
1F
100
AcDbEntity
  8
0-3_仕上げ
  6
Continuous
 62
    92
370
    13
100
AcDbLine
 10
-2526.00026960631
 20
1318.000148463894
 30
0.0
 11
-2526.00026960631
 21
2109.000148463893
 31
0.0
  0
LINE
  5
F6
330
1F
100
AcDbEntity
  8
0-3_仕上げ
  6
Continuous
 62
     7
370
     9
100
AcDbLine
 10
-2935.500269606327
 20
2197.000148463893
 30
0.0
 11
-2931.500269606303
 21
2193.000148463894
 31
0.0
  0
LINE
  5
F7
330
1F
100
AcDbEntity
  8
0-3_仕上げ
  6
Continuous
 62
     7
370
     9
100
AcDbLine
 10
-2931.500269606303
 20
2113.000148463893
 30
0.0
 11
-2935.500269606327
 21
2109.000148463893
 31
0.0
  0
LINE
  5
F8
330
1F
100
AcDbEntity
  8
0-3_仕上げ
  6
Continuous
 62
     7
370
     9
100
AcDbLine
 10
-2931.500269606303
 20
1238.000148463894
 30
0.0
 11
-2931.500269606303
 21
3522.000148463893
 31
0.0
  0
LINE
  5
F9
330
1F
100
AcDbEntity
  8
0-3_仕上げ
  6
Continuous
 62
     7
370
     9
100
AcDbLine
 10
-2931.500269606303
 20
3446.000148463894
 30
0.0
 11
-2935.500269606327
 21
3442.000148463894
 31
0.0
  0
LINE
  5
FA
330
1F
100
AcDbEntity
  8
0-3_仕上げ
  6
Continuous
 62
    92
370
    13
100
AcDbLine
 10
-2935.500269606327
 20
2197.000148463893
 30
0.0
 11
-2935.500269606327
 21
3442.000148463894
 31
0.0
  0
LINE
  5
FB
330
1F
100
AcDbEntity
  8
0-3_仕上げ
  6
Continuous
 62
     7
370
     9
100
AcDbLine
 10
-2935.500269606327
 20
1318.000148463894
 30
0.0
 11
-2931.500269606303
 21
1314.000148463893
 31
0.0
  0
LINE
  5
FC
330
1F
100
AcDbEntity
  8
0-3_仕上げ
  6
Continuous
 62
    92
370
    13
100
AcDbLine
 10
-2935.500269606327
 20
1318.000148463894
 30
0.0
 11
-2935.500269606327
 21
2109.000148463893
 31
0.0
  0
LINE
  5
FD
330
1F
100
AcDbEntity
  8
0-3_仕上げ
  6
Continuous
 62
     7
370
     9
100
AcDbLine
 10
-2745.500269606308
 20
2197.000148463893
 30
0.0
 11
-2749.500269606305
 21
2193.000148463894
 31
0.0
  0
LINE
  5
FE
330
1F
100
AcDbEntity
  8
0-3_仕上げ
  6
Continuous
 62
     7
370
     9
100
AcDbLine
 10
-2749.500269606305
 20
2113.000148463893
 30
0.0
 11
-2745.500269606308
 21
2109.000148463893
 31
0.0
  0
LINE
  5
FF
330
1F
100
AcDbEntity
  8
0-3_仕上げ
  6
Continuous
 62
     7
370
     9
100
AcDbLine
 10
-2749.500269606305
 20
1238.000148463894
 30
0.0
 11
-2749.500269606305
 21
3522.000148463893
 31
0.0
  0
LINE
  5
100
330
1F
100
AcDbEntity
  8
0-3_仕上げ
  6
Continuous
 62
     7
370
     9
100
AcDbLine
 10
-2749.500269606305
 20
3446.000148463894
 30
0.0
 11
-2745.500269606308
 21
3442.000148463894
 31
0.0
  0
LINE
  5
101
330
1F
100
AcDbEntity
  8
0-3_仕上げ
  6
Continuous
 62
    92
370
    13
100
AcDbLine
 10
-2745.500269606308
 20
2197.000148463893
 30
0.0
 11
-2745.500269606308
 21
3442.000148463894
 31
0.0
  0
LINE
  5
102
330
1F
100
AcDbEntity
  8
0-3_仕上げ
  6
Continuous
 62
     7
370
     9
100
AcDbLine
 10
-2745.500269606308
 20
1318.000148463894
 30
0.0
 11
-2749.500269606305
 21
1314.000148463893
 31
0.0
  0
LINE
  5
103
330
1F
100
AcDbEntity
  8
0-3_仕上げ
  6
Continuous
 62
     7
370
     9
100
AcDbLine
 10
-2931.500269606303
 20
3446.000148463894
 30
0.0
 11
-3159.000269606321
 21
3446.000148463894
 31
0.0
  0
LINE
  5
104
330
1F
100
AcDbEntity
  8
0-3_仕上げ
  6
Continuous
 62
    92
370
    13
100
AcDbLine
 10
-2935.500269606327
 20
3442.000148463894
 30
0.0
 11
-3155.000269606325
 21
3442.000148463894
 31
0.0
  0
LINE
  5
105
330
1F
100
AcDbEntity
  8
0-3_仕上げ
  6
Continuous
 62
     7
370
     9
100
AcDbLine
 10
-3159.000269606321
 20
1314.000148463893
 30
0.0
 11
-2931.500269606303
 21
1314.000148463893
 31
0.0
  0
LINE
  5
106
330
1F
100
AcDbEntity
  8
0-3_仕上げ
  6
Continuous
 62
    92
370
    13
100
AcDbLine
 10
-3155.000269606325
 20
1318.000148463894
 30
0.0
 11
-2935.500269606327
 21
1318.000148463894
 31
0.0
  0
LINE
  5
107
330
1F
100
AcDbEntity
  8
0-3_仕上げ
  6
Continuous
 62
     7
370
     9
100
AcDbLine
 10
-3159.000269606321
 20
2193.000148463894
 30
0.0
 11
-2931.500269606303
 21
2193.000148463894
 31
0.0
  0
LINE
  5
108
330
1F
100
AcDbEntity
  8
0-3_仕上げ
  6
Continuous
 62
    92
370
    13
100
AcDbLine
 10
-3155.000269606325
 20
2197.000148463893
 30
0.0
 11
-2935.500269606327
 21
2197.000148463893
 31
0.0
  0
LINE
  5
109
330
1F
100
AcDbEntity
  8
0-3_仕上げ
  6
Continuous
 62
    92
370
    13
100
AcDbLine
 10
-3155.000269606325
 20
2109.000148463893
 30
0.0
 11
-2935.500269606327
 21
2109.000148463893
 31
0.0
  0
LINE
  5
10A
330
1F
100
AcDbEntity
  8
0-3_仕上げ
  6
Continuous
 62
     7
370
     9
100
AcDbLine
 10
-3159.000269606321
 20
2113.000148463893
 30
0.0
 11
-2931.500269606303
 21
2113.000148463893
 31
0.0
  0
LINE
  5
10B
330
1F
100
AcDbEntity
  8
0-3_仕上げ
  6
Continuous
 62
    92
370
    13
100
AcDbLine
 10
-2526.00026960631
 20
2197.000148463893
 30
0.0
 11
-2745.500269606308
 21
2197.000148463893
 31
0.0
  0
LINE
  5
10C
330
1F
100
AcDbEntity
  8
0-3_仕上げ
  6
Continuous
 62
     7
370
     9
100
AcDbLine
 10
-2522.000269606314
 20
2193.000148463894
 30
0.0
 11
-2749.500269606305
 21
2193.000148463894
 31
0.0
  0
LINE
  5
10D
330
1F
100
AcDbEntity
  8
0-3_仕上げ
  6
Continuous
 62
    92
370
    13
100
AcDbLine
 10
-2526.00026960631
 20
2109.000148463893
 30
0.0
 11
-2745.500269606308
 21
2109.000148463893
 31
0.0
  0
LINE
  5
10E
330
1F
100
AcDbEntity
  8
0-3_仕上げ
  6
Continuous
 62
     7
370
     9
100
AcDbLine
 10
-2522.000269606314
 20
2113.000148463893
 30
0.0
 11
-2749.500269606305
 21
2113.000148463893
 31
0.0
  0
LINE
  5
10F
330
1F
100
AcDbEntity
  8
0-3_仕上げ
  6
Continuous
 62
     7
370
     9
100
AcDbLine
 10
-2368.000269606317
 20
2193.000148463894
 30
0.0
 11
-2364.000269606321
 21
2197.000148463893
 31
0.0
  0
LINE
  5
110
330
1F
100
AcDbEntity
  8
0-3_仕上げ
  6
Continuous
 62
     7
370
     9
100
AcDbLine
 10
-2368.000269606317
 20
2113.000148463893
 30
0.0
 11
-2364.000269606321
 21
2109.000148463893
 31
0.0
  0
LINE
  5
111
330
1F
100
AcDbEntity
  8
0-3_仕上げ
  6
Continuous
 62
     7
370
     9
100
AcDbLine
 10
-2368.000269606317
 20
1238.000148463894
 30
0.0
 11
-2368.000269606317
 21
3522.000148463893
 31
0.0
  0
LINE
  5
112
330
1F
100
AcDbEntity
  8
0-3_仕上げ
  6
Continuous
 62
     7
370
     9
100
AcDbLine
 10
-2368.000269606317
 20
3446.000148463894
 30
0.0
 11
-2364.000269606321
 21
3442.000148463894
 31
0.0
  0
LINE
  5
113
330
1F
100
AcDbEntity
  8
0-3_仕上げ
  6
Continuous
 62
    92
370
    13
100
AcDbLine
 10
-2364.000269606321
 20
2197.000148463893
 30
0.0
 11
-2364.000269606321
 21
3442.000148463894
 31
0.0
  0
LINE
  5
114
330
1F
100
AcDbEntity
  8
0-3_仕上げ
  6
Continuous
 62
     7
370
     9
100
AcDbLine
 10
-2368.000269606317
 20
1314.000148463893
 30
0.0
 11
-2364.000269606321
 21
1318.000148463894
 31
0.0
  0
LINE
  5
115
330
1F
100
AcDbEntity
  8
0-3_仕上げ
  6
Continuous
 62
    92
370
    13
100
AcDbLine
 10
-2364.000269606321
 20
1318.000148463894
 30
0.0
 11
-2364.000269606321
 21
2109.000148463893
 31
0.0
  0
LINE
  5
116
330
1F
100
AcDbEntity
  8
0-3_仕上げ
  6
Continuous
 62
     7
370
     9
100
AcDbLine
 10
-2081.500269606312
 20
1238.000148463894
 30
0.0
 11
-2081.500269606312
 21
3522.000148463893
 31
0.0
  0
LINE
  5
117
330
1F
100
AcDbEntity
  8
0-3_仕上げ
  6
Continuous
 62
     7
370
     9
100
AcDbLine
 10
-2017.500269606316
 20
1238.000148463894
 30
0.0
 11
-2017.500269606316
 21
3522.000148463893
 31
0.0
  0
LINE
  5
118
330
1F
100
AcDbEntity
  8
0-3_仕上げ
  6
Continuous
 62
     7
370
     9
100
AcDbLine
 10
-1731.00026960631
 20
2193.000148463894
 30
0.0
 11
-1735.000269606306
 21
2197.000148463893
 31
0.0
  0
LINE
  5
119
330
1F
100
AcDbEntity
  8
0-3_仕上げ
  6
Continuous
 62
     7
370
     9
100
AcDbLine
 10
-1731.00026960631
 20
2113.000148463893
 30
0.0
 11
-1735.000269606306
 21
2109.000148463893
 31
0.0
  0
LINE
  5
11A
330
1F
100
AcDbEntity
  8
0-3_仕上げ
  6
Continuous
 62
     7
370
     9
100
AcDbLine
 10
-1731.00026960631
 20
1238.000148463894
 30
0.0
 11
-1731.00026960631
 21
3522.000148463893
 31
0.0
  0
LINE
  5
11B
330
1F
100
AcDbEntity
  8
0-3_仕上げ
  6
Continuous
 62
     7
370
     9
100
AcDbLine
 10
-1731.00026960631
 20
3446.000148463894
 30
0.0
 11
-1735.000269606306
 21
3442.000148463894
 31
0.0
  0
LINE
  5
11C
330
1F
100
AcDbEntity
  8
0-3_仕上げ
  6
Continuous
 62
    92
370
    13
100
AcDbLine
 10
-1735.000269606306
 20
2197.000148463893
 30
0.0
 11
-1735.000269606306
 21
3442.000148463894
 31
0.0
  0
LINE
  5
11D
330
1F
100
AcDbEntity
  8
0-3_仕上げ
  6
Continuous
 62
     7
370
     9
100
AcDbLine
 10
-1731.00026960631
 20
1314.000148463893
 30
0.0
 11
-1735.000269606306
 21
1318.000148463894
 31
0.0
  0
LINE
  5
11E
330
1F
100
AcDbEntity
  8
0-3_仕上げ
  6
Continuous
 62
    92
370
    13
100
AcDbLine
 10
-1735.000269606306
 20
1318.000148463894
 30
0.0
 11
-1735.000269606306
 21
2109.000148463893
 31
0.0
  0
LINE
  5
11F
330
1F
100
AcDbEntity
  8
0-3_仕上げ
  6
Continuous
 62
     7
370
     9
100
AcDbLine
 10
-2144.500269606323
 20
2197.000148463893
 30
0.0
 11
-2140.500269606327
 21
2193.000148463894
 31
0.0
  0
LINE
  5
120
330
1F
100
AcDbEntity
  8
0-3_仕上げ
  6
Continuous
 62
     7
370
     9
100
AcDbLine
 10
-2140.500269606327
 20
2113.000148463893
 30
0.0
 11
-2144.500269606323
 21
2109.000148463893
 31
0.0
  0
LINE
  5
121
330
1F
100
AcDbEntity
  8
0-3_仕上げ
  6
Continuous
 62
     7
370
     9
100
AcDbLine
 10
-2140.500269606327
 20
1238.000148463894
 30
0.0
 11
-2140.500269606327
 21
3522.000148463893
 31
0.0
  0
LINE
  5
122
330
1F
100
AcDbEntity
  8
0-3_仕上げ
  6
Continuous
 62
     7
370
     9
100
AcDbLine
 10
-2140.500269606327
 20
3446.000148463894
 30
0.0
 11
-2144.500269606323
 21
3442.000148463894
 31
0.0
  0
LINE
  5
123
330
1F
100
AcDbEntity
  8
0-3_仕上げ
  6
Continuous
 62
    92
370
    13
100
AcDbLine
 10
-2144.500269606323
 20
2197.000148463893
 30
0.0
 11
-2144.500269606323
 21
3442.000148463894
 31
0.0
  0
LINE
  5
124
330
1F
100
AcDbEntity
  8
0-3_仕上げ
  6
Continuous
 62
     7
370
     9
100
AcDbLine
 10
-2144.500269606323
 20
1318.000148463894
 30
0.0
 11
-2140.500269606327
 21
1314.000148463893
 31
0.0
  0
LINE
  5
125
330
1F
100
AcDbEntity
  8
0-3_仕上げ
  6
Continuous
 62
    92
370
    13
100
AcDbLine
 10
-2144.500269606323
 20
1318.000148463894
 30
0.0
 11
-2144.500269606323
 21
2109.000148463893
 31
0.0
  0
LINE
  5
126
330
1F
100
AcDbEntity
  8
0-3_仕上げ
  6
Continuous
 62
     7
370
     9
100
AcDbLine
 10
-1954.500269606305
 20
2197.000148463893
 30
0.0
 11
-1958.500269606328
 21
2193.000148463894
 31
0.0
  0
LINE
  5
127
330
1F
100
AcDbEntity
  8
0-3_仕上げ
  6
Continuous
 62
     7
370
     9
100
AcDbLine
 10
-1958.500269606328
 20
2113.000148463893
 30
0.0
 11
-1954.500269606305
 21
2109.000148463893
 31
0.0
  0
LINE
  5
128
330
1F
100
AcDbEntity
  8
0-3_仕上げ
  6
Continuous
 62
     7
370
     9
100
AcDbLine
 10
-1958.500269606328
 20
1238.000148463894
 30
0.0
 11
-1958.500269606328
 21
3522.000148463893
 31
0.0
  0
LINE
  5
129
330
1F
100
AcDbEntity
  8
0-3_仕上げ
  6
Continuous
 62
     7
370
     9
100
AcDbLine
 10
-1958.500269606328
 20
3446.000148463894
 30
0.0
 11
-1954.500269606305
 21
3442.000148463894
 31
0.0
  0
LINE
  5
12A
330
1F
100
AcDbEntity
  8
0-3_仕上げ
  6
Continuous
 62
    92
370
    13
100
AcDbLine
 10
-1954.500269606305
 20
2197.000148463893
 30
0.0
 11
-1954.500269606305
 21
3442.000148463894
 31
0.0
  0
LINE
  5
12B
330
1F
100
AcDbEntity
  8
0-3_仕上げ
  6
Continuous
 62
     7
370
     9
100
AcDbLine
 10
-1954.500269606305
 20
1318.000148463894
 30
0.0
 11
-1958.500269606328
 21
1314.000148463893
 31
0.0
  0
LINE
  5
12C
330
1F
100
AcDbEntity
  8
0-3_仕上げ
  6
Continuous
 62
    92
370
    13
100
AcDbLine
 10
-1954.500269606305
 20
1318.000148463894
 30
0.0
 11
-1954.500269606305
 21
2109.000148463893
 31
0.0
  0
LINE
  5
12D
330
1F
100
AcDbEntity
  8
0-3_仕上げ
  6
Continuous
 62
     7
370
     9
100
AcDbLine
 10
-2140.500269606327
 20
3446.000148463894
 30
0.0
 11
-2368.000269606317
 21
3446.000148463894
 31
0.0
  0
LINE
  5
12E
330
1F
100
AcDbEntity
  8
0-3_仕上げ
  6
Continuous
 62
    92
370
    13
100
AcDbLine
 10
-2144.500269606323
 20
3442.000148463894
 30
0.0
 11
-2364.000269606321
 21
3442.000148463894
 31
0.0
  0
LINE
  5
12F
330
1F
100
AcDbEntity
  8
0-3_仕上げ
  6
Continuous
 62
     7
370
     9
100
AcDbLine
 10
-2368.000269606317
 20
1314.000148463893
 30
0.0
 11
-2140.500269606327
 21
1314.000148463893
 31
0.0
  0
LINE
  5
130
330
1F
100
AcDbEntity
  8
0-3_仕上げ
  6
Continuous
 62
    92
370
    13
100
AcDbLine
 10
-2364.000269606321
 20
1318.000148463894
 30
0.0
 11
-2144.500269606323
 21
1318.000148463894
 31
0.0
  0
LINE
  5
131
330
1F
100
AcDbEntity
  8
0-3_仕上げ
  6
Continuous
 62
     7
370
     9
100
AcDbLine
 10
-2368.000269606317
 20
2193.000148463894
 30
0.0
 11
-2140.500269606327
 21
2193.000148463894
 31
0.0
  0
LINE
  5
132
330
1F
100
AcDbEntity
  8
0-3_仕上げ
  6
Continuous
 62
    92
370
    13
100
AcDbLine
 10
-2364.000269606321
 20
2197.000148463893
 30
0.0
 11
-2144.500269606323
 21
2197.000148463893
 31
0.0
  0
LINE
  5
133
330
1F
100
AcDbEntity
  8
0-3_仕上げ
  6
Continuous
 62
    92
370
    13
100
AcDbLine
 10
-2364.000269606321
 20
2109.000148463893
 30
0.0
 11
-2144.500269606323
 21
2109.000148463893
 31
0.0
  0
LINE
  5
134
330
1F
100
AcDbEntity
  8
0-3_仕上げ
  6
Continuous
 62
     7
370
     9
100
AcDbLine
 10
-2368.000269606317
 20
2113.000148463893
 30
0.0
 11
-2140.500269606327
 21
2113.000148463893
 31
0.0
  0
LINE
  5
135
330
1F
100
AcDbEntity
  8
0-3_仕上げ
  6
Continuous
 62
    92
370
    13
100
AcDbLine
 10
-1735.000269606306
 20
2197.000148463893
 30
0.0
 11
-1954.500269606305
 21
2197.000148463893
 31
0.0
  0
LINE
  5
136
330
1F
100
AcDbEntity
  8
0-3_仕上げ
  6
Continuous
 62
     7
370
     9
100
AcDbLine
 10
-1731.00026960631
 20
2193.000148463894
 30
0.0
 11
-1958.500269606328
 21
2193.000148463894
 31
0.0
  0
LINE
  5
137
330
1F
100
AcDbEntity
  8
0-3_仕上げ
  6
Continuous
 62
    92
370
    13
100
AcDbLine
 10
-1735.000269606306
 20
2109.000148463893
 30
0.0
 11
-1954.500269606305
 21
2109.000148463893
 31
0.0
  0
LINE
  5
138
330
1F
100
AcDbEntity
  8
0-3_仕上げ
  6
Continuous
 62
     7
370
     9
100
AcDbLine
 10
-1731.00026960631
 20
2113.000148463893
 30
0.0
 11
-1958.500269606328
 21
2113.000148463893
 31
0.0
  0
LINE
  5
139
330
1F
100
AcDbEntity
  8
0-1_通り芯
  6
JWW_CENTER1
 62
   120
370
     5
100
AcDbLine
 10
-3107.750269606317
 20
2141.000148463893
 30
0.0
 11
-2982.750269606316
 21
2141.000148463893
 31
0.0
  0
LINE
  5
13A
330
1F
100
AcDbEntity
  8
0-1_通り芯
  6
JWW_CENTER1
 62
   120
370
     5
100
AcDbLine
 10
-3045.250269606317
 20
2157.500148463893
 30
0.0
 11
-3045.250269606317
 21
2124.500148463893
 31
0.0
  0
LINE
  5
13B
330
1F
100
AcDbEntity
  8
0-1_通り芯
  6
JWW_CENTER1
 62
   120
370
     5
100
AcDbLine
 10
-2698.250269606319
 20
2141.000148463893
 30
0.0
 11
-2573.250269606318
 21
2141.000148463893
 31
0.0
  0
LINE
  5
13C
330
1F
100
AcDbEntity
  8
0-1_通り芯
  6
JWW_CENTER1
 62
   120
370
     5
100
AcDbLine
 10
-2635.75026960632
 20
2157.500148463893
 30
0.0
 11
-2635.75026960632
 21
2124.500148463893
 31
0.0
  0
LINE
  5
13D
330
1F
100
AcDbEntity
  8
0-1_通り芯
  6
JWW_CENTER1
 62
   120
370
     5
100
AcDbLine
 10
-2316.750269606332
 20
2141.000148463893
 30
0.0
 11
-2191.750269606331
 21
2141.000148463893
 31
0.0
  0
LINE
  5
13E
330
1F
100
AcDbEntity
  8
0-1_通り芯
  6
JWW_CENTER1
 62
   120
370
     5
100
AcDbLine
 10
-2254.250269606332
 20
2157.500148463893
 30
0.0
 11
-2254.250269606332
 21
2124.500148463893
 31
0.0
  0
LINE
  5
13F
330
1F
100
AcDbEntity
  8
0-1_通り芯
  6
JWW_CENTER1
 62
   120
370
     5
100
AcDbLine
 10
-1907.250269606323
 20
2141.000148463893
 30
0.0
 11
-1782.250269606322
 21
2141.000148463893
 31
0.0
  0
LINE
  5
140
330
1F
100
AcDbEntity
  8
0-1_通り芯
  6
JWW_CENTER1
 62
   120
370
     5
100
AcDbLine
 10
-1844.750269606324
 20
2157.500148463893
 30
0.0
 11
-1844.750269606324
 21
2124.500148463893
 31
0.0
  0
LINE
  5
141
330
1F
100
AcDbEntity
  8
0-3_仕上げ
  6
Continuous
 62
    92
370
    13
100
AcDbLine
 10
-2526.00026960631
 20
1318.000148463894
 30
0.0
 11
-2745.500269606308
 21
1318.000148463894
 31
0.0
  0
LINE
  5
142
330
1F
100
AcDbEntity
  8
0-3_仕上げ
  6
Continuous
 62
    92
370
    13
100
AcDbLine
 10
-2745.500269606308
 20
1318.000148463894
 30
0.0
 11
-2745.500269606308
 21
2109.000148463893
 31
0.0
  0
LINE
  5
143
330
1F
100
AcDbEntity
  8
0-3_仕上げ
  6
Continuous
 62
     7
370
     9
100
AcDbLine
 10
-2522.000269606314
 20
1314.000148463893
 30
0.0
 11
-2749.500269606305
 21
1314.000148463893
 31
0.0
  0
LINE
  5
144
330
1F
100
AcDbEntity
  8
0-3_仕上げ
  6
Continuous
 62
     7
370
     9
100
AcDbLine
 10
-1958.500269606328
 20
3446.000148463894
 30
0.0
 11
-1731.00026960631
 21
3446.000148463894
 31
0.0
  0
LINE
  5
145
330
1F
100
AcDbEntity
  8
0-3_仕上げ
  6
Continuous
 62
    92
370
    13
100
AcDbLine
 10
-1954.500269606305
 20
3442.000148463894
 30
0.0
 11
-1735.000269606306
 21
3442.000148463894
 31
0.0
  0
LINE
  5
146
330
1F
100
AcDbEntity
  8
0-3_仕上げ
  6
Continuous
 62
     7
370
     9
100
AcDbLine
 10
-1731.00026960631
 20
1314.000148463893
 30
0.0
 11
-1958.500269606328
 21
1314.000148463893
 31
0.0
  0
LINE
  5
147
330
1F
100
AcDbEntity
  8
0-3_仕上げ
  6
Continuous
 62
    92
370
    13
100
AcDbLine
 10
-1735.000269606306
 20
1318.000148463894
 30
0.0
 11
-1954.500269606305
 21
1318.000148463894
 31
0.0
  0
LINE
  5
148
330
1F
100
AcDbEntity
  8
0-3_仕上げ
  6
Continuous
 62
     7
370
     9
100
AcDbLine
 10
-2749.500269606305
 20
3446.000148463894
 30
0.0
 11
-2522.000269606314
 21
3446.000148463894
 31
0.0
  0
LINE
  5
149
330
1F
100
AcDbEntity
  8
0-3_仕上げ
  6
Continuous
 62
    92
370
    13
100
AcDbLine
 10
-2745.500269606308
 20
3442.000148463894
 30
0.0
 11
-2526.00026960631
 21
3442.000148463894
 31
0.0
  0
LINE
  5
14A
330
1F
100
AcDbEntity
  8
0-2_扉
  6
Continuous
 62
    92
370
    13
100
AcDbLine
 10
1959.499228297055
 20
1238.000148463894
 30
0.0
 11
1959.499228297055
 21
3522.000148463893
 31
0.0
  0
LINE
  5
14B
330
1F
100
AcDbEntity
  8
0-2_扉
  6
Continuous
 62
    92
370
    13
100
AcDbLine
 10
1959.499228297055
 20
1238.000148463894
 30
0.0
 11
2353.499228297055
 21
1238.000148463894
 31
0.0
  0
LINE
  5
14C
330
1F
100
AcDbEntity
  8
0-2_扉
  6
Continuous
 62
    92
370
    13
100
AcDbLine
 10
1959.499228297055
 20
3522.000148463893
 30
0.0
 11
2353.499228297055
 21
3522.000148463893
 31
0.0
  0
LINE
  5
14D
330
1F
100
AcDbEntity
  8
0-2_扉
  6
Continuous
 62
    92
370
    13
100
AcDbLine
 10
2353.499228297055
 20
3522.000148463893
 30
0.0
 11
2353.499228297055
 21
1238.000148463894
 31
0.0
  0
LINE
  5
14E
330
1F
100
AcDbEntity
  8
0-2_扉
  6
Continuous
 62
    92
370
    13
100
AcDbLine
 10
2354.499228297056
 20
3522.000148463893
 30
0.0
 11
2354.499228297056
 21
1238.000148463894
 31
0.0
  0
LINE
  5
14F
330
1F
100
AcDbEntity
  8
0-2_扉
  6
Continuous
 62
    92
370
    13
100
AcDbLine
 10
2354.499228297056
 20
1238.000148463894
 30
0.0
 11
2748.499228297055
 21
1238.000148463894
 31
0.0
  0
LINE
  5
150
330
1F
100
AcDbEntity
  8
0-2_扉
  6
Continuous
 62
    92
370
    13
100
AcDbLine
 10
2354.499228297056
 20
3522.000148463893
 30
0.0
 11
2748.499228297055
 21
3522.000148463893
 31
0.0
  0
LINE
  5
151
330
1F
100
AcDbEntity
  8
0-2_扉
  6
Continuous
 62
    92
370
    13
100
AcDbLine
 10
2748.499228297055
 20
3522.000148463893
 30
0.0
 11
2748.499228297055
 21
1238.000148463894
 31
0.0
  0
LINE
  5
152
330
1F
100
AcDbEntity
  8
0-2_扉
  6
Continuous
 62
    92
370
    13
100
AcDbLine
 10
2750.499228297053
 20
3522.000148463893
 30
0.0
 11
2750.499228297053
 21
1238.000148463894
 31
0.0
  0
LINE
  5
153
330
1F
100
AcDbEntity
  8
0-2_扉
  6
Continuous
 62
    92
370
    13
100
AcDbLine
 10
2750.499228297053
 20
1238.000148463894
 30
0.0
 11
3144.499228297053
 21
1238.000148463894
 31
0.0
  0
LINE
  5
154
330
1F
100
AcDbEntity
  8
0-2_扉
  6
Continuous
 62
    92
370
    13
100
AcDbLine
 10
2750.499228297053
 20
3522.000148463893
 30
0.0
 11
3144.499228297053
 21
3522.000148463893
 31
0.0
  0
LINE
  5
155
330
1F
100
AcDbEntity
  8
0-2_扉
  6
Continuous
 62
    92
370
    13
100
AcDbLine
 10
3145.499228297054
 20
1238.000148463894
 30
0.0
 11
3145.499228297054
 21
3522.000148463893
 31
0.0
  0
LINE
  5
156
330
1F
100
AcDbEntity
  8
0-2_扉
  6
Continuous
 62
    92
370
    13
100
AcDbLine
 10
3144.499228297053
 20
1238.000148463894
 30
0.0
 11
3144.499228297053
 21
3522.000148463893
 31
0.0
  0
LINE
  5
157
330
1F
100
AcDbEntity
  8
0-2_扉
  6
Continuous
 62
    92
370
    13
100
AcDbLine
 10
3145.499228297054
 20
1238.000148463894
 30
0.0
 11
3539.499228297054
 21
1238.000148463894
 31
0.0
  0
LINE
  5
158
330
1F
100
AcDbEntity
  8
0-2_扉
  6
Continuous
 62
    92
370
    13
100
AcDbLine
 10
3145.499228297054
 20
3522.000148463893
 30
0.0
 11
3539.499228297054
 21
3522.000148463893
 31
0.0
  0
LINE
  5
159
330
1F
100
AcDbEntity
  8
0-2_扉
  6
Continuous
 62
    92
370
    13
100
AcDbLine
 10
3539.499228297054
 20
1238.000148463894
 30
0.0
 11
3539.499228297054
 21
3522.000148463893
 31
0.0
  0
LINE
  5
15A
330
1F
100
AcDbEntity
  8
0-3_仕上げ
  6
Continuous
 62
     7
370
     9
100
AcDbLine
 10
2035.499228297041
 20
2193.000148463894
 30
0.0
 11
2039.499228297037
 21
2197.000148463893
 31
0.0
  0
LINE
  5
15B
330
1F
100
AcDbEntity
  8
0-3_仕上げ
  6
Continuous
 62
     7
370
     9
100
AcDbLine
 10
2035.499228297041
 20
2113.000148463893
 30
0.0
 11
2039.499228297037
 21
2109.000148463893
 31
0.0
  0
LINE
  5
15C
330
1F
100
AcDbEntity
  8
0-3_仕上げ
  6
Continuous
 62
     7
370
     9
100
AcDbLine
 10
2035.499228297041
 20
1238.000148463894
 30
0.0
 11
2035.499228297041
 21
3522.000148463893
 31
0.0
  0
LINE
  5
15D
330
1F
100
AcDbEntity
  8
0-3_仕上げ
  6
Continuous
 62
     7
370
     9
100
AcDbLine
 10
2035.499228297041
 20
3446.000148463894
 30
0.0
 11
2039.499228297037
 21
3442.000148463894
 31
0.0
  0
LINE
  5
15E
330
1F
100
AcDbEntity
  8
0-3_仕上げ
  6
Continuous
 62
    92
370
    13
100
AcDbLine
 10
2039.499228297037
 20
2197.000148463893
 30
0.0
 11
2039.499228297037
 21
3442.000148463894
 31
0.0
  0
LINE
  5
15F
330
1F
100
AcDbEntity
  8
0-3_仕上げ
  6
Continuous
 62
     7
370
     9
100
AcDbLine
 10
2035.499228297041
 20
1314.000148463893
 30
0.0
 11
2039.499228297037
 21
1318.000148463894
 31
0.0
  0
LINE
  5
160
330
1F
100
AcDbEntity
  8
0-3_仕上げ
  6
Continuous
 62
    92
370
    13
100
AcDbLine
 10
2039.499228297037
 20
1318.000148463894
 30
0.0
 11
2039.499228297037
 21
2109.000148463893
 31
0.0
  0
LINE
  5
161
330
1F
100
AcDbEntity
  8
0-3_仕上げ
  6
Continuous
 62
     7
370
     9
100
AcDbLine
 10
2321.999228297046
 20
1238.000148463894
 30
0.0
 11
2321.999228297046
 21
3522.000148463893
 31
0.0
  0
LINE
  5
162
330
1F
100
AcDbEntity
  8
0-3_仕上げ
  6
Continuous
 62
     7
370
     9
100
AcDbLine
 10
2385.999228297042
 20
1238.000148463894
 30
0.0
 11
2385.999228297042
 21
3522.000148463893
 31
0.0
  0
LINE
  5
163
330
1F
100
AcDbEntity
  8
0-3_仕上げ
  6
Continuous
 62
     7
370
     9
100
AcDbLine
 10
2672.499228297048
 20
2193.000148463894
 30
0.0
 11
2668.499228297052
 21
2197.000148463893
 31
0.0
  0
LINE
  5
164
330
1F
100
AcDbEntity
  8
0-3_仕上げ
  6
Continuous
 62
     7
370
     9
100
AcDbLine
 10
2672.499228297048
 20
2113.000148463893
 30
0.0
 11
2668.499228297052
 21
2109.000148463893
 31
0.0
  0
LINE
  5
165
330
1F
100
AcDbEntity
  8
0-3_仕上げ
  6
Continuous
 62
     7
370
     9
100
AcDbLine
 10
2672.499228297048
 20
1238.000148463894
 30
0.0
 11
2672.499228297048
 21
3522.000148463893
 31
0.0
  0
LINE
  5
166
330
1F
100
AcDbEntity
  8
0-3_仕上げ
  6
Continuous
 62
     7
370
     9
100
AcDbLine
 10
2672.499228297048
 20
3446.000148463894
 30
0.0
 11
2668.499228297052
 21
3442.000148463894
 31
0.0
  0
LINE
  5
167
330
1F
100
AcDbEntity
  8
0-3_仕上げ
  6
Continuous
 62
    92
370
    13
100
AcDbLine
 10
2668.499228297052
 20
2197.000148463893
 30
0.0
 11
2668.499228297052
 21
3442.000148463894
 31
0.0
  0
LINE
  5
168
330
1F
100
AcDbEntity
  8
0-3_仕上げ
  6
Continuous
 62
     7
370
     9
100
AcDbLine
 10
2672.499228297048
 20
1314.000148463893
 30
0.0
 11
2668.499228297052
 21
1318.000148463894
 31
0.0
  0
LINE
  5
169
330
1F
100
AcDbEntity
  8
0-3_仕上げ
  6
Continuous
 62
    92
370
    13
100
AcDbLine
 10
2668.499228297052
 20
1318.000148463894
 30
0.0
 11
2668.499228297052
 21
2109.000148463893
 31
0.0
  0
LINE
  5
16A
330
1F
100
AcDbEntity
  8
0-3_仕上げ
  6
Continuous
 62
     7
370
     9
100
AcDbLine
 10
2258.999228297035
 20
2197.000148463893
 30
0.0
 11
2262.999228297059
 21
2193.000148463894
 31
0.0
  0
LINE
  5
16B
330
1F
100
AcDbEntity
  8
0-3_仕上げ
  6
Continuous
 62
     7
370
     9
100
AcDbLine
 10
2262.999228297059
 20
2113.000148463893
 30
0.0
 11
2258.999228297035
 21
2109.000148463893
 31
0.0
  0
LINE
  5
16C
330
1F
100
AcDbEntity
  8
0-3_仕上げ
  6
Continuous
 62
     7
370
     9
100
AcDbLine
 10
2262.999228297059
 20
1238.000148463894
 30
0.0
 11
2262.999228297059
 21
3522.000148463893
 31
0.0
  0
LINE
  5
16D
330
1F
100
AcDbEntity
  8
0-3_仕上げ
  6
Continuous
 62
     7
370
     9
100
AcDbLine
 10
2262.999228297059
 20
3446.000148463894
 30
0.0
 11
2258.999228297035
 21
3442.000148463894
 31
0.0
  0
LINE
  5
16E
330
1F
100
AcDbEntity
  8
0-3_仕上げ
  6
Continuous
 62
    92
370
    13
100
AcDbLine
 10
2258.999228297035
 20
2197.000148463893
 30
0.0
 11
2258.999228297035
 21
3442.000148463894
 31
0.0
  0
LINE
  5
16F
330
1F
100
AcDbEntity
  8
0-3_仕上げ
  6
Continuous
 62
     7
370
     9
100
AcDbLine
 10
2258.999228297035
 20
1318.000148463894
 30
0.0
 11
2262.999228297059
 21
1314.000148463893
 31
0.0
  0
LINE
  5
170
330
1F
100
AcDbEntity
  8
0-3_仕上げ
  6
Continuous
 62
    92
370
    13
100
AcDbLine
 10
2258.999228297035
 20
1318.000148463894
 30
0.0
 11
2258.999228297035
 21
2109.000148463893
 31
0.0
  0
LINE
  5
171
330
1F
100
AcDbEntity
  8
0-3_仕上げ
  6
Continuous
 62
     7
370
     9
100
AcDbLine
 10
2448.999228297053
 20
2197.000148463893
 30
0.0
 11
2444.999228297057
 21
2193.000148463894
 31
0.0
  0
LINE
  5
172
330
1F
100
AcDbEntity
  8
0-3_仕上げ
  6
Continuous
 62
     7
370
     9
100
AcDbLine
 10
2444.999228297057
 20
2113.000148463893
 30
0.0
 11
2448.999228297053
 21
2109.000148463893
 31
0.0
  0
LINE
  5
173
330
1F
100
AcDbEntity
  8
0-3_仕上げ
  6
Continuous
 62
     7
370
     9
100
AcDbLine
 10
2444.999228297057
 20
1238.000148463894
 30
0.0
 11
2444.999228297057
 21
3522.000148463893
 31
0.0
  0
LINE
  5
174
330
1F
100
AcDbEntity
  8
0-3_仕上げ
  6
Continuous
 62
     7
370
     9
100
AcDbLine
 10
2444.999228297057
 20
3446.000148463894
 30
0.0
 11
2448.999228297053
 21
3442.000148463894
 31
0.0
  0
LINE
  5
175
330
1F
100
AcDbEntity
  8
0-3_仕上げ
  6
Continuous
 62
    92
370
    13
100
AcDbLine
 10
2448.999228297053
 20
2197.000148463893
 30
0.0
 11
2448.999228297053
 21
3442.000148463894
 31
0.0
  0
LINE
  5
176
330
1F
100
AcDbEntity
  8
0-3_仕上げ
  6
Continuous
 62
     7
370
     9
100
AcDbLine
 10
2448.999228297053
 20
1318.000148463894
 30
0.0
 11
2444.999228297057
 21
1314.000148463893
 31
0.0
  0
LINE
  5
177
330
1F
100
AcDbEntity
  8
0-3_仕上げ
  6
Continuous
 62
     7
370
     9
100
AcDbLine
 10
2262.999228297059
 20
3446.000148463894
 30
0.0
 11
2035.499228297041
 21
3446.000148463894
 31
0.0
  0
LINE
  5
178
330
1F
100
AcDbEntity
  8
0-3_仕上げ
  6
Continuous
 62
    92
370
    13
100
AcDbLine
 10
2258.999228297035
 20
3442.000148463894
 30
0.0
 11
2039.499228297037
 21
3442.000148463894
 31
0.0
  0
LINE
  5
179
330
1F
100
AcDbEntity
  8
0-3_仕上げ
  6
Continuous
 62
     7
370
     9
100
AcDbLine
 10
2035.499228297041
 20
1314.000148463893
 30
0.0
 11
2262.999228297059
 21
1314.000148463893
 31
0.0
  0
LINE
  5
17A
330
1F
100
AcDbEntity
  8
0-3_仕上げ
  6
Continuous
 62
    92
370
    13
100
AcDbLine
 10
2039.499228297037
 20
1318.000148463894
 30
0.0
 11
2258.999228297035
 21
1318.000148463894
 31
0.0
  0
LINE
  5
17B
330
1F
100
AcDbEntity
  8
0-3_仕上げ
  6
Continuous
 62
     7
370
     9
100
AcDbLine
 10
2035.499228297041
 20
2193.000148463894
 30
0.0
 11
2262.999228297059
 21
2193.000148463894
 31
0.0
  0
LINE
  5
17C
330
1F
100
AcDbEntity
  8
0-3_仕上げ
  6
Continuous
 62
    92
370
    13
100
AcDbLine
 10
2039.499228297037
 20
2197.000148463893
 30
0.0
 11
2258.999228297035
 21
2197.000148463893
 31
0.0
  0
LINE
  5
17D
330
1F
100
AcDbEntity
  8
0-3_仕上げ
  6
Continuous
 62
    92
370
    13
100
AcDbLine
 10
2039.499228297037
 20
2109.000148463893
 30
0.0
 11
2258.999228297035
 21
2109.000148463893
 31
0.0
  0
LINE
  5
17E
330
1F
100
AcDbEntity
  8
0-3_仕上げ
  6
Continuous
 62
     7
370
     9
100
AcDbLine
 10
2035.499228297041
 20
2113.000148463893
 30
0.0
 11
2262.999228297059
 21
2113.000148463893
 31
0.0
  0
LINE
  5
17F
330
1F
100
AcDbEntity
  8
0-3_仕上げ
  6
Continuous
 62
    92
370
    13
100
AcDbLine
 10
2668.499228297052
 20
2197.000148463893
 30
0.0
 11
2448.999228297053
 21
2197.000148463893
 31
0.0
  0
LINE
  5
180
330
1F
100
AcDbEntity
  8
0-3_仕上げ
  6
Continuous
 62
     7
370
     9
100
AcDbLine
 10
2672.499228297048
 20
2193.000148463894
 30
0.0
 11
2444.999228297057
 21
2193.000148463894
 31
0.0
  0
LINE
  5
181
330
1F
100
AcDbEntity
  8
0-3_仕上げ
  6
Continuous
 62
    92
370
    13
100
AcDbLine
 10
2668.499228297052
 20
2109.000148463893
 30
0.0
 11
2448.999228297053
 21
2109.000148463893
 31
0.0
  0
LINE
  5
182
330
1F
100
AcDbEntity
  8
0-3_仕上げ
  6
Continuous
 62
     7
370
     9
100
AcDbLine
 10
2672.499228297048
 20
2113.000148463893
 30
0.0
 11
2444.999228297057
 21
2113.000148463893
 31
0.0
  0
LINE
  5
183
330
1F
100
AcDbEntity
  8
0-3_仕上げ
  6
Continuous
 62
     7
370
     9
100
AcDbLine
 10
2826.499228297044
 20
2193.000148463894
 30
0.0
 11
2830.499228297041
 21
2197.000148463893
 31
0.0
  0
LINE
  5
184
330
1F
100
AcDbEntity
  8
0-3_仕上げ
  6
Continuous
 62
     7
370
     9
100
AcDbLine
 10
2826.499228297044
 20
2113.000148463893
 30
0.0
 11
2830.499228297041
 21
2109.000148463893
 31
0.0
  0
LINE
  5
185
330
1F
100
AcDbEntity
  8
0-3_仕上げ
  6
Continuous
 62
     7
370
     9
100
AcDbLine
 10
2826.499228297044
 20
1238.000148463894
 30
0.0
 11
2826.499228297044
 21
3522.000148463893
 31
0.0
  0
LINE
  5
186
330
1F
100
AcDbEntity
  8
0-3_仕上げ
  6
Continuous
 62
     7
370
     9
100
AcDbLine
 10
2826.499228297044
 20
3446.000148463894
 30
0.0
 11
2830.499228297041
 21
3442.000148463894
 31
0.0
  0
LINE
  5
187
330
1F
100
AcDbEntity
  8
0-3_仕上げ
  6
Continuous
 62
    92
370
    13
100
AcDbLine
 10
2830.499228297041
 20
2197.000148463893
 30
0.0
 11
2830.499228297041
 21
3442.000148463894
 31
0.0
  0
LINE
  5
188
330
1F
100
AcDbEntity
  8
0-3_仕上げ
  6
Continuous
 62
     7
370
     9
100
AcDbLine
 10
2826.499228297044
 20
1314.000148463893
 30
0.0
 11
2830.499228297041
 21
1318.000148463894
 31
0.0
  0
LINE
  5
189
330
1F
100
AcDbEntity
  8
0-3_仕上げ
  6
Continuous
 62
    92
370
    13
100
AcDbLine
 10
2830.499228297041
 20
1318.000148463894
 30
0.0
 11
2830.499228297041
 21
2109.000148463893
 31
0.0
  0
LINE
  5
18A
330
1F
100
AcDbEntity
  8
0-3_仕上げ
  6
Continuous
 62
     7
370
     9
100
AcDbLine
 10
3112.99922829705
 20
1238.000148463894
 30
0.0
 11
3112.99922829705
 21
3522.000148463893
 31
0.0
  0
LINE
  5
18B
330
1F
100
AcDbEntity
  8
0-3_仕上げ
  6
Continuous
 62
     7
370
     9
100
AcDbLine
 10
3176.999228297046
 20
1238.000148463894
 30
0.0
 11
3176.999228297046
 21
3522.000148463893
 31
0.0
  0
LINE
  5
18C
330
1F
100
AcDbEntity
  8
0-3_仕上げ
  6
Continuous
 62
     7
370
     9
100
AcDbLine
 10
3463.499228297052
 20
2193.000148463894
 30
0.0
 11
3459.499228297055
 21
2197.000148463893
 31
0.0
  0
LINE
  5
18D
330
1F
100
AcDbEntity
  8
0-3_仕上げ
  6
Continuous
 62
     7
370
     9
100
AcDbLine
 10
3463.499228297052
 20
2113.000148463893
 30
0.0
 11
3459.499228297055
 21
2109.000148463893
 31
0.0
  0
LINE
  5
18E
330
1F
100
AcDbEntity
  8
0-3_仕上げ
  6
Continuous
 62
     7
370
     9
100
AcDbLine
 10
3463.499228297052
 20
1238.000148463894
 30
0.0
 11
3463.499228297052
 21
3522.000148463893
 31
0.0
  0
LINE
  5
18F
330
1F
100
AcDbEntity
  8
0-3_仕上げ
  6
Continuous
 62
     7
370
     9
100
AcDbLine
 10
3463.499228297052
 20
3446.000148463894
 30
0.0
 11
3459.499228297055
 21
3442.000148463894
 31
0.0
  0
LINE
  5
190
330
1F
100
AcDbEntity
  8
0-3_仕上げ
  6
Continuous
 62
    92
370
    13
100
AcDbLine
 10
3459.499228297055
 20
2197.000148463893
 30
0.0
 11
3459.499228297055
 21
3442.000148463894
 31
0.0
  0
LINE
  5
191
330
1F
100
AcDbEntity
  8
0-3_仕上げ
  6
Continuous
 62
     7
370
     9
100
AcDbLine
 10
3463.499228297052
 20
1314.000148463893
 30
0.0
 11
3459.499228297055
 21
1318.000148463894
 31
0.0
  0
LINE
  5
192
330
1F
100
AcDbEntity
  8
0-3_仕上げ
  6
Continuous
 62
    92
370
    13
100
AcDbLine
 10
3459.499228297055
 20
1318.000148463894
 30
0.0
 11
3459.499228297055
 21
2109.000148463893
 31
0.0
  0
LINE
  5
193
330
1F
100
AcDbEntity
  8
0-3_仕上げ
  6
Continuous
 62
     7
370
     9
100
AcDbLine
 10
3049.999228297039
 20
2197.000148463893
 30
0.0
 11
3053.999228297035
 21
2193.000148463894
 31
0.0
  0
LINE
  5
194
330
1F
100
AcDbEntity
  8
0-3_仕上げ
  6
Continuous
 62
     7
370
     9
100
AcDbLine
 10
3053.999228297035
 20
2113.000148463893
 30
0.0
 11
3049.999228297039
 21
2109.000148463893
 31
0.0
  0
LINE
  5
195
330
1F
100
AcDbEntity
  8
0-3_仕上げ
  6
Continuous
 62
     7
370
     9
100
AcDbLine
 10
3053.999228297035
 20
1238.000148463894
 30
0.0
 11
3053.999228297035
 21
3522.000148463893
 31
0.0
  0
LINE
  5
196
330
1F
100
AcDbEntity
  8
0-3_仕上げ
  6
Continuous
 62
     7
370
     9
100
AcDbLine
 10
3053.999228297035
 20
3446.000148463894
 30
0.0
 11
3049.999228297039
 21
3442.000148463894
 31
0.0
  0
LINE
  5
197
330
1F
100
AcDbEntity
  8
0-3_仕上げ
  6
Continuous
 62
    92
370
    13
100
AcDbLine
 10
3049.999228297039
 20
2197.000148463893
 30
0.0
 11
3049.999228297039
 21
3442.000148463894
 31
0.0
  0
LINE
  5
198
330
1F
100
AcDbEntity
  8
0-3_仕上げ
  6
Continuous
 62
     7
370
     9
100
AcDbLine
 10
3049.999228297039
 20
1318.000148463894
 30
0.0
 11
3053.999228297035
 21
1314.000148463893
 31
0.0
  0
LINE
  5
199
330
1F
100
AcDbEntity
  8
0-3_仕上げ
  6
Continuous
 62
    92
370
    13
100
AcDbLine
 10
3049.999228297039
 20
1318.000148463894
 30
0.0
 11
3049.999228297039
 21
2109.000148463893
 31
0.0
  0
LINE
  5
19A
330
1F
100
AcDbEntity
  8
0-3_仕上げ
  6
Continuous
 62
     7
370
     9
100
AcDbLine
 10
3239.999228297057
 20
2197.000148463893
 30
0.0
 11
3235.999228297033
 21
2193.000148463894
 31
0.0
  0
LINE
  5
19B
330
1F
100
AcDbEntity
  8
0-3_仕上げ
  6
Continuous
 62
     7
370
     9
100
AcDbLine
 10
3235.999228297033
 20
2113.000148463893
 30
0.0
 11
3239.999228297057
 21
2109.000148463893
 31
0.0
  0
LINE
  5
19C
330
1F
100
AcDbEntity
  8
0-3_仕上げ
  6
Continuous
 62
     7
370
     9
100
AcDbLine
 10
3235.999228297033
 20
1238.000148463894
 30
0.0
 11
3235.999228297033
 21
3522.000148463893
 31
0.0
  0
LINE
  5
19D
330
1F
100
AcDbEntity
  8
0-3_仕上げ
  6
Continuous
 62
     7
370
     9
100
AcDbLine
 10
3235.999228297033
 20
3446.000148463894
 30
0.0
 11
3239.999228297057
 21
3442.000148463894
 31
0.0
  0
LINE
  5
19E
330
1F
100
AcDbEntity
  8
0-3_仕上げ
  6
Continuous
 62
    92
370
    13
100
AcDbLine
 10
3239.999228297057
 20
2197.000148463893
 30
0.0
 11
3239.999228297057
 21
3442.000148463894
 31
0.0
  0
LINE
  5
19F
330
1F
100
AcDbEntity
  8
0-3_仕上げ
  6
Continuous
 62
     7
370
     9
100
AcDbLine
 10
3239.999228297057
 20
1318.000148463894
 30
0.0
 11
3235.999228297033
 21
1314.000148463893
 31
0.0
  0
LINE
  5
1A0
330
1F
100
AcDbEntity
  8
0-3_仕上げ
  6
Continuous
 62
    92
370
    13
100
AcDbLine
 10
3239.999228297057
 20
1318.000148463894
 30
0.0
 11
3239.999228297057
 21
2109.000148463893
 31
0.0
  0
LINE
  5
1A1
330
1F
100
AcDbEntity
  8
0-3_仕上げ
  6
Continuous
 62
     7
370
     9
100
AcDbLine
 10
3053.999228297035
 20
3446.000148463894
 30
0.0
 11
2826.499228297044
 21
3446.000148463894
 31
0.0
  0
LINE
  5
1A2
330
1F
100
AcDbEntity
  8
0-3_仕上げ
  6
Continuous
 62
    92
370
    13
100
AcDbLine
 10
3049.999228297039
 20
3442.000148463894
 30
0.0
 11
2830.499228297041
 21
3442.000148463894
 31
0.0
  0
LINE
  5
1A3
330
1F
100
AcDbEntity
  8
0-3_仕上げ
  6
Continuous
 62
     7
370
     9
100
AcDbLine
 10
2826.499228297044
 20
1314.000148463893
 30
0.0
 11
3053.999228297035
 21
1314.000148463893
 31
0.0
  0
LINE
  5
1A4
330
1F
100
AcDbEntity
  8
0-3_仕上げ
  6
Continuous
 62
    92
370
    13
100
AcDbLine
 10
2830.499228297041
 20
1318.000148463894
 30
0.0
 11
3049.999228297039
 21
1318.000148463894
 31
0.0
  0
LINE
  5
1A5
330
1F
100
AcDbEntity
  8
0-3_仕上げ
  6
Continuous
 62
     7
370
     9
100
AcDbLine
 10
2826.499228297044
 20
2193.000148463894
 30
0.0
 11
3053.999228297035
 21
2193.000148463894
 31
0.0
  0
LINE
  5
1A6
330
1F
100
AcDbEntity
  8
0-3_仕上げ
  6
Continuous
 62
    92
370
    13
100
AcDbLine
 10
2830.499228297041
 20
2197.000148463893
 30
0.0
 11
3049.999228297039
 21
2197.000148463893
 31
0.0
  0
LINE
  5
1A7
330
1F
100
AcDbEntity
  8
0-3_仕上げ
  6
Continuous
 62
    92
370
    13
100
AcDbLine
 10
2830.499228297041
 20
2109.000148463893
 30
0.0
 11
3049.999228297039
 21
2109.000148463893
 31
0.0
  0
LINE
  5
1A8
330
1F
100
AcDbEntity
  8
0-3_仕上げ
  6
Continuous
 62
     7
370
     9
100
AcDbLine
 10
2826.499228297044
 20
2113.000148463893
 30
0.0
 11
3053.999228297035
 21
2113.000148463893
 31
0.0
  0
LINE
  5
1A9
330
1F
100
AcDbEntity
  8
0-3_仕上げ
  6
Continuous
 62
    92
370
    13
100
AcDbLine
 10
3459.499228297055
 20
2197.000148463893
 30
0.0
 11
3239.999228297057
 21
2197.000148463893
 31
0.0
  0
LINE
  5
1AA
330
1F
100
AcDbEntity
  8
0-3_仕上げ
  6
Continuous
 62
     7
370
     9
100
AcDbLine
 10
3463.499228297052
 20
2193.000148463894
 30
0.0
 11
3235.999228297033
 21
2193.000148463894
 31
0.0
  0
LINE
  5
1AB
330
1F
100
AcDbEntity
  8
0-3_仕上げ
  6
Continuous
 62
    92
370
    13
100
AcDbLine
 10
3459.499228297055
 20
2109.000148463893
 30
0.0
 11
3239.999228297057
 21
2109.000148463893
 31
0.0
  0
LINE
  5
1AC
330
1F
100
AcDbEntity
  8
0-3_仕上げ
  6
Continuous
 62
     7
370
     9
100
AcDbLine
 10
3463.499228297052
 20
2113.000148463893
 30
0.0
 11
3235.999228297033
 21
2113.000148463893
 31
0.0
  0
LINE
  5
1AD
330
1F
100
AcDbEntity
  8
0-1_通り芯
  6
JWW_CENTER1
 62
   120
370
     5
100
AcDbLine
 10
2086.749228297045
 20
2141.000148463893
 30
0.0
 11
2211.749228297046
 21
2141.000148463893
 31
0.0
  0
LINE
  5
1AE
330
1F
100
AcDbEntity
  8
0-1_通り芯
  6
JWW_CENTER1
 62
   120
370
     5
100
AcDbLine
 10
2149.249228297044
 20
2157.500148463893
 30
0.0
 11
2149.249228297044
 21
2124.500148463893
 31
0.0
  0
LINE
  5
1AF
330
1F
100
AcDbEntity
  8
0-1_通り芯
  6
JWW_CENTER1
 62
   120
370
     5
100
AcDbLine
 10
2496.249228297042
 20
2141.000148463893
 30
0.0
 11
2621.249228297043
 21
2141.000148463893
 31
0.0
  0
LINE
  5
1B0
330
1F
100
AcDbEntity
  8
0-1_通り芯
  6
JWW_CENTER1
 62
   120
370
     5
100
AcDbLine
 10
2558.749228297042
 20
2157.500148463893
 30
0.0
 11
2558.749228297042
 21
2124.500148463893
 31
0.0
  0
LINE
  5
1B1
330
1F
100
AcDbEntity
  8
0-1_通り芯
  6
JWW_CENTER1
 62
   120
370
     5
100
AcDbLine
 10
2877.74922829703
 20
2141.000148463893
 30
0.0
 11
3002.749228297031
 21
2141.000148463893
 31
0.0
  0
LINE
  5
1B2
330
1F
100
AcDbEntity
  8
0-1_通り芯
  6
JWW_CENTER1
 62
   120
370
     5
100
AcDbLine
 10
2940.249228297029
 20
2157.500148463893
 30
0.0
 11
2940.249228297029
 21
2124.500148463893
 31
0.0
  0
LINE
  5
1B3
330
1F
100
AcDbEntity
  8
0-1_通り芯
  6
JWW_CENTER1
 62
   120
370
     5
100
AcDbLine
 10
3287.249228297039
 20
2141.000148463893
 30
0.0
 11
3412.249228297039
 21
2141.000148463893
 31
0.0
  0
LINE
  5
1B4
330
1F
100
AcDbEntity
  8
0-1_通り芯
  6
JWW_CENTER1
 62
   120
370
     5
100
AcDbLine
 10
3349.749228297038
 20
2157.500148463893
 30
0.0
 11
3349.749228297038
 21
2124.500148463893
 31
0.0
  0
LINE
  5
1B5
330
1F
100
AcDbEntity
  8
0-3_仕上げ
  6
Continuous
 62
    92
370
    13
100
AcDbLine
 10
2668.499228297052
 20
1318.000148463894
 30
0.0
 11
2448.999228297053
 21
1318.000148463894
 31
0.0
  0
LINE
  5
1B6
330
1F
100
AcDbEntity
  8
0-3_仕上げ
  6
Continuous
 62
    92
370
    13
100
AcDbLine
 10
2448.999228297053
 20
1318.000148463894
 30
0.0
 11
2448.999228297053
 21
2109.000148463893
 31
0.0
  0
LINE
  5
1B7
330
1F
100
AcDbEntity
  8
0-3_仕上げ
  6
Continuous
 62
     7
370
     9
100
AcDbLine
 10
2672.499228297048
 20
1314.000148463893
 30
0.0
 11
2444.999228297057
 21
1314.000148463893
 31
0.0
  0
LINE
  5
1B8
330
1F
100
AcDbEntity
  8
0-3_仕上げ
  6
Continuous
 62
     7
370
     9
100
AcDbLine
 10
3235.999228297033
 20
3446.000148463894
 30
0.0
 11
3463.499228297052
 21
3446.000148463894
 31
0.0
  0
LINE
  5
1B9
330
1F
100
AcDbEntity
  8
0-3_仕上げ
  6
Continuous
 62
    92
370
    13
100
AcDbLine
 10
3239.999228297057
 20
3442.000148463894
 30
0.0
 11
3459.499228297055
 21
3442.000148463894
 31
0.0
  0
LINE
  5
1BA
330
1F
100
AcDbEntity
  8
0-3_仕上げ
  6
Continuous
 62
     7
370
     9
100
AcDbLine
 10
3463.499228297052
 20
1314.000148463893
 30
0.0
 11
3235.999228297033
 21
1314.000148463893
 31
0.0
  0
LINE
  5
1BB
330
1F
100
AcDbEntity
  8
0-3_仕上げ
  6
Continuous
 62
    92
370
    13
100
AcDbLine
 10
3459.499228297055
 20
1318.000148463894
 30
0.0
 11
3239.999228297057
 21
1318.000148463894
 31
0.0
  0
LINE
  5
1BC
330
1F
100
AcDbEntity
  8
0-3_仕上げ
  6
Continuous
 62
     7
370
     9
100
AcDbLine
 10
2444.999228297057
 20
3446.000148463894
 30
0.0
 11
2672.499228297048
 21
3446.000148463894
 31
0.0
  0
LINE
  5
1BD
330
1F
100
AcDbEntity
  8
0-3_仕上げ
  6
Continuous
 62
    92
370
    13
100
AcDbLine
 10
2448.999228297053
 20
3442.000148463894
 30
0.0
 11
2668.499228297052
 21
3442.000148463894
 31
0.0
  0
LINE
  5
1BE
330
1F
100
AcDbEntity
  8
0-2_扉
  6
Continuous
 62
    92
370
    13
100
AcDbLine
 10
3541.499228297052
 20
3522.000148463893
 30
0.0
 11
3541.499228297052
 21
1238.000148463894
 31
0.0
  0
LINE
  5
1BF
330
1F
100
AcDbEntity
  8
0-2_扉
  6
Continuous
 62
    92
370
    13
100
AcDbLine
 10
3541.499228297052
 20
1238.000148463894
 30
0.0
 11
3935.499228297052
 21
1238.000148463894
 31
0.0
  0
LINE
  5
1C0
330
1F
100
AcDbEntity
  8
0-2_扉
  6
Continuous
 62
    92
370
    13
100
AcDbLine
 10
3541.499228297052
 20
3522.000148463893
 30
0.0
 11
3935.499228297052
 21
3522.000148463893
 31
0.0
  0
LINE
  5
1C1
330
1F
100
AcDbEntity
  8
0-2_扉
  6
Continuous
 62
    92
370
    13
100
AcDbLine
 10
3936.499228297052
 20
1238.000148463894
 30
0.0
 11
3936.499228297052
 21
3522.000148463893
 31
0.0
  0
LINE
  5
1C2
330
1F
100
AcDbEntity
  8
0-2_扉
  6
Continuous
 62
    92
370
    13
100
AcDbLine
 10
3935.499228297052
 20
1238.000148463894
 30
0.0
 11
3935.499228297052
 21
3522.000148463893
 31
0.0
  0
LINE
  5
1C3
330
1F
100
AcDbEntity
  8
0-2_扉
  6
Continuous
 62
    92
370
    13
100
AcDbLine
 10
3936.499228297052
 20
1238.000148463894
 30
0.0
 11
4330.499228297052
 21
1238.000148463894
 31
0.0
  0
LINE
  5
1C4
330
1F
100
AcDbEntity
  8
0-2_扉
  6
Continuous
 62
    92
370
    13
100
AcDbLine
 10
3936.499228297052
 20
3522.000148463893
 30
0.0
 11
4330.499228297052
 21
3522.000148463893
 31
0.0
  0
LINE
  5
1C5
330
1F
100
AcDbEntity
  8
0-2_扉
  6
Continuous
 62
    92
370
    13
100
AcDbLine
 10
4330.499228297052
 20
1238.000148463894
 30
0.0
 11
4330.499228297052
 21
3522.000148463893
 31
0.0
  0
LINE
  5
1C6
330
1F
100
AcDbEntity
  8
0-3_仕上げ
  6
Continuous
 62
     7
370
     9
100
AcDbLine
 10
3617.499228297042
 20
2193.000148463894
 30
0.0
 11
3621.499228297039
 21
2197.000148463893
 31
0.0
  0
LINE
  5
1C7
330
1F
100
AcDbEntity
  8
0-3_仕上げ
  6
Continuous
 62
     7
370
     9
100
AcDbLine
 10
3617.499228297042
 20
2113.000148463893
 30
0.0
 11
3621.499228297039
 21
2109.000148463893
 31
0.0
  0
LINE
  5
1C8
330
1F
100
AcDbEntity
  8
0-3_仕上げ
  6
Continuous
 62
     7
370
     9
100
AcDbLine
 10
3617.499228297042
 20
1238.000148463894
 30
0.0
 11
3617.499228297042
 21
3522.000148463893
 31
0.0
  0
LINE
  5
1C9
330
1F
100
AcDbEntity
  8
0-3_仕上げ
  6
Continuous
 62
     7
370
     9
100
AcDbLine
 10
3617.499228297042
 20
3446.000148463894
 30
0.0
 11
3621.499228297039
 21
3442.000148463894
 31
0.0
  0
LINE
  5
1CA
330
1F
100
AcDbEntity
  8
0-3_仕上げ
  6
Continuous
 62
    92
370
    13
100
AcDbLine
 10
3621.499228297039
 20
2197.000148463893
 30
0.0
 11
3621.499228297039
 21
3442.000148463894
 31
0.0
  0
LINE
  5
1CB
330
1F
100
AcDbEntity
  8
0-3_仕上げ
  6
Continuous
 62
     7
370
     9
100
AcDbLine
 10
3617.499228297042
 20
1314.000148463893
 30
0.0
 11
3621.499228297039
 21
1318.000148463894
 31
0.0
  0
LINE
  5
1CC
330
1F
100
AcDbEntity
  8
0-3_仕上げ
  6
Continuous
 62
    92
370
    13
100
AcDbLine
 10
3621.499228297039
 20
1318.000148463894
 30
0.0
 11
3621.499228297039
 21
2109.000148463893
 31
0.0
  0
LINE
  5
1CD
330
1F
100
AcDbEntity
  8
0-3_仕上げ
  6
Continuous
 62
     7
370
     9
100
AcDbLine
 10
3903.999228297047
 20
1238.000148463894
 30
0.0
 11
3903.999228297047
 21
3522.000148463893
 31
0.0
  0
LINE
  5
1CE
330
1F
100
AcDbEntity
  8
0-3_仕上げ
  6
Continuous
 62
     7
370
     9
100
AcDbLine
 10
3967.999228297045
 20
1238.000148463894
 30
0.0
 11
3967.999228297045
 21
3522.000148463893
 31
0.0
  0
LINE
  5
1CF
330
1F
100
AcDbEntity
  8
0-3_仕上げ
  6
Continuous
 62
     7
370
     9
100
AcDbLine
 10
4254.49922829705
 20
2193.000148463894
 30
0.0
 11
4250.499228297053
 21
2197.000148463893
 31
0.0
  0
LINE
  5
1D0
330
1F
100
AcDbEntity
  8
0-3_仕上げ
  6
Continuous
 62
     7
370
     9
100
AcDbLine
 10
4254.49922829705
 20
2113.000148463893
 30
0.0
 11
4250.499228297053
 21
2109.000148463893
 31
0.0
  0
LINE
  5
1D1
330
1F
100
AcDbEntity
  8
0-3_仕上げ
  6
Continuous
 62
     7
370
     9
100
AcDbLine
 10
4254.49922829705
 20
1238.000148463894
 30
0.0
 11
4254.49922829705
 21
3522.000148463893
 31
0.0
  0
LINE
  5
1D2
330
1F
100
AcDbEntity
  8
0-3_仕上げ
  6
Continuous
 62
     7
370
     9
100
AcDbLine
 10
4254.49922829705
 20
3446.000148463894
 30
0.0
 11
4250.499228297053
 21
3442.000148463894
 31
0.0
  0
LINE
  5
1D3
330
1F
100
AcDbEntity
  8
0-3_仕上げ
  6
Continuous
 62
    92
370
    13
100
AcDbLine
 10
4250.499228297053
 20
2197.000148463893
 30
0.0
 11
4250.499228297053
 21
3442.000148463894
 31
0.0
  0
LINE
  5
1D4
330
1F
100
AcDbEntity
  8
0-3_仕上げ
  6
Continuous
 62
     7
370
     9
100
AcDbLine
 10
4254.49922829705
 20
1314.000148463893
 30
0.0
 11
4250.499228297053
 21
1318.000148463894
 31
0.0
  0
LINE
  5
1D5
330
1F
100
AcDbEntity
  8
0-3_仕上げ
  6
Continuous
 62
    92
370
    13
100
AcDbLine
 10
4250.499228297053
 20
1318.000148463894
 30
0.0
 11
4250.499228297053
 21
2109.000148463893
 31
0.0
  0
LINE
  5
1D6
330
1F
100
AcDbEntity
  8
0-3_仕上げ
  6
Continuous
 62
     7
370
     9
100
AcDbLine
 10
3840.999228297037
 20
2197.000148463893
 30
0.0
 11
3844.999228297033
 21
2193.000148463894
 31
0.0
  0
LINE
  5
1D7
330
1F
100
AcDbEntity
  8
0-3_仕上げ
  6
Continuous
 62
     7
370
     9
100
AcDbLine
 10
3844.999228297033
 20
2113.000148463893
 30
0.0
 11
3840.999228297037
 21
2109.000148463893
 31
0.0
  0
LINE
  5
1D8
330
1F
100
AcDbEntity
  8
0-3_仕上げ
  6
Continuous
 62
     7
370
     9
100
AcDbLine
 10
3844.999228297033
 20
1238.000148463894
 30
0.0
 11
3844.999228297033
 21
3522.000148463893
 31
0.0
  0
LINE
  5
1D9
330
1F
100
AcDbEntity
  8
0-3_仕上げ
  6
Continuous
 62
     7
370
     9
100
AcDbLine
 10
3844.999228297033
 20
3446.000148463894
 30
0.0
 11
3840.999228297037
 21
3442.000148463894
 31
0.0
  0
LINE
  5
1DA
330
1F
100
AcDbEntity
  8
0-3_仕上げ
  6
Continuous
 62
    92
370
    13
100
AcDbLine
 10
3840.999228297037
 20
2197.000148463893
 30
0.0
 11
3840.999228297037
 21
3442.000148463894
 31
0.0
  0
LINE
  5
1DB
330
1F
100
AcDbEntity
  8
0-3_仕上げ
  6
Continuous
 62
     7
370
     9
100
AcDbLine
 10
3840.999228297037
 20
1318.000148463894
 30
0.0
 11
3844.999228297033
 21
1314.000148463893
 31
0.0
  0
LINE
  5
1DC
330
1F
100
AcDbEntity
  8
0-3_仕上げ
  6
Continuous
 62
    92
370
    13
100
AcDbLine
 10
3840.999228297037
 20
1318.000148463894
 30
0.0
 11
3840.999228297037
 21
2109.000148463893
 31
0.0
  0
LINE
  5
1DD
330
1F
100
AcDbEntity
  8
0-3_仕上げ
  6
Continuous
 62
     7
370
     9
100
AcDbLine
 10
4030.999228297056
 20
2197.000148463893
 30
0.0
 11
4026.999228297032
 21
2193.000148463894
 31
0.0
  0
LINE
  5
1DE
330
1F
100
AcDbEntity
  8
0-3_仕上げ
  6
Continuous
 62
     7
370
     9
100
AcDbLine
 10
4026.999228297032
 20
2113.000148463893
 30
0.0
 11
4030.999228297056
 21
2109.000148463893
 31
0.0
  0
LINE
  5
1DF
330
1F
100
AcDbEntity
  8
0-3_仕上げ
  6
Continuous
 62
     7
370
     9
100
AcDbLine
 10
4026.999228297032
 20
1238.000148463894
 30
0.0
 11
4026.999228297032
 21
3522.000148463893
 31
0.0
  0
LINE
  5
1E0
330
1F
100
AcDbEntity
  8
0-3_仕上げ
  6
Continuous
 62
     7
370
     9
100
AcDbLine
 10
4026.999228297032
 20
3446.000148463894
 30
0.0
 11
4030.999228297056
 21
3442.000148463894
 31
0.0
  0
LINE
  5
1E1
330
1F
100
AcDbEntity
  8
0-3_仕上げ
  6
Continuous
 62
    92
370
    13
100
AcDbLine
 10
4030.999228297056
 20
2197.000148463893
 30
0.0
 11
4030.999228297056
 21
3442.000148463894
 31
0.0
  0
LINE
  5
1E2
330
1F
100
AcDbEntity
  8
0-3_仕上げ
  6
Continuous
 62
     7
370
     9
100
AcDbLine
 10
4030.999228297056
 20
1318.000148463894
 30
0.0
 11
4026.999228297032
 21
1314.000148463893
 31
0.0
  0
LINE
  5
1E3
330
1F
100
AcDbEntity
  8
0-3_仕上げ
  6
Continuous
 62
    92
370
    13
100
AcDbLine
 10
4030.999228297056
 20
1318.000148463894
 30
0.0
 11
4030.999228297056
 21
2109.000148463893
 31
0.0
  0
LINE
  5
1E4
330
1F
100
AcDbEntity
  8
0-3_仕上げ
  6
Continuous
 62
     7
370
     9
100
AcDbLine
 10
3844.999228297033
 20
3446.000148463894
 30
0.0
 11
3617.499228297042
 21
3446.000148463894
 31
0.0
  0
LINE
  5
1E5
330
1F
100
AcDbEntity
  8
0-3_仕上げ
  6
Continuous
 62
    92
370
    13
100
AcDbLine
 10
3840.999228297037
 20
3442.000148463894
 30
0.0
 11
3621.499228297039
 21
3442.000148463894
 31
0.0
  0
LINE
  5
1E6
330
1F
100
AcDbEntity
  8
0-3_仕上げ
  6
Continuous
 62
     7
370
     9
100
AcDbLine
 10
3617.499228297042
 20
1314.000148463893
 30
0.0
 11
3844.999228297033
 21
1314.000148463893
 31
0.0
  0
LINE
  5
1E7
330
1F
100
AcDbEntity
  8
0-3_仕上げ
  6
Continuous
 62
    92
370
    13
100
AcDbLine
 10
3621.499228297039
 20
1318.000148463894
 30
0.0
 11
3840.999228297037
 21
1318.000148463894
 31
0.0
  0
LINE
  5
1E8
330
1F
100
AcDbEntity
  8
0-3_仕上げ
  6
Continuous
 62
     7
370
     9
100
AcDbLine
 10
3617.499228297042
 20
2193.000148463894
 30
0.0
 11
3844.999228297033
 21
2193.000148463894
 31
0.0
  0
LINE
  5
1E9
330
1F
100
AcDbEntity
  8
0-3_仕上げ
  6
Continuous
 62
    92
370
    13
100
AcDbLine
 10
3621.499228297039
 20
2197.000148463893
 30
0.0
 11
3840.999228297037
 21
2197.000148463893
 31
0.0
  0
LINE
  5
1EA
330
1F
100
AcDbEntity
  8
0-3_仕上げ
  6
Continuous
 62
    92
370
    13
100
AcDbLine
 10
3621.499228297039
 20
2109.000148463893
 30
0.0
 11
3840.999228297037
 21
2109.000148463893
 31
0.0
  0
LINE
  5
1EB
330
1F
100
AcDbEntity
  8
0-3_仕上げ
  6
Continuous
 62
     7
370
     9
100
AcDbLine
 10
3617.499228297042
 20
2113.000148463893
 30
0.0
 11
3844.999228297033
 21
2113.000148463893
 31
0.0
  0
LINE
  5
1EC
330
1F
100
AcDbEntity
  8
0-3_仕上げ
  6
Continuous
 62
    92
370
    13
100
AcDbLine
 10
4250.499228297053
 20
2197.000148463893
 30
0.0
 11
4030.999228297056
 21
2197.000148463893
 31
0.0
  0
LINE
  5
1ED
330
1F
100
AcDbEntity
  8
0-3_仕上げ
  6
Continuous
 62
     7
370
     9
100
AcDbLine
 10
4254.49922829705
 20
2193.000148463894
 30
0.0
 11
4026.999228297032
 21
2193.000148463894
 31
0.0
  0
LINE
  5
1EE
330
1F
100
AcDbEntity
  8
0-3_仕上げ
  6
Continuous
 62
    92
370
    13
100
AcDbLine
 10
4250.499228297053
 20
2109.000148463893
 30
0.0
 11
4030.999228297056
 21
2109.000148463893
 31
0.0
  0
LINE
  5
1EF
330
1F
100
AcDbEntity
  8
0-3_仕上げ
  6
Continuous
 62
     7
370
     9
100
AcDbLine
 10
4254.49922829705
 20
2113.000148463893
 30
0.0
 11
4026.999228297032
 21
2113.000148463893
 31
0.0
  0
LINE
  5
1F0
330
1F
100
AcDbEntity
  8
0-1_通り芯
  6
JWW_CENTER1
 62
   120
370
     5
100
AcDbLine
 10
3668.749228297028
 20
2141.000148463893
 30
0.0
 11
3793.749228297029
 21
2141.000148463893
 31
0.0
  0
LINE
  5
1F1
330
1F
100
AcDbEntity
  8
0-1_通り芯
  6
JWW_CENTER1
 62
   120
370
     5
100
AcDbLine
 10
3731.249228297028
 20
2157.500148463893
 30
0.0
 11
3731.249228297028
 21
2124.500148463893
 31
0.0
  0
LINE
  5
1F2
330
1F
100
AcDbEntity
  8
0-1_通り芯
  6
JWW_CENTER1
 62
   120
370
     5
100
AcDbLine
 10
4078.249228297037
 20
2141.000148463893
 30
0.0
 11
4203.249228297038
 21
2141.000148463893
 31
0.0
  0
LINE
  5
1F3
330
1F
100
AcDbEntity
  8
0-1_通り芯
  6
JWW_CENTER1
 62
   120
370
     5
100
AcDbLine
 10
4140.749228297037
 20
2157.500148463893
 30
0.0
 11
4140.749228297037
 21
2124.500148463893
 31
0.0
  0
LINE
  5
1F4
330
1F
100
AcDbEntity
  8
0-3_仕上げ
  6
Continuous
 62
     7
370
     9
100
AcDbLine
 10
4026.999228297032
 20
3446.000148463894
 30
0.0
 11
4254.49922829705
 21
3446.000148463894
 31
0.0
  0
LINE
  5
1F5
330
1F
100
AcDbEntity
  8
0-3_仕上げ
  6
Continuous
 62
    92
370
    13
100
AcDbLine
 10
4030.999228297056
 20
3442.000148463894
 30
0.0
 11
4250.499228297053
 21
3442.000148463894
 31
0.0
  0
LINE
  5
1F6
330
1F
100
AcDbEntity
  8
0-3_仕上げ
  6
Continuous
 62
     7
370
     9
100
AcDbLine
 10
4254.49922829705
 20
1314.000148463893
 30
0.0
 11
4026.999228297032
 21
1314.000148463893
 31
0.0
  0
LINE
  5
1F7
330
1F
100
AcDbEntity
  8
0-3_仕上げ
  6
Continuous
 62
    92
370
    13
100
AcDbLine
 10
4250.499228297053
 20
1318.000148463894
 30
0.0
 11
4030.999228297056
 21
1318.000148463894
 31
0.0
  0
LINE
  5
1F8
330
1F
100
AcDbEntity
  8
0-4_枠
  6
Continuous
 62
    92
370
    13
100
AcDbLine
 10
-4058.500269606306
 20
-2762.500214550947
 30
0.0
 11
-4058.500269606306
 21
-415.0002145509467
 31
0.0
  0
LINE
  5
1F9
330
1F
100
AcDbEntity
  8
0-4_枠
  6
Continuous
 62
    92
370
    13
100
AcDbLine
 10
-4028.500269606306
 20
-2762.500214550947
 30
0.0
 11
-4028.500269606306
 21
-451.0002145509468
 31
0.0
  0
LINE
  5
1FA
330
1F
100
AcDbEntity
  8
0-B_寸法
  6
Continuous
 62
   120
370
     5
100
AcDbLine
 10
-4558.500269606305
 20
-2762.500214550947
 30
0.0
 11
-4108.500269606305
 21
-2762.500214550947
 31
0.0
  0
LINE
  5
1FB
330
1F
100
AcDbEntity
  8
0-B_寸法
  6
Continuous
 62
   120
370
     5
100
AcDbLine
 10
-4058.500269606306
 20
-3462.500214550947
 30
0.0
 11
-4058.500269606306
 21
-2812.500214550947
 31
0.0
  0
LINE
  5
1FC
330
1F
100
AcDbEntity
  8
0-B_寸法
  6
Continuous
 62
   120
370
     5
100
AcDbLine
 10
-4026.000269606305
 20
-3262.500214550946
 30
0.0
 11
-4026.000269606305
 21
-2812.500214550947
 31
0.0
  0
LINE
  5
1FD
330
1F
100
AcDbEntity
  8
0-B_寸法
  6
Continuous
 62
   120
370
     5
100
AcDbLine
 10
-4558.500269606305
 20
-415.0002145509467
 30
0.0
 11
-4558.500269606305
 21
-2762.500214550947
 31
0.0
  0
LINE
  5
1FE
330
1F
100
AcDbEntity
  8
0-B_寸法
  6
Continuous
 62
   120
370
     5
100
AcDbLine
 10
-4558.500269606305
 20
-415.0002145509467
 30
0.0
 11
-4108.500269606305
 21
-415.0002145509467
 31
0.0
  0
LINE
  5
1FF
330
1F
100
AcDbEntity
  8
0-B_寸法
  6
Continuous
 62
   120
370
     5
100
AcDbLine
 10
-4358.500269606307
 20
-458.5002145509468
 30
0.0
 11
-4108.500269606305
 21
-458.5002145509468
 31
0.0
  0
LINE
  5
200
330
1F
100
AcDbEntity
  8
0-B_寸法
  6
Continuous
 62
   120
370
     5
100
AcDbLine
 10
-4358.500269606307
 20
-2742.500214550947
 30
0.0
 11
-4108.500269606305
 21
-2742.500214550947
 31
0.0
  0
LINE
  5
201
330
1F
100
AcDbEntity
  8
0-B_寸法
  6
Continuous
 62
   120
370
     5
100
AcDbLine
 10
-4358.500269606307
 20
-458.5002145509468
 30
0.0
 11
-4358.500269606307
 21
-2742.500214550947
 31
0.0
  0
LWPOLYLINE
  5
202
330
1F
100
AcDbEntity
  8
0-B_寸法
  6
Continuous
 62
     7
370
     9
100
AcDbPolyline
 90
        4
 70
     1
 43
3.0
 10
-4557.000269606305
 20
-2762.500214550947
 42
0.4142135623731
 10
-4558.500269606305
 20
-2761.000214550947
 42
0.4142135623731
 10
-4560.000269606306
 20
-2762.500214550947
 42
0.4142135623731
 10
-4558.500269606305
 20
-2764.000214550947
 42
0.4142135623731
  0
LWPOLYLINE
  5
203
330
1F
100
AcDbEntity
  8
0-B_寸法
  6
Continuous
 62
     7
370
     9
100
AcDbPolyline
 90
        4
 70
     1
 43
3.0
 10
-4057.000269606306
 20
-3462.500214550947
 42
0.4142135623731
 10
-4058.500269606306
 20
-3461.000214550947
 42
0.4142135623731
 10
-4060.000269606307
 20
-3462.500214550947
 42
0.4142135623731
 10
-4058.500269606306
 20
-3464.000214550947
 42
0.4142135623731
  0
LWPOLYLINE
  5
204
330
1F
100
AcDbEntity
  8
0-B_寸法
  6
Continuous
 62
     7
370
     9
100
AcDbPolyline
 90
        4
 70
     1
 43
3.0
 10
-4024.500269606305
 20
-3062.500214550947
 42
0.4142135623731
 10
-4026.000269606305
 20
-3061.000214550947
 42
0.4142135623731
 10
-4027.500269606306
 20
-3062.500214550947
 42
0.4142135623731
 10
-4026.000269606305
 20
-3064.000214550947
 42
0.4142135623731
  0
LWPOLYLINE
  5
205
330
1F
100
AcDbEntity
  8
0-B_寸法
  6
Continuous
 62
     7
370
     9
100
AcDbPolyline
 90
        4
 70
     1
 43
3.0
 10
-4557.000269606305
 20
-415.0002145509467
 42
0.4142135623731
 10
-4558.500269606305
 20
-413.5002145509467
 42
0.4142135623731
 10
-4560.000269606306
 20
-415.0002145509467
 42
0.4142135623731
 10
-4558.500269606305
 20
-416.5002145509467
 42
0.4142135623731
  0
LWPOLYLINE
  5
206
330
1F
100
AcDbEntity
  8
0-B_寸法
  6
Continuous
 62
     7
370
     9
100
AcDbPolyline
 90
        4
 70
     1
 43
3.0
 10
-4357.000269606306
 20
-458.5002145509468
 42
0.4142135623731
 10
-4358.500269606307
 20
-457.0002145509467
 42
0.4142135623731
 10
-4360.000269606307
 20
-458.5002145509468
 42
0.4142135623731
 10
-4358.500269606307
 20
-460.0002145509468
 42
0.4142135623731
  0
LWPOLYLINE
  5
207
330
1F
100
AcDbEntity
  8
0-B_寸法
  6
Continuous
 62
     7
370
     9
100
AcDbPolyline
 90
        4
 70
     1
 43
3.0
 10
-4357.000269606306
 20
-2742.500214550947
 42
0.4142135623731
 10
-4358.500269606307
 20
-2741.000214550947
 42
0.4142135623731
 10
-4360.000269606307
 20
-2742.500214550947
 42
0.4142135623731
 10
-4358.500269606307
 20
-2744.000214550947
 42
0.4142135623731
  0
LINE
  5
208
330
1F
100
AcDbEntity
  8
0-B_寸法
  6
Continuous
 62
   120
370
     5
100
AcDbLine
 10
-4026.000269606305
 20
-3062.500214550947
 30
0.0
 11
-3632.000269606306
 21
-3062.500214550947
 31
0.0
  0
LINE
  5
209
330
1F
100
AcDbEntity
  8
0-B_寸法
  6
Continuous
 62
   120
370
     5
100
AcDbLine
 10
-3632.000269606306
 20
-3062.500214550947
 30
0.0
 11
-3632.000269606306
 21
-2812.500214550947
 31
0.0
  0
LINE
  5
20A
330
1F
100
AcDbEntity
  8
0-B_寸法
  6
Continuous
 62
   120
370
     5
100
AcDbLine
 10
-3632.000269606306
 20
-3062.500214550947
 30
0.0
 11
-3631.000269606306
 21
-3062.500214550947
 31
0.0
  0
LINE
  5
20B
330
1F
100
AcDbEntity
  8
0-B_寸法
  6
Continuous
 62
   120
370
     5
100
AcDbLine
 10
-3631.000269606306
 20
-3062.500214550947
 30
0.0
 11
-3631.000269606306
 21
-2812.500214550947
 31
0.0
  0
LINE
  5
20C
330
1F
100
AcDbEntity
  8
0-B_寸法
  6
Continuous
 62
   120
370
     5
100
AcDbLine
 10
-3631.500269606306
 20
-3062.500214550947
 30
0.0
 11
-3596.640287971902
 21
-2932.400991940433
 31
0.0
  0
LINE
  5
20D
330
1F
100
AcDbEntity
  8
0-B_寸法
  6
Continuous
 62
   120
370
     5
100
AcDbLine
 10
-3596.640287971902
 20
-2932.400991940433
 30
0.0
 11
-3548.77002688957
 21
-2932.400991940433
 31
0.0
  0
LWPOLYLINE
  5
20E
330
1F
100
AcDbEntity
  8
0-B_寸法
  6
Continuous
 62
     7
370
     9
100
AcDbPolyline
 90
        4
 70
     1
 43
3.0
 10
-3630.500269606306
 20
-3062.500214550947
 42
0.4142135623731
 10
-3632.000269606306
 20
-3061.000214550947
 42
0.4142135623731
 10
-3633.500269606306
 20
-3062.500214550947
 42
0.4142135623731
 10
-3632.000269606306
 20
-3064.000214550947
 42
0.4142135623731
  0
LWPOLYLINE
  5
20F
330
1F
100
AcDbEntity
  8
0-B_寸法
  6
Continuous
 62
     7
370
     9
100
AcDbPolyline
 90
        4
 70
     1
 43
3.0
 10
-3629.500269606306
 20
-3062.500214550947
 42
0.4142135623731
 10
-3631.000269606306
 20
-3061.000214550947
 42
0.4142135623731
 10
-3632.500269606306
 20
-3062.500214550947
 42
0.4142135623731
 10
-3631.000269606306
 20
-3064.000214550947
 42
0.4142135623731
  0
LINE
  5
210
330
1F
100
AcDbEntity
  8
0-B_寸法
  6
Continuous
 62
   120
370
     5
100
AcDbLine
 10
-3237.000269606306
 20
-3262.500214550946
 30
0.0
 11
-3237.000269606306
 21
-2812.500214550947
 31
0.0
  0
LINE
  5
211
330
1F
100
AcDbEntity
  8
0-B_寸法
  6
Continuous
 62
   120
370
     5
100
AcDbLine
 10
-3631.000269606306
 20
-3062.500214550947
 30
0.0
 11
-3237.000269606306
 21
-3062.500214550947
 31
0.0
  0
LINE
  5
212
330
1F
100
AcDbEntity
  8
0-B_寸法
  6
Continuous
 62
   120
370
     5
100
AcDbLine
 10
-3237.000269606306
 20
-3262.500214550946
 30
0.0
 11
-3235.000269606305
 21
-3262.500214550946
 31
0.0
  0
LINE
  5
213
330
1F
100
AcDbEntity
  8
0-B_寸法
  6
Continuous
 62
   120
370
     5
100
AcDbLine
 10
-3235.000269606305
 20
-3262.500214550946
 30
0.0
 11
-3235.000269606305
 21
-2812.500214550947
 31
0.0
  0
LINE
  5
214
330
1F
100
AcDbEntity
  8
0-B_寸法
  6
Continuous
 62
   120
370
     5
100
AcDbLine
 10
-3236.000269606306
 20
-3262.500214550946
 30
0.0
 11
-3201.140287971902
 21
-3132.400991940433
 31
0.0
  0
LINE
  5
215
330
1F
100
AcDbEntity
  8
0-B_寸法
  6
Continuous
 62
   120
370
     5
100
AcDbLine
 10
-3201.140287971902
 20
-3132.400991940433
 30
0.0
 11
-3153.270026889571
 21
-3132.400991940433
 31
0.0
  0
LWPOLYLINE
  5
216
330
1F
100
AcDbEntity
  8
0-B_寸法
  6
Continuous
 62
     7
370
     9
100
AcDbPolyline
 90
        4
 70
     1
 43
3.0
 10
-3235.500269606306
 20
-3262.500214550946
 42
0.4142135623731
 10
-3237.000269606306
 20
-3261.000214550946
 42
0.4142135623731
 10
-3238.500269606306
 20
-3262.500214550946
 42
0.4142135623731
 10
-3237.000269606306
 20
-3264.000214550946
 42
0.4142135623731
  0
LWPOLYLINE
  5
217
330
1F
100
AcDbEntity
  8
0-B_寸法
  6
Continuous
 62
     7
370
     9
100
AcDbPolyline
 90
        4
 70
     1
 43
3.0
 10
-3235.500269606306
 20
-3062.500214550947
 42
0.4142135623731
 10
-3237.000269606306
 20
-3061.000214550947
 42
0.4142135623731
 10
-3238.500269606306
 20
-3062.500214550947
 42
0.4142135623731
 10
-3237.000269606306
 20
-3064.000214550947
 42
0.4142135623731
  0
LWPOLYLINE
  5
218
330
1F
100
AcDbEntity
  8
0-B_寸法
  6
Continuous
 62
     7
370
     9
100
AcDbPolyline
 90
        4
 70
     1
 43
3.0
 10
-3233.500269606306
 20
-3262.500214550946
 42
0.4142135623731
 10
-3235.000269606305
 20
-3261.000214550946
 42
0.4142135623731
 10
-3236.500269606305
 20
-3262.500214550946
 42
0.4142135623731
 10
-3235.000269606305
 20
-3264.000214550946
 42
0.4142135623731
  0
LINE
  5
219
330
1F
100
AcDbEntity
  8
0-B_寸法
  6
Continuous
 62
   120
370
     5
100
AcDbLine
 10
-3235.000269606305
 20
-3262.500214550946
 30
0.0
 11
-2446.000269606306
 21
-3262.500214550946
 31
0.0
  0
LINE
  5
21A
330
1F
100
AcDbEntity
  8
0-B_寸法
  6
Continuous
 62
   120
370
     5
100
AcDbLine
 10
-2446.000269606306
 20
-3262.500214550946
 30
0.0
 11
-2446.000269606306
 21
-2812.500214550947
 31
0.0
  0
LINE
  5
21B
330
1F
100
AcDbEntity
  8
0-B_寸法
  6
Continuous
 62
   120
370
     5
100
AcDbLine
 10
-2446.000269606306
 20
-3262.500214550946
 30
0.0
 11
-2444.000269606307
 21
-3262.500214550946
 31
0.0
  0
LINE
  5
21C
330
1F
100
AcDbEntity
  8
0-B_寸法
  6
Continuous
 62
   120
370
     5
100
AcDbLine
 10
-2444.000269606307
 20
-3262.500214550946
 30
0.0
 11
-2444.000269606307
 21
-2812.500214550947
 31
0.0
  0
LINE
  5
21D
330
1F
100
AcDbEntity
  8
0-B_寸法
  6
Continuous
 62
   120
370
     5
100
AcDbLine
 10
-2445.000269606307
 20
-3262.500214550946
 30
0.0
 11
-2410.140287971903
 21
-3132.400991940433
 31
0.0
  0
LINE
  5
21E
330
1F
100
AcDbEntity
  8
0-B_寸法
  6
Continuous
 62
   120
370
     5
100
AcDbLine
 10
-2410.140287971903
 20
-3132.400991940433
 30
0.0
 11
-2362.270026889571
 21
-3132.400991940433
 31
0.0
  0
LWPOLYLINE
  5
21F
330
1F
100
AcDbEntity
  8
0-B_寸法
  6
Continuous
 62
     7
370
     9
100
AcDbPolyline
 90
        4
 70
     1
 43
3.0
 10
-2444.500269606307
 20
-3262.500214550946
 42
0.4142135623731
 10
-2446.000269606306
 20
-3261.000214550946
 42
0.4142135623731
 10
-2447.500269606306
 20
-3262.500214550946
 42
0.4142135623731
 10
-2446.000269606306
 20
-3264.000214550946
 42
0.4142135623731
  0
LWPOLYLINE
  5
220
330
1F
100
AcDbEntity
  8
0-B_寸法
  6
Continuous
 62
     7
370
     9
100
AcDbPolyline
 90
        4
 70
     1
 43
3.0
 10
-2442.500269606307
 20
-3262.500214550946
 42
0.4142135623731
 10
-2444.000269606307
 20
-3261.000214550946
 42
0.4142135623731
 10
-2445.500269606307
 20
-3262.500214550946
 42
0.4142135623731
 10
-2444.000269606307
 20
-3264.000214550946
 42
0.4142135623731
  0
LINE
  5
221
330
1F
100
AcDbEntity
  8
0-B_寸法
  6
Continuous
 62
   120
370
     5
100
AcDbLine
 10
-2444.000269606307
 20
-3262.500214550946
 30
0.0
 11
-1655.000269606307
 21
-3262.500214550946
 31
0.0
  0
LINE
  5
222
330
1F
100
AcDbEntity
  8
0-B_寸法
  6
Continuous
 62
   120
370
     5
100
AcDbLine
 10
-1655.000269606307
 20
-3262.500214550946
 30
0.0
 11
-1655.000269606307
 21
-2812.500214550947
 31
0.0
  0
LINE
  5
223
330
1F
100
AcDbEntity
  8
0-B_寸法
  6
Continuous
 62
   120
370
     5
100
AcDbLine
 10
-1655.000269606307
 20
-3262.500214550946
 30
0.0
 11
-1653.000269606307
 21
-3262.500214550946
 31
0.0
  0
LINE
  5
224
330
1F
100
AcDbEntity
  8
0-B_寸法
  6
Continuous
 62
   120
370
     5
100
AcDbLine
 10
-1653.000269606307
 20
-3262.500214550946
 30
0.0
 11
-1653.000269606307
 21
-2812.500214550947
 31
0.0
  0
LINE
  5
225
330
1F
100
AcDbEntity
  8
0-B_寸法
  6
Continuous
 62
   120
370
     5
100
AcDbLine
 10
-1654.000269606308
 20
-3262.500214550946
 30
0.0
 11
-1619.140287971904
 21
-3132.400991940433
 31
0.0
  0
LINE
  5
226
330
1F
100
AcDbEntity
  8
0-B_寸法
  6
Continuous
 62
   120
370
     5
100
AcDbLine
 10
-1619.140287971904
 20
-3132.400991940433
 30
0.0
 11
-1571.270026889572
 21
-3132.400991940433
 31
0.0
  0
LWPOLYLINE
  5
227
330
1F
100
AcDbEntity
  8
0-B_寸法
  6
Continuous
 62
     7
370
     9
100
AcDbPolyline
 90
        4
 70
     1
 43
3.0
 10
-1653.500269606307
 20
-3262.500214550946
 42
0.4142135623731
 10
-1655.000269606307
 20
-3261.000214550946
 42
0.4142135623731
 10
-1656.500269606307
 20
-3262.500214550946
 42
0.4142135623731
 10
-1655.000269606307
 20
-3264.000214550946
 42
0.4142135623731
  0
LWPOLYLINE
  5
228
330
1F
100
AcDbEntity
  8
0-B_寸法
  6
Continuous
 62
     7
370
     9
100
AcDbPolyline
 90
        4
 70
     1
 43
3.0
 10
-1651.500269606307
 20
-3262.500214550946
 42
0.4142135623731
 10
-1653.000269606307
 20
-3261.000214550946
 42
0.4142135623731
 10
-1654.500269606307
 20
-3262.500214550946
 42
0.4142135623731
 10
-1653.000269606307
 20
-3264.000214550946
 42
0.4142135623731
  0
LINE
  5
229
330
1F
100
AcDbEntity
  8
0-4_枠
  6
Continuous
 62
    92
370
    13
100
AcDbLine
 10
-831.5002696063074
 20
-2762.500214550947
 30
0.0
 11
-831.5002696063074
 21
-415.0002145509467
 31
0.0
  0
LINE
  5
22A
330
1F
100
AcDbEntity
  8
0-4_枠
  6
Continuous
 62
    92
370
    13
100
AcDbLine
 10
-4058.500269606306
 20
-415.0002145509467
 30
0.0
 11
-831.5002696063074
 21
-415.0002145509467
 31
0.0
  0
LINE
  5
22B
330
1F
100
AcDbEntity
  8
0-4_枠
  6
Continuous
 62
    92
370
    13
100
AcDbLine
 10
-4028.500269606306
 20
-451.0002145509468
 30
0.0
 11
-861.5002696063075
 21
-451.0002145509468
 31
0.0
  0
LINE
  5
22C
330
1F
100
AcDbEntity
  8
0-4_枠
  6
Continuous
 62
    92
370
    13
100
AcDbLine
 10
-861.5002696063075
 20
-2762.500214550947
 30
0.0
 11
-861.5002696063075
 21
-451.0002145509468
 31
0.0
  0
LINE
  5
22D
330
1F
100
AcDbEntity
  8
0-4_枠
  6
Continuous
 62
    92
370
    13
100
AcDbLine
 10
-4058.500269606306
 20
-2762.500214550947
 30
0.0
 11
-831.5002696063074
 21
-2762.500214550947
 31
0.0
  0
LINE
  5
22E
330
1F
100
AcDbEntity
  8
0-4_枠
  6
Continuous
 62
    92
370
    13
100
AcDbLine
 10
-4028.500269606306
 20
-2750.500214550947
 30
0.0
 11
-861.5002696063075
 21
-2750.500214550947
 31
0.0
  0
LINE
  5
22F
330
1F
100
AcDbEntity
  8
0-B_寸法
  6
Continuous
 62
   120
370
     5
100
AcDbLine
 10
-4058.500269606306
 20
-3462.500214550947
 30
0.0
 11
-831.5002696063074
 21
-3462.500214550947
 31
0.0
  0
LINE
  5
230
330
1F
100
AcDbEntity
  8
0-B_寸法
  6
Continuous
 62
   120
370
     5
100
AcDbLine
 10
-831.5002696063074
 20
-3462.500214550947
 30
0.0
 11
-831.5002696063074
 21
-2812.500214550947
 31
0.0
  0
LINE
  5
231
330
1F
100
AcDbEntity
  8
0-B_寸法
  6
Continuous
 62
   120
370
     5
100
AcDbLine
 10
-1653.000269606307
 20
-3262.500214550946
 30
0.0
 11
-864.0002696063069
 21
-3262.500214550946
 31
0.0
  0
LINE
  5
232
330
1F
100
AcDbEntity
  8
0-B_寸法
  6
Continuous
 62
   120
370
     5
100
AcDbLine
 10
-864.0002696063069
 20
-3262.500214550946
 30
0.0
 11
-864.0002696063069
 21
-2812.500214550947
 31
0.0
  0
LWPOLYLINE
  5
233
330
1F
100
AcDbEntity
  8
0-B_寸法
  6
Continuous
 62
     7
370
     9
100
AcDbPolyline
 90
        4
 70
     1
 43
3.0
 10
-830.0002696063074
 20
-3462.500214550947
 42
0.4142135623731
 10
-831.5002696063074
 20
-3461.000214550947
 42
0.4142135623731
 10
-833.0002696063074
 20
-3462.500214550947
 42
0.4142135623731
 10
-831.5002696063074
 20
-3464.000214550947
 42
0.4142135623731
  0
LWPOLYLINE
  5
234
330
1F
100
AcDbEntity
  8
0-B_寸法
  6
Continuous
 62
     7
370
     9
100
AcDbPolyline
 90
        4
 70
     1
 43
3.0
 10
-862.5002696063069
 20
-3262.500214550946
 42
0.4142135623731
 10
-864.0002696063069
 20
-3261.000214550946
 42
0.4142135623731
 10
-865.5002696063069
 20
-3262.500214550946
 42
0.4142135623731
 10
-864.0002696063069
 20
-3264.000214550946
 42
0.4142135623731
  0
LWPOLYLINE
  5
235
330
1F
100
AcDbEntity
  8
0-B_寸法
  6
Continuous
 62
     7
370
     9
100
AcDbPolyline
 90
        4
 70
     1
 43
3.0
 10
-4024.500269606305
 20
-3262.500214550946
 42
0.4142135623731
 10
-4026.000269606305
 20
-3261.000214550946
 42
0.4142135623731
 10
-4027.500269606306
 20
-3262.500214550946
 42
0.4142135623731
 10
-4026.000269606305
 20
-3264.000214550946
 42
0.4142135623731
  0
LINE
  5
236
330
1F
100
AcDbEntity
  8
0-B_寸法
  6
Continuous
 62
   120
370
     5
100
AcDbLine
 10
-4026.000269606305
 20
-3262.500214550946
 30
0.0
 11
-3237.000269606306
 21
-3262.500214550946
 31
0.0
  0
LINE
  5
237
330
1F
100
AcDbEntity
  8
0-2_扉
  6
Continuous
 62
    92
370
    13
100
AcDbLine
 10
-4026.000269606305
 20
-2742.500214550947
 30
0.0
 11
-4026.000269606305
 21
-458.5002145509468
 31
0.0
  0
LINE
  5
238
330
1F
100
AcDbEntity
  8
0-2_扉
  6
Continuous
 62
    92
370
    13
100
AcDbLine
 10
-4026.000269606305
 20
-2742.500214550947
 30
0.0
 11
-3632.000269606306
 21
-2742.500214550947
 31
0.0
  0
LINE
  5
239
330
1F
100
AcDbEntity
  8
0-2_扉
  6
Continuous
 62
    92
370
    13
100
AcDbLine
 10
-4026.000269606305
 20
-458.5002145509468
 30
0.0
 11
-3632.000269606306
 21
-458.5002145509468
 31
0.0
  0
LINE
  5
23A
330
1F
100
AcDbEntity
  8
0-2_扉
  6
Continuous
 62
    92
370
    13
100
AcDbLine
 10
-3632.000269606306
 20
-458.5002145509468
 30
0.0
 11
-3632.000269606306
 21
-2742.500214550947
 31
0.0
  0
LINE
  5
23B
330
1F
100
AcDbEntity
  8
0-2_扉
  6
Continuous
 62
    92
370
    13
100
AcDbLine
 10
-3631.000269606306
 20
-458.5002145509468
 30
0.0
 11
-3631.000269606306
 21
-2742.500214550947
 31
0.0
  0
LINE
  5
23C
330
1F
100
AcDbEntity
  8
0-2_扉
  6
Continuous
 62
    92
370
    13
100
AcDbLine
 10
-3631.000269606306
 20
-2742.500214550947
 30
0.0
 11
-3237.000269606306
 21
-2742.500214550947
 31
0.0
  0
LINE
  5
23D
330
1F
100
AcDbEntity
  8
0-2_扉
  6
Continuous
 62
    92
370
    13
100
AcDbLine
 10
-3631.000269606306
 20
-458.5002145509468
 30
0.0
 11
-3237.000269606306
 21
-458.5002145509468
 31
0.0
  0
LINE
  5
23E
330
1F
100
AcDbEntity
  8
0-2_扉
  6
Continuous
 62
    92
370
    13
100
AcDbLine
 10
-3237.000269606306
 20
-458.5002145509468
 30
0.0
 11
-3237.000269606306
 21
-2742.500214550947
 31
0.0
  0
LINE
  5
23F
330
1F
100
AcDbEntity
  8
0-2_扉
  6
Continuous
 62
    92
370
    13
100
AcDbLine
 10
-3235.000269606307
 20
-458.5002145509468
 30
0.0
 11
-3235.000269606307
 21
-2742.500214550947
 31
0.0
  0
LINE
  5
240
330
1F
100
AcDbEntity
  8
0-2_扉
  6
Continuous
 62
    92
370
    13
100
AcDbLine
 10
-3235.000269606307
 20
-2742.500214550947
 30
0.0
 11
-2841.000269606307
 21
-2742.500214550947
 31
0.0
  0
LINE
  5
241
330
1F
100
AcDbEntity
  8
0-2_扉
  6
Continuous
 62
    92
370
    13
100
AcDbLine
 10
-3235.000269606307
 20
-458.5002145509468
 30
0.0
 11
-2841.000269606307
 21
-458.5002145509468
 31
0.0
  0
LINE
  5
242
330
1F
100
AcDbEntity
  8
0-2_扉
  6
Continuous
 62
    92
370
    13
100
AcDbLine
 10
-2840.000269606307
 20
-2742.500214550947
 30
0.0
 11
-2840.000269606307
 21
-458.5002145509468
 31
0.0
  0
LINE
  5
243
330
1F
100
AcDbEntity
  8
0-2_扉
  6
Continuous
 62
    92
370
    13
100
AcDbLine
 10
-2841.000269606307
 20
-2742.500214550947
 30
0.0
 11
-2841.000269606307
 21
-458.5002145509468
 31
0.0
  0
LINE
  5
244
330
1F
100
AcDbEntity
  8
0-2_扉
  6
Continuous
 62
    92
370
    13
100
AcDbLine
 10
-2840.000269606307
 20
-2742.500214550947
 30
0.0
 11
-2446.000269606307
 21
-2742.500214550947
 31
0.0
  0
LINE
  5
245
330
1F
100
AcDbEntity
  8
0-2_扉
  6
Continuous
 62
    92
370
    13
100
AcDbLine
 10
-2840.000269606307
 20
-458.5002145509468
 30
0.0
 11
-2446.000269606307
 21
-458.5002145509468
 31
0.0
  0
LINE
  5
246
330
1F
100
AcDbEntity
  8
0-2_扉
  6
Continuous
 62
    92
370
    13
100
AcDbLine
 10
-2446.000269606307
 20
-2742.500214550947
 30
0.0
 11
-2446.000269606307
 21
-458.5002145509468
 31
0.0
  0
LINE
  5
247
330
1F
100
AcDbEntity
  8
0-3_仕上げ
  6
Continuous
 62
     7
370
     9
100
AcDbLine
 10
-3950.000269606321
 20
-1787.500214550947
 30
0.0
 11
-3946.000269606324
 21
-1783.500214550947
 31
0.0
  0
LINE
  5
248
330
1F
100
AcDbEntity
  8
0-3_仕上げ
  6
Continuous
 62
     7
370
     9
100
AcDbLine
 10
-3950.000269606321
 20
-1867.500214550947
 30
0.0
 11
-3946.000269606324
 21
-1871.500214550947
 31
0.0
  0
LINE
  5
249
330
1F
100
AcDbEntity
  8
0-3_仕上げ
  6
Continuous
 62
     7
370
     9
100
AcDbLine
 10
-3950.000269606321
 20
-2742.500214550947
 30
0.0
 11
-3950.000269606321
 21
-458.5002145509468
 31
0.0
  0
LINE
  5
24A
330
1F
100
AcDbEntity
  8
0-3_仕上げ
  6
Continuous
 62
     7
370
     9
100
AcDbLine
 10
-3950.000269606321
 20
-534.5002145509467
 30
0.0
 11
-3946.000269606324
 21
-538.5002145509465
 31
0.0
  0
LINE
  5
24B
330
1F
100
AcDbEntity
  8
0-3_仕上げ
  6
Continuous
 62
    92
370
    13
100
AcDbLine
 10
-3946.000269606324
 20
-1783.500214550947
 30
0.0
 11
-3946.000269606324
 21
-538.5002145509465
 31
0.0
  0
LINE
  5
24C
330
1F
100
AcDbEntity
  8
0-3_仕上げ
  6
Continuous
 62
     7
370
     9
100
AcDbLine
 10
-3950.000269606321
 20
-2666.500214550947
 30
0.0
 11
-3946.000269606324
 21
-2662.500214550947
 31
0.0
  0
LINE
  5
24D
330
1F
100
AcDbEntity
  8
0-3_仕上げ
  6
Continuous
 62
    92
370
    13
100
AcDbLine
 10
-3946.000269606324
 20
-2662.500214550947
 30
0.0
 11
-3946.000269606324
 21
-1871.500214550947
 31
0.0
  0
LINE
  5
24E
330
1F
100
AcDbEntity
  8
0-3_仕上げ
  6
Continuous
 62
     7
370
     9
100
AcDbLine
 10
-3663.500269606315
 20
-2742.500214550947
 30
0.0
 11
-3663.500269606315
 21
-458.5002145509468
 31
0.0
  0
LINE
  5
24F
330
1F
100
AcDbEntity
  8
0-3_仕上げ
  6
Continuous
 62
     7
370
     9
100
AcDbLine
 10
-3599.500269606319
 20
-2742.500214550947
 30
0.0
 11
-3599.500269606319
 21
-458.5002145509468
 31
0.0
  0
LINE
  5
250
330
1F
100
AcDbEntity
  8
0-3_仕上げ
  6
Continuous
 62
     7
370
     9
100
AcDbLine
 10
-3313.000269606313
 20
-1787.500214550947
 30
0.0
 11
-3317.00026960631
 21
-1783.500214550947
 31
0.0
  0
LINE
  5
251
330
1F
100
AcDbEntity
  8
0-3_仕上げ
  6
Continuous
 62
     7
370
     9
100
AcDbLine
 10
-3313.000269606313
 20
-1867.500214550947
 30
0.0
 11
-3317.00026960631
 21
-1871.500214550947
 31
0.0
  0
LINE
  5
252
330
1F
100
AcDbEntity
  8
0-3_仕上げ
  6
Continuous
 62
     7
370
     9
100
AcDbLine
 10
-3313.000269606313
 20
-2742.500214550947
 30
0.0
 11
-3313.000269606313
 21
-458.5002145509468
 31
0.0
  0
LINE
  5
253
330
1F
100
AcDbEntity
  8
0-3_仕上げ
  6
Continuous
 62
     7
370
     9
100
AcDbLine
 10
-3313.000269606313
 20
-534.5002145509467
 30
0.0
 11
-3317.00026960631
 21
-538.5002145509465
 31
0.0
  0
LINE
  5
254
330
1F
100
AcDbEntity
  8
0-3_仕上げ
  6
Continuous
 62
    92
370
    13
100
AcDbLine
 10
-3317.00026960631
 20
-1783.500214550947
 30
0.0
 11
-3317.00026960631
 21
-538.5002145509465
 31
0.0
  0
LINE
  5
255
330
1F
100
AcDbEntity
  8
0-3_仕上げ
  6
Continuous
 62
     7
370
     9
100
AcDbLine
 10
-3313.000269606313
 20
-2666.500214550947
 30
0.0
 11
-3317.00026960631
 21
-2662.500214550947
 31
0.0
  0
LINE
  5
256
330
1F
100
AcDbEntity
  8
0-3_仕上げ
  6
Continuous
 62
    92
370
    13
100
AcDbLine
 10
-3317.00026960631
 20
-2662.500214550947
 30
0.0
 11
-3317.00026960631
 21
-1871.500214550947
 31
0.0
  0
LINE
  5
257
330
1F
100
AcDbEntity
  8
0-3_仕上げ
  6
Continuous
 62
     7
370
     9
100
AcDbLine
 10
-3726.500269606326
 20
-1783.500214550947
 30
0.0
 11
-3722.500269606302
 21
-1787.500214550947
 31
0.0
  0
LINE
  5
258
330
1F
100
AcDbEntity
  8
0-3_仕上げ
  6
Continuous
 62
     7
370
     9
100
AcDbLine
 10
-3722.500269606302
 20
-1867.500214550947
 30
0.0
 11
-3726.500269606326
 21
-1871.500214550947
 31
0.0
  0
LINE
  5
259
330
1F
100
AcDbEntity
  8
0-3_仕上げ
  6
Continuous
 62
     7
370
     9
100
AcDbLine
 10
-3722.500269606302
 20
-2742.500214550947
 30
0.0
 11
-3722.500269606302
 21
-458.5002145509468
 31
0.0
  0
LINE
  5
25A
330
1F
100
AcDbEntity
  8
0-3_仕上げ
  6
Continuous
 62
     7
370
     9
100
AcDbLine
 10
-3722.500269606302
 20
-534.5002145509467
 30
0.0
 11
-3726.500269606326
 21
-538.5002145509465
 31
0.0
  0
LINE
  5
25B
330
1F
100
AcDbEntity
  8
0-3_仕上げ
  6
Continuous
 62
    92
370
    13
100
AcDbLine
 10
-3726.500269606326
 20
-1783.500214550947
 30
0.0
 11
-3726.500269606326
 21
-538.5002145509465
 31
0.0
  0
LINE
  5
25C
330
1F
100
AcDbEntity
  8
0-3_仕上げ
  6
Continuous
 62
     7
370
     9
100
AcDbLine
 10
-3726.500269606326
 20
-2662.500214550947
 30
0.0
 11
-3722.500269606302
 21
-2666.500214550947
 31
0.0
  0
LINE
  5
25D
330
1F
100
AcDbEntity
  8
0-3_仕上げ
  6
Continuous
 62
    92
370
    13
100
AcDbLine
 10
-3726.500269606326
 20
-2662.500214550947
 30
0.0
 11
-3726.500269606326
 21
-1871.500214550947
 31
0.0
  0
LINE
  5
25E
330
1F
100
AcDbEntity
  8
0-3_仕上げ
  6
Continuous
 62
     7
370
     9
100
AcDbLine
 10
-3536.500269606308
 20
-1783.500214550947
 30
0.0
 11
-3540.500269606304
 21
-1787.500214550947
 31
0.0
  0
LINE
  5
25F
330
1F
100
AcDbEntity
  8
0-3_仕上げ
  6
Continuous
 62
     7
370
     9
100
AcDbLine
 10
-3540.500269606304
 20
-1867.500214550947
 30
0.0
 11
-3536.500269606308
 21
-1871.500214550947
 31
0.0
  0
LINE
  5
260
330
1F
100
AcDbEntity
  8
0-3_仕上げ
  6
Continuous
 62
     7
370
     9
100
AcDbLine
 10
-3540.500269606304
 20
-2742.500214550947
 30
0.0
 11
-3540.500269606304
 21
-458.5002145509468
 31
0.0
  0
LINE
  5
261
330
1F
100
AcDbEntity
  8
0-3_仕上げ
  6
Continuous
 62
     7
370
     9
100
AcDbLine
 10
-3540.500269606304
 20
-534.5002145509467
 30
0.0
 11
-3536.500269606308
 21
-538.5002145509465
 31
0.0
  0
LINE
  5
262
330
1F
100
AcDbEntity
  8
0-3_仕上げ
  6
Continuous
 62
    92
370
    13
100
AcDbLine
 10
-3536.500269606308
 20
-1783.500214550947
 30
0.0
 11
-3536.500269606308
 21
-538.5002145509465
 31
0.0
  0
LINE
  5
263
330
1F
100
AcDbEntity
  8
0-3_仕上げ
  6
Continuous
 62
     7
370
     9
100
AcDbLine
 10
-3536.500269606308
 20
-2662.500214550947
 30
0.0
 11
-3540.500269606304
 21
-2666.500214550947
 31
0.0
  0
LINE
  5
264
330
1F
100
AcDbEntity
  8
0-3_仕上げ
  6
Continuous
 62
     7
370
     9
100
AcDbLine
 10
-3722.500269606302
 20
-534.5002145509467
 30
0.0
 11
-3950.000269606321
 21
-534.5002145509467
 31
0.0
  0
LINE
  5
265
330
1F
100
AcDbEntity
  8
0-3_仕上げ
  6
Continuous
 62
    92
370
    13
100
AcDbLine
 10
-3726.500269606326
 20
-538.5002145509465
 30
0.0
 11
-3946.000269606324
 21
-538.5002145509465
 31
0.0
  0
LINE
  5
266
330
1F
100
AcDbEntity
  8
0-3_仕上げ
  6
Continuous
 62
     7
370
     9
100
AcDbLine
 10
-3950.000269606321
 20
-2666.500214550947
 30
0.0
 11
-3722.500269606302
 21
-2666.500214550947
 31
0.0
  0
LINE
  5
267
330
1F
100
AcDbEntity
  8
0-3_仕上げ
  6
Continuous
 62
    92
370
    13
100
AcDbLine
 10
-3946.000269606324
 20
-2662.500214550947
 30
0.0
 11
-3726.500269606326
 21
-2662.500214550947
 31
0.0
  0
LINE
  5
268
330
1F
100
AcDbEntity
  8
0-3_仕上げ
  6
Continuous
 62
     7
370
     9
100
AcDbLine
 10
-3950.000269606321
 20
-1787.500214550947
 30
0.0
 11
-3722.500269606302
 21
-1787.500214550947
 31
0.0
  0
LINE
  5
269
330
1F
100
AcDbEntity
  8
0-3_仕上げ
  6
Continuous
 62
    92
370
    13
100
AcDbLine
 10
-3946.000269606324
 20
-1783.500214550947
 30
0.0
 11
-3726.500269606326
 21
-1783.500214550947
 31
0.0
  0
LINE
  5
26A
330
1F
100
AcDbEntity
  8
0-3_仕上げ
  6
Continuous
 62
    92
370
    13
100
AcDbLine
 10
-3946.000269606324
 20
-1871.500214550947
 30
0.0
 11
-3726.500269606326
 21
-1871.500214550947
 31
0.0
  0
LINE
  5
26B
330
1F
100
AcDbEntity
  8
0-3_仕上げ
  6
Continuous
 62
     7
370
     9
100
AcDbLine
 10
-3950.000269606321
 20
-1867.500214550947
 30
0.0
 11
-3722.500269606302
 21
-1867.500214550947
 31
0.0
  0
LINE
  5
26C
330
1F
100
AcDbEntity
  8
0-3_仕上げ
  6
Continuous
 62
    92
370
    13
100
AcDbLine
 10
-3317.00026960631
 20
-1783.500214550947
 30
0.0
 11
-3536.500269606308
 21
-1783.500214550947
 31
0.0
  0
LINE
  5
26D
330
1F
100
AcDbEntity
  8
0-3_仕上げ
  6
Continuous
 62
     7
370
     9
100
AcDbLine
 10
-3313.000269606313
 20
-1787.500214550947
 30
0.0
 11
-3540.500269606304
 21
-1787.500214550947
 31
0.0
  0
LINE
  5
26E
330
1F
100
AcDbEntity
  8
0-3_仕上げ
  6
Continuous
 62
    92
370
    13
100
AcDbLine
 10
-3317.00026960631
 20
-1871.500214550947
 30
0.0
 11
-3536.500269606308
 21
-1871.500214550947
 31
0.0
  0
LINE
  5
26F
330
1F
100
AcDbEntity
  8
0-3_仕上げ
  6
Continuous
 62
     7
370
     9
100
AcDbLine
 10
-3313.000269606313
 20
-1867.500214550947
 30
0.0
 11
-3540.500269606304
 21
-1867.500214550947
 31
0.0
  0
LINE
  5
270
330
1F
100
AcDbEntity
  8
0-3_仕上げ
  6
Continuous
 62
     7
370
     9
100
AcDbLine
 10
-3159.000269606317
 20
-1787.500214550947
 30
0.0
 11
-3155.000269606321
 21
-1783.500214550947
 31
0.0
  0
LINE
  5
271
330
1F
100
AcDbEntity
  8
0-3_仕上げ
  6
Continuous
 62
     7
370
     9
100
AcDbLine
 10
-3159.000269606317
 20
-1867.500214550947
 30
0.0
 11
-3155.000269606321
 21
-1871.500214550947
 31
0.0
  0
LINE
  5
272
330
1F
100
AcDbEntity
  8
0-3_仕上げ
  6
Continuous
 62
     7
370
     9
100
AcDbLine
 10
-3159.000269606317
 20
-2742.500214550947
 30
0.0
 11
-3159.000269606317
 21
-458.5002145509468
 31
0.0
  0
LINE
  5
273
330
1F
100
AcDbEntity
  8
0-3_仕上げ
  6
Continuous
 62
     7
370
     9
100
AcDbLine
 10
-3159.000269606317
 20
-534.5002145509467
 30
0.0
 11
-3155.000269606321
 21
-538.5002145509465
 31
0.0
  0
LINE
  5
274
330
1F
100
AcDbEntity
  8
0-3_仕上げ
  6
Continuous
 62
    92
370
    13
100
AcDbLine
 10
-3155.000269606321
 20
-1783.500214550947
 30
0.0
 11
-3155.000269606321
 21
-538.5002145509465
 31
0.0
  0
LINE
  5
275
330
1F
100
AcDbEntity
  8
0-3_仕上げ
  6
Continuous
 62
     7
370
     9
100
AcDbLine
 10
-3159.000269606317
 20
-2666.500214550947
 30
0.0
 11
-3155.000269606321
 21
-2662.500214550947
 31
0.0
  0
LINE
  5
276
330
1F
100
AcDbEntity
  8
0-3_仕上げ
  6
Continuous
 62
    92
370
    13
100
AcDbLine
 10
-3155.000269606321
 20
-2662.500214550947
 30
0.0
 11
-3155.000269606321
 21
-1871.500214550947
 31
0.0
  0
LINE
  5
277
330
1F
100
AcDbEntity
  8
0-3_仕上げ
  6
Continuous
 62
     7
370
     9
100
AcDbLine
 10
-2872.500269606312
 20
-2742.500214550947
 30
0.0
 11
-2872.500269606312
 21
-458.5002145509468
 31
0.0
  0
LINE
  5
278
330
1F
100
AcDbEntity
  8
0-3_仕上げ
  6
Continuous
 62
     7
370
     9
100
AcDbLine
 10
-2808.500269606315
 20
-2742.500214550947
 30
0.0
 11
-2808.500269606315
 21
-458.5002145509468
 31
0.0
  0
LINE
  5
279
330
1F
100
AcDbEntity
  8
0-3_仕上げ
  6
Continuous
 62
     7
370
     9
100
AcDbLine
 10
-2522.00026960631
 20
-1787.500214550947
 30
0.0
 11
-2526.000269606306
 21
-1783.500214550947
 31
0.0
  0
LINE
  5
27A
330
1F
100
AcDbEntity
  8
0-3_仕上げ
  6
Continuous
 62
     7
370
     9
100
AcDbLine
 10
-2522.00026960631
 20
-1867.500214550947
 30
0.0
 11
-2526.000269606306
 21
-1871.500214550947
 31
0.0
  0
LINE
  5
27B
330
1F
100
AcDbEntity
  8
0-3_仕上げ
  6
Continuous
 62
     7
370
     9
100
AcDbLine
 10
-2522.00026960631
 20
-2742.500214550947
 30
0.0
 11
-2522.00026960631
 21
-458.5002145509468
 31
0.0
  0
LINE
  5
27C
330
1F
100
AcDbEntity
  8
0-3_仕上げ
  6
Continuous
 62
     7
370
     9
100
AcDbLine
 10
-2522.00026960631
 20
-534.5002145509467
 30
0.0
 11
-2526.000269606306
 21
-538.5002145509465
 31
0.0
  0
LINE
  5
27D
330
1F
100
AcDbEntity
  8
0-3_仕上げ
  6
Continuous
 62
    92
370
    13
100
AcDbLine
 10
-2526.000269606306
 20
-1783.500214550947
 30
0.0
 11
-2526.000269606306
 21
-538.5002145509465
 31
0.0
  0
LINE
  5
27E
330
1F
100
AcDbEntity
  8
0-3_仕上げ
  6
Continuous
 62
     7
370
     9
100
AcDbLine
 10
-2522.00026960631
 20
-2666.500214550947
 30
0.0
 11
-2526.000269606306
 21
-2662.500214550947
 31
0.0
  0
LINE
  5
27F
330
1F
100
AcDbEntity
  8
0-3_仕上げ
  6
Continuous
 62
    92
370
    13
100
AcDbLine
 10
-2526.000269606306
 20
-2662.500214550947
 30
0.0
 11
-2526.000269606306
 21
-1871.500214550947
 31
0.0
  0
LINE
  5
280
330
1F
100
AcDbEntity
  8
0-3_仕上げ
  6
Continuous
 62
     7
370
     9
100
AcDbLine
 10
-2935.500269606322
 20
-1783.500214550947
 30
0.0
 11
-2931.500269606326
 21
-1787.500214550947
 31
0.0
  0
LINE
  5
281
330
1F
100
AcDbEntity
  8
0-3_仕上げ
  6
Continuous
 62
     7
370
     9
100
AcDbLine
 10
-2931.500269606326
 20
-1867.500214550947
 30
0.0
 11
-2935.500269606322
 21
-1871.500214550947
 31
0.0
  0
LINE
  5
282
330
1F
100
AcDbEntity
  8
0-3_仕上げ
  6
Continuous
 62
     7
370
     9
100
AcDbLine
 10
-2931.500269606326
 20
-2742.500214550947
 30
0.0
 11
-2931.500269606326
 21
-458.5002145509468
 31
0.0
  0
LINE
  5
283
330
1F
100
AcDbEntity
  8
0-3_仕上げ
  6
Continuous
 62
     7
370
     9
100
AcDbLine
 10
-2931.500269606326
 20
-534.5002145509467
 30
0.0
 11
-2935.500269606322
 21
-538.5002145509465
 31
0.0
  0
LINE
  5
284
330
1F
100
AcDbEntity
  8
0-3_仕上げ
  6
Continuous
 62
    92
370
    13
100
AcDbLine
 10
-2935.500269606322
 20
-1783.500214550947
 30
0.0
 11
-2935.500269606322
 21
-538.5002145509465
 31
0.0
  0
LINE
  5
285
330
1F
100
AcDbEntity
  8
0-3_仕上げ
  6
Continuous
 62
     7
370
     9
100
AcDbLine
 10
-2935.500269606322
 20
-2662.500214550947
 30
0.0
 11
-2931.500269606326
 21
-2666.500214550947
 31
0.0
  0
LINE
  5
286
330
1F
100
AcDbEntity
  8
0-3_仕上げ
  6
Continuous
 62
    92
370
    13
100
AcDbLine
 10
-2935.500269606322
 20
-2662.500214550947
 30
0.0
 11
-2935.500269606322
 21
-1871.500214550947
 31
0.0
  0
LINE
  5
287
330
1F
100
AcDbEntity
  8
0-3_仕上げ
  6
Continuous
 62
     7
370
     9
100
AcDbLine
 10
-2745.500269606304
 20
-1783.500214550947
 30
0.0
 11
-2749.500269606328
 21
-1787.500214550947
 31
0.0
  0
LINE
  5
288
330
1F
100
AcDbEntity
  8
0-3_仕上げ
  6
Continuous
 62
     7
370
     9
100
AcDbLine
 10
-2749.500269606328
 20
-1867.500214550947
 30
0.0
 11
-2745.500269606304
 21
-1871.500214550947
 31
0.0
  0
LINE
  5
289
330
1F
100
AcDbEntity
  8
0-3_仕上げ
  6
Continuous
 62
     7
370
     9
100
AcDbLine
 10
-2749.500269606328
 20
-2742.500214550947
 30
0.0
 11
-2749.500269606328
 21
-458.5002145509468
 31
0.0
  0
LINE
  5
28A
330
1F
100
AcDbEntity
  8
0-3_仕上げ
  6
Continuous
 62
     7
370
     9
100
AcDbLine
 10
-2749.500269606328
 20
-534.5002145509467
 30
0.0
 11
-2745.500269606304
 21
-538.5002145509465
 31
0.0
  0
LINE
  5
28B
330
1F
100
AcDbEntity
  8
0-3_仕上げ
  6
Continuous
 62
    92
370
    13
100
AcDbLine
 10
-2745.500269606304
 20
-1783.500214550947
 30
0.0
 11
-2745.500269606304
 21
-538.5002145509465
 31
0.0
  0
LINE
  5
28C
330
1F
100
AcDbEntity
  8
0-3_仕上げ
  6
Continuous
 62
     7
370
     9
100
AcDbLine
 10
-2745.500269606304
 20
-2662.500214550947
 30
0.0
 11
-2749.500269606328
 21
-2666.500214550947
 31
0.0
  0
LINE
  5
28D
330
1F
100
AcDbEntity
  8
0-3_仕上げ
  6
Continuous
 62
    92
370
    13
100
AcDbLine
 10
-2745.500269606304
 20
-2662.500214550947
 30
0.0
 11
-2745.500269606304
 21
-1871.500214550947
 31
0.0
  0
LINE
  5
28E
330
1F
100
AcDbEntity
  8
0-3_仕上げ
  6
Continuous
 62
     7
370
     9
100
AcDbLine
 10
-2931.500269606326
 20
-534.5002145509467
 30
0.0
 11
-3159.000269606317
 21
-534.5002145509467
 31
0.0
  0
LINE
  5
28F
330
1F
100
AcDbEntity
  8
0-3_仕上げ
  6
Continuous
 62
    92
370
    13
100
AcDbLine
 10
-2935.500269606322
 20
-538.5002145509465
 30
0.0
 11
-3155.000269606321
 21
-538.5002145509465
 31
0.0
  0
LINE
  5
290
330
1F
100
AcDbEntity
  8
0-3_仕上げ
  6
Continuous
 62
     7
370
     9
100
AcDbLine
 10
-3159.000269606317
 20
-2666.500214550947
 30
0.0
 11
-2931.500269606326
 21
-2666.500214550947
 31
0.0
  0
LINE
  5
291
330
1F
100
AcDbEntity
  8
0-3_仕上げ
  6
Continuous
 62
    92
370
    13
100
AcDbLine
 10
-3155.000269606321
 20
-2662.500214550947
 30
0.0
 11
-2935.500269606322
 21
-2662.500214550947
 31
0.0
  0
LINE
  5
292
330
1F
100
AcDbEntity
  8
0-3_仕上げ
  6
Continuous
 62
     7
370
     9
100
AcDbLine
 10
-3159.000269606317
 20
-1787.500214550947
 30
0.0
 11
-2931.500269606326
 21
-1787.500214550947
 31
0.0
  0
LINE
  5
293
330
1F
100
AcDbEntity
  8
0-3_仕上げ
  6
Continuous
 62
    92
370
    13
100
AcDbLine
 10
-3155.000269606321
 20
-1783.500214550947
 30
0.0
 11
-2935.500269606322
 21
-1783.500214550947
 31
0.0
  0
LINE
  5
294
330
1F
100
AcDbEntity
  8
0-3_仕上げ
  6
Continuous
 62
    92
370
    13
100
AcDbLine
 10
-3155.000269606321
 20
-1871.500214550947
 30
0.0
 11
-2935.500269606322
 21
-1871.500214550947
 31
0.0
  0
LINE
  5
295
330
1F
100
AcDbEntity
  8
0-3_仕上げ
  6
Continuous
 62
     7
370
     9
100
AcDbLine
 10
-3159.000269606317
 20
-1867.500214550947
 30
0.0
 11
-2931.500269606326
 21
-1867.500214550947
 31
0.0
  0
LINE
  5
296
330
1F
100
AcDbEntity
  8
0-3_仕上げ
  6
Continuous
 62
    92
370
    13
100
AcDbLine
 10
-2526.000269606306
 20
-1783.500214550947
 30
0.0
 11
-2745.500269606304
 21
-1783.500214550947
 31
0.0
  0
LINE
  5
297
330
1F
100
AcDbEntity
  8
0-3_仕上げ
  6
Continuous
 62
     7
370
     9
100
AcDbLine
 10
-2522.00026960631
 20
-1787.500214550947
 30
0.0
 11
-2749.500269606328
 21
-1787.500214550947
 31
0.0
  0
LINE
  5
298
330
1F
100
AcDbEntity
  8
0-3_仕上げ
  6
Continuous
 62
    92
370
    13
100
AcDbLine
 10
-2526.000269606306
 20
-1871.500214550947
 30
0.0
 11
-2745.500269606304
 21
-1871.500214550947
 31
0.0
  0
LINE
  5
299
330
1F
100
AcDbEntity
  8
0-3_仕上げ
  6
Continuous
 62
     7
370
     9
100
AcDbLine
 10
-2522.00026960631
 20
-1867.500214550947
 30
0.0
 11
-2749.500269606328
 21
-1867.500214550947
 31
0.0
  0
LINE
  5
29A
330
1F
100
AcDbEntity
  8
0-1_通り芯
  6
JWW_CENTER1
 62
   120
370
     5
100
AcDbLine
 10
-3898.750269606316
 20
-1839.500214550947
 30
0.0
 11
-3773.750269606316
 21
-1839.500214550947
 31
0.0
  0
LINE
  5
29B
330
1F
100
AcDbEntity
  8
0-1_通り芯
  6
JWW_CENTER1
 62
   120
370
     5
100
AcDbLine
 10
-3836.250269606317
 20
-1823.000214550947
 30
0.0
 11
-3836.250269606317
 21
-1856.000214550947
 31
0.0
  0
LINE
  5
29C
330
1F
100
AcDbEntity
  8
0-1_通り芯
  6
JWW_CENTER1
 62
   120
370
     5
100
AcDbLine
 10
-3489.250269606318
 20
-1839.500214550947
 30
0.0
 11
-3364.250269606318
 21
-1839.500214550947
 31
0.0
  0
LINE
  5
29D
330
1F
100
AcDbEntity
  8
0-1_通り芯
  6
JWW_CENTER1
 62
   120
370
     5
100
AcDbLine
 10
-3426.750269606318
 20
-1823.000214550947
 30
0.0
 11
-3426.750269606318
 21
-1856.000214550947
 31
0.0
  0
LINE
  5
29E
330
1F
100
AcDbEntity
  8
0-1_通り芯
  6
JWW_CENTER1
 62
   120
370
     5
100
AcDbLine
 10
-3107.750269606331
 20
-1839.500214550947
 30
0.0
 11
-2982.750269606331
 21
-1839.500214550947
 31
0.0
  0
LINE
  5
29F
330
1F
100
AcDbEntity
  8
0-1_通り芯
  6
JWW_CENTER1
 62
   120
370
     5
100
AcDbLine
 10
-3045.250269606331
 20
-1823.000214550947
 30
0.0
 11
-3045.250269606331
 21
-1856.000214550947
 31
0.0
  0
LINE
  5
2A0
330
1F
100
AcDbEntity
  8
0-1_通り芯
  6
JWW_CENTER1
 62
   120
370
     5
100
AcDbLine
 10
-2698.250269606322
 20
-1839.500214550947
 30
0.0
 11
-2573.250269606322
 21
-1839.500214550947
 31
0.0
  0
LINE
  5
2A1
330
1F
100
AcDbEntity
  8
0-1_通り芯
  6
JWW_CENTER1
 62
   120
370
     5
100
AcDbLine
 10
-2635.750269606323
 20
-1823.000214550947
 30
0.0
 11
-2635.750269606323
 21
-1856.000214550947
 31
0.0
  0
LINE
  5
2A2
330
1F
100
AcDbEntity
  8
0-3_仕上げ
  6
Continuous
 62
    92
370
    13
100
AcDbLine
 10
-3317.00026960631
 20
-2662.500214550947
 30
0.0
 11
-3536.500269606308
 21
-2662.500214550947
 31
0.0
  0
LINE
  5
2A3
330
1F
100
AcDbEntity
  8
0-3_仕上げ
  6
Continuous
 62
    92
370
    13
100
AcDbLine
 10
-3536.500269606308
 20
-2662.500214550947
 30
0.0
 11
-3536.500269606308
 21
-1871.500214550947
 31
0.0
  0
LINE
  5
2A4
330
1F
100
AcDbEntity
  8
0-3_仕上げ
  6
Continuous
 62
     7
370
     9
100
AcDbLine
 10
-3313.000269606313
 20
-2666.500214550947
 30
0.0
 11
-3540.500269606304
 21
-2666.500214550947
 31
0.0
  0
LINE
  5
2A5
330
1F
100
AcDbEntity
  8
0-3_仕上げ
  6
Continuous
 62
     7
370
     9
100
AcDbLine
 10
-2749.500269606328
 20
-534.5002145509467
 30
0.0
 11
-2522.00026960631
 21
-534.5002145509467
 31
0.0
  0
LINE
  5
2A6
330
1F
100
AcDbEntity
  8
0-3_仕上げ
  6
Continuous
 62
    92
370
    13
100
AcDbLine
 10
-2745.500269606304
 20
-538.5002145509465
 30
0.0
 11
-2526.000269606306
 21
-538.5002145509465
 31
0.0
  0
LINE
  5
2A7
330
1F
100
AcDbEntity
  8
0-3_仕上げ
  6
Continuous
 62
     7
370
     9
100
AcDbLine
 10
-2522.00026960631
 20
-2666.500214550947
 30
0.0
 11
-2749.500269606328
 21
-2666.500214550947
 31
0.0
  0
LINE
  5
2A8
330
1F
100
AcDbEntity
  8
0-3_仕上げ
  6
Continuous
 62
    92
370
    13
100
AcDbLine
 10
-2526.000269606306
 20
-2662.500214550947
 30
0.0
 11
-2745.500269606304
 21
-2662.500214550947
 31
0.0
  0
LINE
  5
2A9
330
1F
100
AcDbEntity
  8
0-3_仕上げ
  6
Continuous
 62
     7
370
     9
100
AcDbLine
 10
-3540.500269606304
 20
-534.5002145509467
 30
0.0
 11
-3313.000269606313
 21
-534.5002145509467
 31
0.0
  0
LINE
  5
2AA
330
1F
100
AcDbEntity
  8
0-3_仕上げ
  6
Continuous
 62
    92
370
    13
100
AcDbLine
 10
-3536.500269606308
 20
-538.5002145509465
 30
0.0
 11
-3317.00026960631
 21
-538.5002145509465
 31
0.0
  0
LINE
  5
2AB
330
1F
100
AcDbEntity
  8
0-2_扉
  6
Continuous
 62
    92
370
    13
100
AcDbLine
 10
-2444.000269606307
 20
-2742.500214550947
 30
0.0
 11
-2444.000269606307
 21
-458.5002145509468
 31
0.0
  0
LINE
  5
2AC
330
1F
100
AcDbEntity
  8
0-2_扉
  6
Continuous
 62
    92
370
    13
100
AcDbLine
 10
-2444.000269606307
 20
-2742.500214550947
 30
0.0
 11
-2050.000269606307
 21
-2742.500214550947
 31
0.0
  0
LINE
  5
2AD
330
1F
100
AcDbEntity
  8
0-2_扉
  6
Continuous
 62
    92
370
    13
100
AcDbLine
 10
-2444.000269606307
 20
-458.5002145509468
 30
0.0
 11
-2050.000269606307
 21
-458.5002145509468
 31
0.0
  0
LINE
  5
2AE
330
1F
100
AcDbEntity
  8
0-2_扉
  6
Continuous
 62
    92
370
    13
100
AcDbLine
 10
-2050.000269606307
 20
-458.5002145509468
 30
0.0
 11
-2050.000269606307
 21
-2742.500214550947
 31
0.0
  0
LINE
  5
2AF
330
1F
100
AcDbEntity
  8
0-2_扉
  6
Continuous
 62
    92
370
    13
100
AcDbLine
 10
-2049.000269606307
 20
-458.5002145509468
 30
0.0
 11
-2049.000269606307
 21
-2742.500214550947
 31
0.0
  0
LINE
  5
2B0
330
1F
100
AcDbEntity
  8
0-2_扉
  6
Continuous
 62
    92
370
    13
100
AcDbLine
 10
-2049.000269606307
 20
-2742.500214550947
 30
0.0
 11
-1655.000269606307
 21
-2742.500214550947
 31
0.0
  0
LINE
  5
2B1
330
1F
100
AcDbEntity
  8
0-2_扉
  6
Continuous
 62
    92
370
    13
100
AcDbLine
 10
-2049.000269606307
 20
-458.5002145509468
 30
0.0
 11
-1655.000269606307
 21
-458.5002145509468
 31
0.0
  0
LINE
  5
2B2
330
1F
100
AcDbEntity
  8
0-2_扉
  6
Continuous
 62
    92
370
    13
100
AcDbLine
 10
-1655.000269606307
 20
-458.5002145509468
 30
0.0
 11
-1655.000269606307
 21
-2742.500214550947
 31
0.0
  0
LINE
  5
2B3
330
1F
100
AcDbEntity
  8
0-2_扉
  6
Continuous
 62
    92
370
    13
100
AcDbLine
 10
-1653.000269606309
 20
-458.5002145509468
 30
0.0
 11
-1653.000269606309
 21
-2742.500214550947
 31
0.0
  0
LINE
  5
2B4
330
1F
100
AcDbEntity
  8
0-2_扉
  6
Continuous
 62
    92
370
    13
100
AcDbLine
 10
-1653.000269606309
 20
-2742.500214550947
 30
0.0
 11
-1259.000269606309
 21
-2742.500214550947
 31
0.0
  0
LINE
  5
2B5
330
1F
100
AcDbEntity
  8
0-2_扉
  6
Continuous
 62
    92
370
    13
100
AcDbLine
 10
-1653.000269606309
 20
-458.5002145509468
 30
0.0
 11
-1259.000269606309
 21
-458.5002145509468
 31
0.0
  0
LINE
  5
2B6
330
1F
100
AcDbEntity
  8
0-2_扉
  6
Continuous
 62
    92
370
    13
100
AcDbLine
 10
-1258.000269606308
 20
-2742.500214550947
 30
0.0
 11
-1258.000269606308
 21
-458.5002145509468
 31
0.0
  0
LINE
  5
2B7
330
1F
100
AcDbEntity
  8
0-2_扉
  6
Continuous
 62
    92
370
    13
100
AcDbLine
 10
-1259.000269606309
 20
-2742.500214550947
 30
0.0
 11
-1259.000269606309
 21
-458.5002145509468
 31
0.0
  0
LINE
  5
2B8
330
1F
100
AcDbEntity
  8
0-2_扉
  6
Continuous
 62
    92
370
    13
100
AcDbLine
 10
-1258.000269606308
 20
-2742.500214550947
 30
0.0
 11
-864.0002696063084
 21
-2742.500214550947
 31
0.0
  0
LINE
  5
2B9
330
1F
100
AcDbEntity
  8
0-2_扉
  6
Continuous
 62
    92
370
    13
100
AcDbLine
 10
-1258.000269606308
 20
-458.5002145509468
 30
0.0
 11
-864.0002696063084
 21
-458.5002145509468
 31
0.0
  0
LINE
  5
2BA
330
1F
100
AcDbEntity
  8
0-2_扉
  6
Continuous
 62
    92
370
    13
100
AcDbLine
 10
-864.0002696063084
 20
-2742.500214550947
 30
0.0
 11
-864.0002696063084
 21
-458.5002145509468
 31
0.0
  0
LINE
  5
2BB
330
1F
100
AcDbEntity
  8
0-3_仕上げ
  6
Continuous
 62
     7
370
     9
100
AcDbLine
 10
-2368.000269606322
 20
-1787.500214550947
 30
0.0
 11
-2364.000269606326
 21
-1783.500214550947
 31
0.0
  0
LINE
  5
2BC
330
1F
100
AcDbEntity
  8
0-3_仕上げ
  6
Continuous
 62
     7
370
     9
100
AcDbLine
 10
-2368.000269606322
 20
-1867.500214550947
 30
0.0
 11
-2364.000269606326
 21
-1871.500214550947
 31
0.0
  0
LINE
  5
2BD
330
1F
100
AcDbEntity
  8
0-3_仕上げ
  6
Continuous
 62
     7
370
     9
100
AcDbLine
 10
-2368.000269606322
 20
-2742.500214550947
 30
0.0
 11
-2368.000269606322
 21
-458.5002145509468
 31
0.0
  0
LINE
  5
2BE
330
1F
100
AcDbEntity
  8
0-3_仕上げ
  6
Continuous
 62
     7
370
     9
100
AcDbLine
 10
-2368.000269606322
 20
-534.5002145509467
 30
0.0
 11
-2364.000269606326
 21
-538.5002145509465
 31
0.0
  0
LINE
  5
2BF
330
1F
100
AcDbEntity
  8
0-3_仕上げ
  6
Continuous
 62
    92
370
    13
100
AcDbLine
 10
-2364.000269606326
 20
-1783.500214550947
 30
0.0
 11
-2364.000269606326
 21
-538.5002145509465
 31
0.0
  0
LINE
  5
2C0
330
1F
100
AcDbEntity
  8
0-3_仕上げ
  6
Continuous
 62
     7
370
     9
100
AcDbLine
 10
-2368.000269606322
 20
-2666.500214550947
 30
0.0
 11
-2364.000269606326
 21
-2662.500214550947
 31
0.0
  0
LINE
  5
2C1
330
1F
100
AcDbEntity
  8
0-3_仕上げ
  6
Continuous
 62
    92
370
    13
100
AcDbLine
 10
-2364.000269606326
 20
-2662.500214550947
 30
0.0
 11
-2364.000269606326
 21
-1871.500214550947
 31
0.0
  0
LINE
  5
2C2
330
1F
100
AcDbEntity
  8
0-3_仕上げ
  6
Continuous
 62
     7
370
     9
100
AcDbLine
 10
-2081.500269606317
 20
-2742.500214550947
 30
0.0
 11
-2081.500269606317
 21
-458.5002145509468
 31
0.0
  0
LINE
  5
2C3
330
1F
100
AcDbEntity
  8
0-3_仕上げ
  6
Continuous
 62
     7
370
     9
100
AcDbLine
 10
-2017.50026960632
 20
-2742.500214550947
 30
0.0
 11
-2017.50026960632
 21
-458.5002145509468
 31
0.0
  0
LINE
  5
2C4
330
1F
100
AcDbEntity
  8
0-3_仕上げ
  6
Continuous
 62
     7
370
     9
100
AcDbLine
 10
-1731.000269606315
 20
-1787.500214550947
 30
0.0
 11
-1735.000269606311
 21
-1783.500214550947
 31
0.0
  0
LINE
  5
2C5
330
1F
100
AcDbEntity
  8
0-3_仕上げ
  6
Continuous
 62
     7
370
     9
100
AcDbLine
 10
-1731.000269606315
 20
-1867.500214550947
 30
0.0
 11
-1735.000269606311
 21
-1871.500214550947
 31
0.0
  0
LINE
  5
2C6
330
1F
100
AcDbEntity
  8
0-3_仕上げ
  6
Continuous
 62
     7
370
     9
100
AcDbLine
 10
-1731.000269606315
 20
-2742.500214550947
 30
0.0
 11
-1731.000269606315
 21
-458.5002145509468
 31
0.0
  0
LINE
  5
2C7
330
1F
100
AcDbEntity
  8
0-3_仕上げ
  6
Continuous
 62
     7
370
     9
100
AcDbLine
 10
-1731.000269606315
 20
-534.5002145509467
 30
0.0
 11
-1735.000269606311
 21
-538.5002145509465
 31
0.0
  0
LINE
  5
2C8
330
1F
100
AcDbEntity
  8
0-3_仕上げ
  6
Continuous
 62
    92
370
    13
100
AcDbLine
 10
-1735.000269606311
 20
-1783.500214550947
 30
0.0
 11
-1735.000269606311
 21
-538.5002145509465
 31
0.0
  0
LINE
  5
2C9
330
1F
100
AcDbEntity
  8
0-3_仕上げ
  6
Continuous
 62
     7
370
     9
100
AcDbLine
 10
-1731.000269606315
 20
-2666.500214550947
 30
0.0
 11
-1735.000269606311
 21
-2662.500214550947
 31
0.0
  0
LINE
  5
2CA
330
1F
100
AcDbEntity
  8
0-3_仕上げ
  6
Continuous
 62
    92
370
    13
100
AcDbLine
 10
-1735.000269606311
 20
-2662.500214550947
 30
0.0
 11
-1735.000269606311
 21
-1871.500214550947
 31
0.0
  0
LINE
  5
2CB
330
1F
100
AcDbEntity
  8
0-3_仕上げ
  6
Continuous
 62
     7
370
     9
100
AcDbLine
 10
-2144.500269606327
 20
-1783.500214550947
 30
0.0
 11
-2140.500269606304
 21
-1787.500214550947
 31
0.0
  0
LINE
  5
2CC
330
1F
100
AcDbEntity
  8
0-3_仕上げ
  6
Continuous
 62
     7
370
     9
100
AcDbLine
 10
-2140.500269606304
 20
-1867.500214550947
 30
0.0
 11
-2144.500269606327
 21
-1871.500214550947
 31
0.0
  0
LINE
  5
2CD
330
1F
100
AcDbEntity
  8
0-3_仕上げ
  6
Continuous
 62
     7
370
     9
100
AcDbLine
 10
-2140.500269606304
 20
-2742.500214550947
 30
0.0
 11
-2140.500269606304
 21
-458.5002145509468
 31
0.0
  0
LINE
  5
2CE
330
1F
100
AcDbEntity
  8
0-3_仕上げ
  6
Continuous
 62
     7
370
     9
100
AcDbLine
 10
-2140.500269606304
 20
-534.5002145509467
 30
0.0
 11
-2144.500269606327
 21
-538.5002145509465
 31
0.0
  0
LINE
  5
2CF
330
1F
100
AcDbEntity
  8
0-3_仕上げ
  6
Continuous
 62
    92
370
    13
100
AcDbLine
 10
-2144.500269606327
 20
-1783.500214550947
 30
0.0
 11
-2144.500269606327
 21
-538.5002145509465
 31
0.0
  0
LINE
  5
2D0
330
1F
100
AcDbEntity
  8
0-3_仕上げ
  6
Continuous
 62
     7
370
     9
100
AcDbLine
 10
-2144.500269606327
 20
-2662.500214550947
 30
0.0
 11
-2140.500269606304
 21
-2666.500214550947
 31
0.0
  0
LINE
  5
2D1
330
1F
100
AcDbEntity
  8
0-3_仕上げ
  6
Continuous
 62
    92
370
    13
100
AcDbLine
 10
-2144.500269606327
 20
-2662.500214550947
 30
0.0
 11
-2144.500269606327
 21
-1871.500214550947
 31
0.0
  0
LINE
  5
2D2
330
1F
100
AcDbEntity
  8
0-3_仕上げ
  6
Continuous
 62
     7
370
     9
100
AcDbLine
 10
-1954.500269606309
 20
-1783.500214550947
 30
0.0
 11
-1958.500269606305
 21
-1787.500214550947
 31
0.0
  0
LINE
  5
2D3
330
1F
100
AcDbEntity
  8
0-3_仕上げ
  6
Continuous
 62
     7
370
     9
100
AcDbLine
 10
-1958.500269606305
 20
-1867.500214550947
 30
0.0
 11
-1954.500269606309
 21
-1871.500214550947
 31
0.0
  0
LINE
  5
2D4
330
1F
100
AcDbEntity
  8
0-3_仕上げ
  6
Continuous
 62
     7
370
     9
100
AcDbLine
 10
-1958.500269606305
 20
-2742.500214550947
 30
0.0
 11
-1958.500269606305
 21
-458.5002145509468
 31
0.0
  0
LINE
  5
2D5
330
1F
100
AcDbEntity
  8
0-3_仕上げ
  6
Continuous
 62
     7
370
     9
100
AcDbLine
 10
-1958.500269606305
 20
-534.5002145509467
 30
0.0
 11
-1954.500269606309
 21
-538.5002145509465
 31
0.0
  0
LINE
  5
2D6
330
1F
100
AcDbEntity
  8
0-3_仕上げ
  6
Continuous
 62
    92
370
    13
100
AcDbLine
 10
-1954.500269606309
 20
-1783.500214550947
 30
0.0
 11
-1954.500269606309
 21
-538.5002145509465
 31
0.0
  0
LINE
  5
2D7
330
1F
100
AcDbEntity
  8
0-3_仕上げ
  6
Continuous
 62
     7
370
     9
100
AcDbLine
 10
-1954.500269606309
 20
-2662.500214550947
 30
0.0
 11
-1958.500269606305
 21
-2666.500214550947
 31
0.0
  0
LINE
  5
2D8
330
1F
100
AcDbEntity
  8
0-3_仕上げ
  6
Continuous
 62
     7
370
     9
100
AcDbLine
 10
-2140.500269606304
 20
-534.5002145509467
 30
0.0
 11
-2368.000269606322
 21
-534.5002145509467
 31
0.0
  0
LINE
  5
2D9
330
1F
100
AcDbEntity
  8
0-3_仕上げ
  6
Continuous
 62
    92
370
    13
100
AcDbLine
 10
-2144.500269606327
 20
-538.5002145509465
 30
0.0
 11
-2364.000269606326
 21
-538.5002145509465
 31
0.0
  0
LINE
  5
2DA
330
1F
100
AcDbEntity
  8
0-3_仕上げ
  6
Continuous
 62
     7
370
     9
100
AcDbLine
 10
-2368.000269606322
 20
-2666.500214550947
 30
0.0
 11
-2140.500269606304
 21
-2666.500214550947
 31
0.0
  0
LINE
  5
2DB
330
1F
100
AcDbEntity
  8
0-3_仕上げ
  6
Continuous
 62
    92
370
    13
100
AcDbLine
 10
-2364.000269606326
 20
-2662.500214550947
 30
0.0
 11
-2144.500269606327
 21
-2662.500214550947
 31
0.0
  0
LINE
  5
2DC
330
1F
100
AcDbEntity
  8
0-3_仕上げ
  6
Continuous
 62
     7
370
     9
100
AcDbLine
 10
-2368.000269606322
 20
-1787.500214550947
 30
0.0
 11
-2140.500269606304
 21
-1787.500214550947
 31
0.0
  0
LINE
  5
2DD
330
1F
100
AcDbEntity
  8
0-3_仕上げ
  6
Continuous
 62
    92
370
    13
100
AcDbLine
 10
-2364.000269606326
 20
-1783.500214550947
 30
0.0
 11
-2144.500269606327
 21
-1783.500214550947
 31
0.0
  0
LINE
  5
2DE
330
1F
100
AcDbEntity
  8
0-3_仕上げ
  6
Continuous
 62
    92
370
    13
100
AcDbLine
 10
-2364.000269606326
 20
-1871.500214550947
 30
0.0
 11
-2144.500269606327
 21
-1871.500214550947
 31
0.0
  0
LINE
  5
2DF
330
1F
100
AcDbEntity
  8
0-3_仕上げ
  6
Continuous
 62
     7
370
     9
100
AcDbLine
 10
-2368.000269606322
 20
-1867.500214550947
 30
0.0
 11
-2140.500269606304
 21
-1867.500214550947
 31
0.0
  0
LINE
  5
2E0
330
1F
100
AcDbEntity
  8
0-3_仕上げ
  6
Continuous
 62
    92
370
    13
100
AcDbLine
 10
-1735.000269606311
 20
-1783.500214550947
 30
0.0
 11
-1954.500269606309
 21
-1783.500214550947
 31
0.0
  0
LINE
  5
2E1
330
1F
100
AcDbEntity
  8
0-3_仕上げ
  6
Continuous
 62
     7
370
     9
100
AcDbLine
 10
-1731.000269606315
 20
-1787.500214550947
 30
0.0
 11
-1958.500269606305
 21
-1787.500214550947
 31
0.0
  0
LINE
  5
2E2
330
1F
100
AcDbEntity
  8
0-3_仕上げ
  6
Continuous
 62
    92
370
    13
100
AcDbLine
 10
-1735.000269606311
 20
-1871.500214550947
 30
0.0
 11
-1954.500269606309
 21
-1871.500214550947
 31
0.0
  0
LINE
  5
2E3
330
1F
100
AcDbEntity
  8
0-3_仕上げ
  6
Continuous
 62
     7
370
     9
100
AcDbLine
 10
-1731.000269606315
 20
-1867.500214550947
 30
0.0
 11
-1958.500269606305
 21
-1867.500214550947
 31
0.0
  0
LINE
  5
2E4
330
1F
100
AcDbEntity
  8
0-3_仕上げ
  6
Continuous
 62
     7
370
     9
100
AcDbLine
 10
-1577.000269606318
 20
-1787.500214550947
 30
0.0
 11
-1573.000269606322
 21
-1783.500214550947
 31
0.0
  0
LINE
  5
2E5
330
1F
100
AcDbEntity
  8
0-3_仕上げ
  6
Continuous
 62
     7
370
     9
100
AcDbLine
 10
-1577.000269606318
 20
-1867.500214550947
 30
0.0
 11
-1573.000269606322
 21
-1871.500214550947
 31
0.0
  0
LINE
  5
2E6
330
1F
100
AcDbEntity
  8
0-3_仕上げ
  6
Continuous
 62
     7
370
     9
100
AcDbLine
 10
-1577.000269606318
 20
-2742.500214550947
 30
0.0
 11
-1577.000269606318
 21
-458.5002145509468
 31
0.0
  0
LINE
  5
2E7
330
1F
100
AcDbEntity
  8
0-3_仕上げ
  6
Continuous
 62
     7
370
     9
100
AcDbLine
 10
-1577.000269606318
 20
-534.5002145509467
 30
0.0
 11
-1573.000269606322
 21
-538.5002145509465
 31
0.0
  0
LINE
  5
2E8
330
1F
100
AcDbEntity
  8
0-3_仕上げ
  6
Continuous
 62
    92
370
    13
100
AcDbLine
 10
-1573.000269606322
 20
-1783.500214550947
 30
0.0
 11
-1573.000269606322
 21
-538.5002145509465
 31
0.0
  0
LINE
  5
2E9
330
1F
100
AcDbEntity
  8
0-3_仕上げ
  6
Continuous
 62
     7
370
     9
100
AcDbLine
 10
-1577.000269606318
 20
-2666.500214550947
 30
0.0
 11
-1573.000269606322
 21
-2662.500214550947
 31
0.0
  0
LINE
  5
2EA
330
1F
100
AcDbEntity
  8
0-3_仕上げ
  6
Continuous
 62
    92
370
    13
100
AcDbLine
 10
-1573.000269606322
 20
-2662.500214550947
 30
0.0
 11
-1573.000269606322
 21
-1871.500214550947
 31
0.0
  0
LINE
  5
2EB
330
1F
100
AcDbEntity
  8
0-3_仕上げ
  6
Continuous
 62
     7
370
     9
100
AcDbLine
 10
-1290.500269606313
 20
-2742.500214550947
 30
0.0
 11
-1290.500269606313
 21
-458.5002145509468
 31
0.0
  0
LINE
  5
2EC
330
1F
100
AcDbEntity
  8
0-3_仕上げ
  6
Continuous
 62
     7
370
     9
100
AcDbLine
 10
-1226.500269606316
 20
-2742.500214550947
 30
0.0
 11
-1226.500269606316
 21
-458.5002145509468
 31
0.0
  0
LINE
  5
2ED
330
1F
100
AcDbEntity
  8
0-3_仕上げ
  6
Continuous
 62
     7
370
     9
100
AcDbLine
 10
-940.0002696063109
 20
-1787.500214550947
 30
0.0
 11
-944.0002696063073
 21
-1783.500214550947
 31
0.0
  0
LINE
  5
2EE
330
1F
100
AcDbEntity
  8
0-3_仕上げ
  6
Continuous
 62
     7
370
     9
100
AcDbLine
 10
-940.0002696063109
 20
-1867.500214550947
 30
0.0
 11
-944.0002696063073
 21
-1871.500214550947
 31
0.0
  0
LINE
  5
2EF
330
1F
100
AcDbEntity
  8
0-3_仕上げ
  6
Continuous
 62
     7
370
     9
100
AcDbLine
 10
-940.0002696063109
 20
-2742.500214550947
 30
0.0
 11
-940.0002696063109
 21
-458.5002145509468
 31
0.0
  0
LINE
  5
2F0
330
1F
100
AcDbEntity
  8
0-3_仕上げ
  6
Continuous
 62
     7
370
     9
100
AcDbLine
 10
-940.0002696063109
 20
-534.5002145509467
 30
0.0
 11
-944.0002696063073
 21
-538.5002145509465
 31
0.0
  0
LINE
  5
2F1
330
1F
100
AcDbEntity
  8
0-3_仕上げ
  6
Continuous
 62
    92
370
    13
100
AcDbLine
 10
-944.0002696063073
 20
-1783.500214550947
 30
0.0
 11
-944.0002696063073
 21
-538.5002145509465
 31
0.0
  0
LINE
  5
2F2
330
1F
100
AcDbEntity
  8
0-3_仕上げ
  6
Continuous
 62
     7
370
     9
100
AcDbLine
 10
-940.0002696063109
 20
-2666.500214550947
 30
0.0
 11
-944.0002696063073
 21
-2662.500214550947
 31
0.0
  0
LINE
  5
2F3
330
1F
100
AcDbEntity
  8
0-3_仕上げ
  6
Continuous
 62
    92
370
    13
100
AcDbLine
 10
-944.0002696063073
 20
-2662.500214550947
 30
0.0
 11
-944.0002696063073
 21
-1871.500214550947
 31
0.0
  0
LINE
  5
2F4
330
1F
100
AcDbEntity
  8
0-3_仕上げ
  6
Continuous
 62
     7
370
     9
100
AcDbLine
 10
-1353.500269606324
 20
-1783.500214550947
 30
0.0
 11
-1349.500269606327
 21
-1787.500214550947
 31
0.0
  0
LINE
  5
2F5
330
1F
100
AcDbEntity
  8
0-3_仕上げ
  6
Continuous
 62
     7
370
     9
100
AcDbLine
 10
-1349.500269606327
 20
-1867.500214550947
 30
0.0
 11
-1353.500269606324
 21
-1871.500214550947
 31
0.0
  0
LINE
  5
2F6
330
1F
100
AcDbEntity
  8
0-3_仕上げ
  6
Continuous
 62
     7
370
     9
100
AcDbLine
 10
-1349.500269606327
 20
-2742.500214550947
 30
0.0
 11
-1349.500269606327
 21
-458.5002145509468
 31
0.0
  0
LINE
  5
2F7
330
1F
100
AcDbEntity
  8
0-3_仕上げ
  6
Continuous
 62
     7
370
     9
100
AcDbLine
 10
-1349.500269606327
 20
-534.5002145509467
 30
0.0
 11
-1353.500269606324
 21
-538.5002145509465
 31
0.0
  0
LINE
  5
2F8
330
1F
100
AcDbEntity
  8
0-3_仕上げ
  6
Continuous
 62
    92
370
    13
100
AcDbLine
 10
-1353.500269606324
 20
-1783.500214550947
 30
0.0
 11
-1353.500269606324
 21
-538.5002145509465
 31
0.0
  0
LINE
  5
2F9
330
1F
100
AcDbEntity
  8
0-3_仕上げ
  6
Continuous
 62
     7
370
     9
100
AcDbLine
 10
-1353.500269606324
 20
-2662.500214550947
 30
0.0
 11
-1349.500269606327
 21
-2666.500214550947
 31
0.0
  0
LINE
  5
2FA
330
1F
100
AcDbEntity
  8
0-3_仕上げ
  6
Continuous
 62
    92
370
    13
100
AcDbLine
 10
-1353.500269606324
 20
-2662.500214550947
 30
0.0
 11
-1353.500269606324
 21
-1871.500214550947
 31
0.0
  0
LINE
  5
2FB
330
1F
100
AcDbEntity
  8
0-3_仕上げ
  6
Continuous
 62
     7
370
     9
100
AcDbLine
 10
-1163.500269606305
 20
-1783.500214550947
 30
0.0
 11
-1167.500269606329
 21
-1787.500214550947
 31
0.0
  0
LINE
  5
2FC
330
1F
100
AcDbEntity
  8
0-3_仕上げ
  6
Continuous
 62
     7
370
     9
100
AcDbLine
 10
-1167.500269606329
 20
-1867.500214550947
 30
0.0
 11
-1163.500269606305
 21
-1871.500214550947
 31
0.0
  0
LINE
  5
2FD
330
1F
100
AcDbEntity
  8
0-3_仕上げ
  6
Continuous
 62
     7
370
     9
100
AcDbLine
 10
-1167.500269606329
 20
-2742.500214550947
 30
0.0
 11
-1167.500269606329
 21
-458.5002145509468
 31
0.0
  0
LINE
  5
2FE
330
1F
100
AcDbEntity
  8
0-3_仕上げ
  6
Continuous
 62
     7
370
     9
100
AcDbLine
 10
-1167.500269606329
 20
-534.5002145509467
 30
0.0
 11
-1163.500269606305
 21
-538.5002145509465
 31
0.0
  0
LINE
  5
2FF
330
1F
100
AcDbEntity
  8
0-3_仕上げ
  6
Continuous
 62
    92
370
    13
100
AcDbLine
 10
-1163.500269606305
 20
-1783.500214550947
 30
0.0
 11
-1163.500269606305
 21
-538.5002145509465
 31
0.0
  0
LINE
  5
300
330
1F
100
AcDbEntity
  8
0-3_仕上げ
  6
Continuous
 62
     7
370
     9
100
AcDbLine
 10
-1163.500269606305
 20
-2662.500214550947
 30
0.0
 11
-1167.500269606329
 21
-2666.500214550947
 31
0.0
  0
LINE
  5
301
330
1F
100
AcDbEntity
  8
0-3_仕上げ
  6
Continuous
 62
    92
370
    13
100
AcDbLine
 10
-1163.500269606305
 20
-2662.500214550947
 30
0.0
 11
-1163.500269606305
 21
-1871.500214550947
 31
0.0
  0
LINE
  5
302
330
1F
100
AcDbEntity
  8
0-3_仕上げ
  6
Continuous
 62
     7
370
     9
100
AcDbLine
 10
-1349.500269606327
 20
-534.5002145509467
 30
0.0
 11
-1577.000269606318
 21
-534.5002145509467
 31
0.0
  0
LINE
  5
303
330
1F
100
AcDbEntity
  8
0-3_仕上げ
  6
Continuous
 62
    92
370
    13
100
AcDbLine
 10
-1353.500269606324
 20
-538.5002145509465
 30
0.0
 11
-1573.000269606322
 21
-538.5002145509465
 31
0.0
  0
LINE
  5
304
330
1F
100
AcDbEntity
  8
0-3_仕上げ
  6
Continuous
 62
     7
370
     9
100
AcDbLine
 10
-1577.000269606318
 20
-2666.500214550947
 30
0.0
 11
-1349.500269606327
 21
-2666.500214550947
 31
0.0
  0
LINE
  5
305
330
1F
100
AcDbEntity
  8
0-3_仕上げ
  6
Continuous
 62
    92
370
    13
100
AcDbLine
 10
-1573.000269606322
 20
-2662.500214550947
 30
0.0
 11
-1353.500269606324
 21
-2662.500214550947
 31
0.0
  0
LINE
  5
306
330
1F
100
AcDbEntity
  8
0-3_仕上げ
  6
Continuous
 62
     7
370
     9
100
AcDbLine
 10
-1577.000269606318
 20
-1787.500214550947
 30
0.0
 11
-1349.500269606327
 21
-1787.500214550947
 31
0.0
  0
LINE
  5
307
330
1F
100
AcDbEntity
  8
0-3_仕上げ
  6
Continuous
 62
    92
370
    13
100
AcDbLine
 10
-1573.000269606322
 20
-1783.500214550947
 30
0.0
 11
-1353.500269606324
 21
-1783.500214550947
 31
0.0
  0
LINE
  5
308
330
1F
100
AcDbEntity
  8
0-3_仕上げ
  6
Continuous
 62
    92
370
    13
100
AcDbLine
 10
-1573.000269606322
 20
-1871.500214550947
 30
0.0
 11
-1353.500269606324
 21
-1871.500214550947
 31
0.0
  0
LINE
  5
309
330
1F
100
AcDbEntity
  8
0-3_仕上げ
  6
Continuous
 62
     7
370
     9
100
AcDbLine
 10
-1577.000269606318
 20
-1867.500214550947
 30
0.0
 11
-1349.500269606327
 21
-1867.500214550947
 31
0.0
  0
LINE
  5
30A
330
1F
100
AcDbEntity
  8
0-3_仕上げ
  6
Continuous
 62
    92
370
    13
100
AcDbLine
 10
-944.0002696063073
 20
-1783.500214550947
 30
0.0
 11
-1163.500269606305
 21
-1783.500214550947
 31
0.0
  0
LINE
  5
30B
330
1F
100
AcDbEntity
  8
0-3_仕上げ
  6
Continuous
 62
     7
370
     9
100
AcDbLine
 10
-940.0002696063109
 20
-1787.500214550947
 30
0.0
 11
-1167.500269606329
 21
-1787.500214550947
 31
0.0
  0
LINE
  5
30C
330
1F
100
AcDbEntity
  8
0-3_仕上げ
  6
Continuous
 62
    92
370
    13
100
AcDbLine
 10
-944.0002696063073
 20
-1871.500214550947
 30
0.0
 11
-1163.500269606305
 21
-1871.500214550947
 31
0.0
  0
LINE
  5
30D
330
1F
100
AcDbEntity
  8
0-3_仕上げ
  6
Continuous
 62
     7
370
     9
100
AcDbLine
 10
-940.0002696063109
 20
-1867.500214550947
 30
0.0
 11
-1167.500269606329
 21
-1867.500214550947
 31
0.0
  0
LINE
  5
30E
330
1F
100
AcDbEntity
  8
0-1_通り芯
  6
JWW_CENTER1
 62
   120
370
     5
100
AcDbLine
 10
-2316.750269606317
 20
-1839.500214550947
 30
0.0
 11
-2191.750269606317
 21
-1839.500214550947
 31
0.0
  0
LINE
  5
30F
330
1F
100
AcDbEntity
  8
0-1_通り芯
  6
JWW_CENTER1
 62
   120
370
     5
100
AcDbLine
 10
-2254.250269606318
 20
-1823.000214550947
 30
0.0
 11
-2254.250269606318
 21
-1856.000214550947
 31
0.0
  0
LINE
  5
310
330
1F
100
AcDbEntity
  8
0-1_通り芯
  6
JWW_CENTER1
 62
   120
370
     5
100
AcDbLine
 10
-1907.25026960632
 20
-1839.500214550947
 30
0.0
 11
-1782.250269606319
 21
-1839.500214550947
 31
0.0
  0
LINE
  5
311
330
1F
100
AcDbEntity
  8
0-1_通り芯
  6
JWW_CENTER1
 62
   120
370
     5
100
AcDbLine
 10
-1844.75026960632
 20
-1823.000214550947
 30
0.0
 11
-1844.75026960632
 21
-1856.000214550947
 31
0.0
  0
LINE
  5
312
330
1F
100
AcDbEntity
  8
0-1_通り芯
  6
JWW_CENTER1
 62
   120
370
     5
100
AcDbLine
 10
-1525.750269606332
 20
-1839.500214550947
 30
0.0
 11
-1400.750269606332
 21
-1839.500214550947
 31
0.0
  0
LINE
  5
313
330
1F
100
AcDbEntity
  8
0-1_通り芯
  6
JWW_CENTER1
 62
   120
370
     5
100
AcDbLine
 10
-1463.250269606333
 20
-1823.000214550947
 30
0.0
 11
-1463.250269606333
 21
-1856.000214550947
 31
0.0
  0
LINE
  5
314
330
1F
100
AcDbEntity
  8
0-1_通り芯
  6
JWW_CENTER1
 62
   120
370
     5
100
AcDbLine
 10
-1116.250269606324
 20
-1839.500214550947
 30
0.0
 11
-991.2502696063232
 21
-1839.500214550947
 31
0.0
  0
LINE
  5
315
330
1F
100
AcDbEntity
  8
0-1_通り芯
  6
JWW_CENTER1
 62
   120
370
     5
100
AcDbLine
 10
-1053.750269606324
 20
-1823.000214550947
 30
0.0
 11
-1053.750269606324
 21
-1856.000214550947
 31
0.0
  0
LINE
  5
316
330
1F
100
AcDbEntity
  8
0-3_仕上げ
  6
Continuous
 62
    92
370
    13
100
AcDbLine
 10
-1735.000269606311
 20
-2662.500214550947
 30
0.0
 11
-1954.500269606309
 21
-2662.500214550947
 31
0.0
  0
LINE
  5
317
330
1F
100
AcDbEntity
  8
0-3_仕上げ
  6
Continuous
 62
    92
370
    13
100
AcDbLine
 10
-1954.500269606309
 20
-2662.500214550947
 30
0.0
 11
-1954.500269606309
 21
-1871.500214550947
 31
0.0
  0
LINE
  5
318
330
1F
100
AcDbEntity
  8
0-3_仕上げ
  6
Continuous
 62
     7
370
     9
100
AcDbLine
 10
-1731.000269606315
 20
-2666.500214550947
 30
0.0
 11
-1958.500269606305
 21
-2666.500214550947
 31
0.0
  0
LINE
  5
319
330
1F
100
AcDbEntity
  8
0-3_仕上げ
  6
Continuous
 62
     7
370
     9
100
AcDbLine
 10
-1167.500269606329
 20
-534.5002145509467
 30
0.0
 11
-940.0002696063109
 21
-534.5002145509467
 31
0.0
  0
LINE
  5
31A
330
1F
100
AcDbEntity
  8
0-3_仕上げ
  6
Continuous
 62
    92
370
    13
100
AcDbLine
 10
-1163.500269606305
 20
-538.5002145509465
 30
0.0
 11
-944.0002696063073
 21
-538.5002145509465
 31
0.0
  0
LINE
  5
31B
330
1F
100
AcDbEntity
  8
0-3_仕上げ
  6
Continuous
 62
     7
370
     9
100
AcDbLine
 10
-940.0002696063109
 20
-2666.500214550947
 30
0.0
 11
-1167.500269606329
 21
-2666.500214550947
 31
0.0
  0
LINE
  5
31C
330
1F
100
AcDbEntity
  8
0-3_仕上げ
  6
Continuous
 62
    92
370
    13
100
AcDbLine
 10
-944.0002696063073
 20
-2662.500214550947
 30
0.0
 11
-1163.500269606305
 21
-2662.500214550947
 31
0.0
  0
LINE
  5
31D
330
1F
100
AcDbEntity
  8
0-3_仕上げ
  6
Continuous
 62
     7
370
     9
100
AcDbLine
 10
-1958.500269606305
 20
-534.5002145509467
 30
0.0
 11
-1731.000269606315
 21
-534.5002145509467
 31
0.0
  0
LINE
  5
31E
330
1F
100
AcDbEntity
  8
0-3_仕上げ
  6
Continuous
 62
    92
370
    13
100
AcDbLine
 10
-1954.500269606309
 20
-538.5002145509465
 30
0.0
 11
-1735.000269606311
 21
-538.5002145509465
 31
0.0
  0
LINE
  5
31F
330
1F
100
AcDbEntity
  8
0-9_取手彫込
  6
Continuous
 62
    92
370
    13
100
AcDbLine
 10
-3159.000269606341
 20
2154.000148463893
 30
0.0
 11
-2931.500269606303
 21
2154.000148463893
 31
0.0
  0
LINE
  5
320
330
1F
100
AcDbEntity
  8
0-9_取手彫込
  6
Continuous
 62
    92
370
    13
100
AcDbLine
 10
-3159.000269606313
 20
2128.000148463893
 30
0.0
 11
-2931.500269606303
 21
2128.000148463893
 31
0.0
  0
LINE
  5
321
330
1F
100
AcDbEntity
  8
0-9_取手彫込
  6
Continuous
 62
     7
370
     9
100
AcDbLine
 10
-2931.500269606294
 20
2154.000148463893
 30
0.0
 11
-2931.500269606294
 21
2128.000148463893
 31
0.0
  0
LINE
  5
322
330
1F
100
AcDbEntity
  8
0-9_取手彫込
  6
Continuous
 62
     7
370
     9
100
AcDbLine
 10
-3159.000269606341
 20
2154.000148463893
 30
0.0
 11
-3159.000269606341
 21
2128.000148463893
 31
0.0
  0
LINE
  5
323
330
1F
100
AcDbEntity
  8
0-9_取手彫込
  6
Continuous
 62
    92
370
    13
100
AcDbLine
 10
-2749.500269606324
 20
2154.000148463893
 30
0.0
 11
-2522.000269606287
 21
2154.000148463893
 31
0.0
  0
LINE
  5
324
330
1F
100
AcDbEntity
  8
0-9_取手彫込
  6
Continuous
 62
    92
370
    13
100
AcDbLine
 10
-2749.500269606297
 20
2128.000148463893
 30
0.0
 11
-2522.000269606287
 21
2128.000148463893
 31
0.0
  0
LINE
  5
325
330
1F
100
AcDbEntity
  8
0-9_取手彫込
  6
Continuous
 62
     7
370
     9
100
AcDbLine
 10
-2522.000269606278
 20
2154.000148463893
 30
0.0
 11
-2522.000269606278
 21
2128.000148463893
 31
0.0
  0
LINE
  5
326
330
1F
100
AcDbEntity
  8
0-9_取手彫込
  6
Continuous
 62
     7
370
     9
100
AcDbLine
 10
-2749.500269606324
 20
2154.000148463893
 30
0.0
 11
-2749.500269606324
 21
2128.000148463893
 31
0.0
  0
LINE
  5
327
330
1F
100
AcDbEntity
  8
0-9_取手彫込
  6
Continuous
 62
    92
370
    13
100
AcDbLine
 10
-2368.000269606337
 20
2154.000148463893
 30
0.0
 11
-2140.500269606299
 21
2154.000148463893
 31
0.0
  0
LINE
  5
328
330
1F
100
AcDbEntity
  8
0-9_取手彫込
  6
Continuous
 62
    92
370
    13
100
AcDbLine
 10
-2368.00026960631
 20
2128.000148463893
 30
0.0
 11
-2140.500269606299
 21
2128.000148463893
 31
0.0
  0
LINE
  5
329
330
1F
100
AcDbEntity
  8
0-9_取手彫込
  6
Continuous
 62
     7
370
     9
100
AcDbLine
 10
-2140.500269606291
 20
2154.000148463893
 30
0.0
 11
-2140.500269606291
 21
2128.000148463893
 31
0.0
  0
LINE
  5
32A
330
1F
100
AcDbEntity
  8
0-9_取手彫込
  6
Continuous
 62
     7
370
     9
100
AcDbLine
 10
-2368.000269606337
 20
2154.000148463893
 30
0.0
 11
-2368.000269606337
 21
2128.000148463893
 31
0.0
  0
LINE
  5
32B
330
1F
100
AcDbEntity
  8
0-9_取手彫込
  6
Continuous
 62
    92
370
    13
100
AcDbLine
 10
-1958.500269606348
 20
2154.000148463893
 30
0.0
 11
-1731.00026960631
 21
2154.000148463893
 31
0.0
  0
LINE
  5
32C
330
1F
100
AcDbEntity
  8
0-9_取手彫込
  6
Continuous
 62
    92
370
    13
100
AcDbLine
 10
-1958.500269606321
 20
2128.000148463893
 30
0.0
 11
-1731.00026960631
 21
2128.000148463893
 31
0.0
  0
LINE
  5
32D
330
1F
100
AcDbEntity
  8
0-9_取手彫込
  6
Continuous
 62
     7
370
     9
100
AcDbLine
 10
-1731.000269606302
 20
2154.000148463893
 30
0.0
 11
-1731.000269606302
 21
2128.000148463893
 31
0.0
  0
LINE
  5
32E
330
1F
100
AcDbEntity
  8
0-9_取手彫込
  6
Continuous
 62
     7
370
     9
100
AcDbLine
 10
-1958.500269606348
 20
2154.000148463893
 30
0.0
 11
-1958.500269606348
 21
2128.000148463893
 31
0.0
  0
LINE
  5
32F
330
1F
100
AcDbEntity
  8
0-9_取手彫込
  6
Continuous
 62
    92
370
    13
100
AcDbLine
 10
2035.49922829702
 20
2154.000148463893
 30
0.0
 11
2262.999228297059
 21
2154.000148463893
 31
0.0
  0
LINE
  5
330
330
1F
100
AcDbEntity
  8
0-9_取手彫込
  6
Continuous
 62
    92
370
    13
100
AcDbLine
 10
2035.499228297047
 20
2128.000148463893
 30
0.0
 11
2262.999228297059
 21
2128.000148463893
 31
0.0
  0
LINE
  5
331
330
1F
100
AcDbEntity
  8
0-9_取手彫込
  6
Continuous
 62
     7
370
     9
100
AcDbLine
 10
2262.999228297067
 20
2154.000148463893
 30
0.0
 11
2262.999228297067
 21
2128.000148463893
 31
0.0
  0
LINE
  5
332
330
1F
100
AcDbEntity
  8
0-9_取手彫込
  6
Continuous
 62
     7
370
     9
100
AcDbLine
 10
2035.49922829702
 20
2154.000148463893
 30
0.0
 11
2035.49922829702
 21
2128.000148463893
 31
0.0
  0
LINE
  5
333
330
1F
100
AcDbEntity
  8
0-9_取手彫込
  6
Continuous
 62
    92
370
    13
100
AcDbLine
 10
2444.999228297037
 20
2154.000148463893
 30
0.0
 11
2672.499228297075
 21
2154.000148463893
 31
0.0
  0
LINE
  5
334
330
1F
100
AcDbEntity
  8
0-9_取手彫込
  6
Continuous
 62
    92
370
    13
100
AcDbLine
 10
2444.999228297064
 20
2128.000148463893
 30
0.0
 11
2672.499228297075
 21
2128.000148463893
 31
0.0
  0
LINE
  5
335
330
1F
100
AcDbEntity
  8
0-9_取手彫込
  6
Continuous
 62
     7
370
     9
100
AcDbLine
 10
2672.499228297084
 20
2154.000148463893
 30
0.0
 11
2672.499228297084
 21
2128.000148463893
 31
0.0
  0
LINE
  5
336
330
1F
100
AcDbEntity
  8
0-9_取手彫込
  6
Continuous
 62
     7
370
     9
100
AcDbLine
 10
2444.999228297037
 20
2154.000148463893
 30
0.0
 11
2444.999228297037
 21
2128.000148463893
 31
0.0
  0
LINE
  5
337
330
1F
100
AcDbEntity
  8
0-9_取手彫込
  6
Continuous
 62
    92
370
    13
100
AcDbLine
 10
2826.499228297024
 20
2154.000148463893
 30
0.0
 11
3053.999228297062
 21
2154.000148463893
 31
0.0
  0
LINE
  5
338
330
1F
100
AcDbEntity
  8
0-9_取手彫込
  6
Continuous
 62
    92
370
    13
100
AcDbLine
 10
2826.499228297051
 20
2128.000148463893
 30
0.0
 11
3053.999228297062
 21
2128.000148463893
 31
0.0
  0
LINE
  5
339
330
1F
100
AcDbEntity
  8
0-9_取手彫込
  6
Continuous
 62
     7
370
     9
100
AcDbLine
 10
3053.99922829707
 20
2154.000148463893
 30
0.0
 11
3053.99922829707
 21
2128.000148463893
 31
0.0
  0
LINE
  5
33A
330
1F
100
AcDbEntity
  8
0-9_取手彫込
  6
Continuous
 62
     7
370
     9
100
AcDbLine
 10
2826.499228297024
 20
2154.000148463893
 30
0.0
 11
2826.499228297024
 21
2128.000148463893
 31
0.0
  0
LINE
  5
33B
330
1F
100
AcDbEntity
  8
0-9_取手彫込
  6
Continuous
 62
    92
370
    13
100
AcDbLine
 10
3235.99922829704
 20
2154.000148463893
 30
0.0
 11
3463.499228297079
 21
2154.000148463893
 31
0.0
  0
LINE
  5
33C
330
1F
100
AcDbEntity
  8
0-9_取手彫込
  6
Continuous
 62
    92
370
    13
100
AcDbLine
 10
3235.999228297067
 20
2128.000148463893
 30
0.0
 11
3463.499228297079
 21
2128.000148463893
 31
0.0
  0
LINE
  5
33D
330
1F
100
AcDbEntity
  8
0-9_取手彫込
  6
Continuous
 62
     7
370
     9
100
AcDbLine
 10
3463.499228297087
 20
2154.000148463893
 30
0.0
 11
3463.499228297087
 21
2128.000148463893
 31
0.0
  0
LINE
  5
33E
330
1F
100
AcDbEntity
  8
0-9_取手彫込
  6
Continuous
 62
     7
370
     9
100
AcDbLine
 10
3235.99922829704
 20
2154.000148463893
 30
0.0
 11
3235.99922829704
 21
2128.000148463893
 31
0.0
  0
LINE
  5
33F
330
1F
100
AcDbEntity
  8
0-9_取手彫込
  6
Continuous
 62
    92
370
    13
100
AcDbLine
 10
3617.499228297023
 20
2154.000148463893
 30
0.0
 11
3844.99922829706
 21
2154.000148463893
 31
0.0
  0
LINE
  5
340
330
1F
100
AcDbEntity
  8
0-9_取手彫込
  6
Continuous
 62
    92
370
    13
100
AcDbLine
 10
3617.499228297051
 20
2128.000148463893
 30
0.0
 11
3844.99922829706
 21
2128.000148463893
 31
0.0
  0
LINE
  5
341
330
1F
100
AcDbEntity
  8
0-9_取手彫込
  6
Continuous
 62
     7
370
     9
100
AcDbLine
 10
3844.999228297069
 20
2154.000148463893
 30
0.0
 11
3844.999228297069
 21
2128.000148463893
 31
0.0
  0
LINE
  5
342
330
1F
100
AcDbEntity
  8
0-9_取手彫込
  6
Continuous
 62
     7
370
     9
100
AcDbLine
 10
3617.499228297023
 20
2154.000148463893
 30
0.0
 11
3617.499228297023
 21
2128.000148463893
 31
0.0
  0
LINE
  5
343
330
1F
100
AcDbEntity
  8
0-9_取手彫込
  6
Continuous
 62
    92
370
    13
100
AcDbLine
 10
4026.99922829704
 20
2154.000148463893
 30
0.0
 11
4254.499228297076
 21
2154.000148463893
 31
0.0
  0
LINE
  5
344
330
1F
100
AcDbEntity
  8
0-9_取手彫込
  6
Continuous
 62
    92
370
    13
100
AcDbLine
 10
4026.999228297067
 20
2128.000148463893
 30
0.0
 11
4254.499228297076
 21
2128.000148463893
 31
0.0
  0
LINE
  5
345
330
1F
100
AcDbEntity
  8
0-9_取手彫込
  6
Continuous
 62
     7
370
     9
100
AcDbLine
 10
4254.499228297086
 20
2154.000148463893
 30
0.0
 11
4254.499228297086
 21
2128.000148463893
 31
0.0
  0
LINE
  5
346
330
1F
100
AcDbEntity
  8
0-9_取手彫込
  6
Continuous
 62
     7
370
     9
100
AcDbLine
 10
4026.99922829704
 20
2154.000148463893
 30
0.0
 11
4026.99922829704
 21
2128.000148463893
 31
0.0
  0
LINE
  5
347
330
1F
100
AcDbEntity
  8
0-9_取手彫込
  6
Continuous
 62
    92
370
    13
100
AcDbLine
 10
-1577.000269606338
 20
-1826.500214550947
 30
0.0
 11
-1349.5002696063
 21
-1826.500214550947
 31
0.0
  0
LINE
  5
348
330
1F
100
AcDbEntity
  8
0-9_取手彫込
  6
Continuous
 62
    92
370
    13
100
AcDbLine
 10
-1577.00026960631
 20
-1852.500214550947
 30
0.0
 11
-1349.5002696063
 21
-1852.500214550947
 31
0.0
  0
LINE
  5
349
330
1F
100
AcDbEntity
  8
0-9_取手彫込
  6
Continuous
 62
     7
370
     9
100
AcDbLine
 10
-1349.500269606292
 20
-1826.500214550947
 30
0.0
 11
-1349.500269606292
 21
-1852.500214550947
 31
0.0
  0
LINE
  5
34A
330
1F
100
AcDbEntity
  8
0-9_取手彫込
  6
Continuous
 62
     7
370
     9
100
AcDbLine
 10
-1577.000269606338
 20
-1826.500214550947
 30
0.0
 11
-1577.000269606338
 21
-1852.500214550947
 31
0.0
  0
LINE
  5
34B
330
1F
100
AcDbEntity
  8
0-9_取手彫込
  6
Continuous
 62
    92
370
    13
100
AcDbLine
 10
-1167.500269606321
 20
-1826.500214550947
 30
0.0
 11
-940.0002696062836
 21
-1826.500214550947
 31
0.0
  0
LINE
  5
34C
330
1F
100
AcDbEntity
  8
0-9_取手彫込
  6
Continuous
 62
    92
370
    13
100
AcDbLine
 10
-1167.500269606294
 20
-1852.500214550947
 30
0.0
 11
-940.0002696062836
 21
-1852.500214550947
 31
0.0
  0
LINE
  5
34D
330
1F
100
AcDbEntity
  8
0-9_取手彫込
  6
Continuous
 62
     7
370
     9
100
AcDbLine
 10
-940.0002696062751
 20
-1826.500214550947
 30
0.0
 11
-940.0002696062751
 21
-1852.500214550947
 31
0.0
  0
LINE
  5
34E
330
1F
100
AcDbEntity
  8
0-9_取手彫込
  6
Continuous
 62
     7
370
     9
100
AcDbLine
 10
-1167.500269606321
 20
-1826.500214550947
 30
0.0
 11
-1167.500269606321
 21
-1852.500214550947
 31
0.0
  0
LINE
  5
34F
330
1F
100
AcDbEntity
  8
0-9_取手彫込
  6
Continuous
 62
    92
370
    13
100
AcDbLine
 10
-2368.000269606342
 20
-1826.500214550947
 30
0.0
 11
-2140.500269606304
 21
-1826.500214550947
 31
0.0
  0
LINE
  5
350
330
1F
100
AcDbEntity
  8
0-9_取手彫込
  6
Continuous
 62
    92
370
    13
100
AcDbLine
 10
-2368.000269606314
 20
-1852.500214550947
 30
0.0
 11
-2140.500269606304
 21
-1852.500214550947
 31
0.0
  0
LINE
  5
351
330
1F
100
AcDbEntity
  8
0-9_取手彫込
  6
Continuous
 62
     7
370
     9
100
AcDbLine
 10
-2140.500269606295
 20
-1826.500214550947
 30
0.0
 11
-2140.500269606295
 21
-1852.500214550947
 31
0.0
  0
LINE
  5
352
330
1F
100
AcDbEntity
  8
0-9_取手彫込
  6
Continuous
 62
     7
370
     9
100
AcDbLine
 10
-2368.000269606342
 20
-1826.500214550947
 30
0.0
 11
-2368.000269606342
 21
-1852.500214550947
 31
0.0
  0
LINE
  5
353
330
1F
100
AcDbEntity
  8
0-9_取手彫込
  6
Continuous
 62
    92
370
    13
100
AcDbLine
 10
-1958.500269606325
 20
-1826.500214550947
 30
0.0
 11
-1731.000269606287
 21
-1826.500214550947
 31
0.0
  0
LINE
  5
354
330
1F
100
AcDbEntity
  8
0-9_取手彫込
  6
Continuous
 62
    92
370
    13
100
AcDbLine
 10
-1958.500269606298
 20
-1852.500214550947
 30
0.0
 11
-1731.000269606287
 21
-1852.500214550947
 31
0.0
  0
LINE
  5
355
330
1F
100
AcDbEntity
  8
0-9_取手彫込
  6
Continuous
 62
     7
370
     9
100
AcDbLine
 10
-1731.000269606279
 20
-1826.500214550947
 30
0.0
 11
-1731.000269606279
 21
-1852.500214550947
 31
0.0
  0
LINE
  5
356
330
1F
100
AcDbEntity
  8
0-9_取手彫込
  6
Continuous
 62
     7
370
     9
100
AcDbLine
 10
-1958.500269606325
 20
-1826.500214550947
 30
0.0
 11
-1958.500269606325
 21
-1852.500214550947
 31
0.0
  0
LINE
  5
357
330
1F
100
AcDbEntity
  8
0-9_取手彫込
  6
Continuous
 62
    92
370
    13
100
AcDbLine
 10
-3159.000269606337
 20
-1826.500214550947
 30
0.0
 11
-2931.500269606299
 21
-1826.500214550947
 31
0.0
  0
LINE
  5
358
330
1F
100
AcDbEntity
  8
0-9_取手彫込
  6
Continuous
 62
    92
370
    13
100
AcDbLine
 10
-3159.000269606309
 20
-1852.500214550947
 30
0.0
 11
-2931.500269606299
 21
-1852.500214550947
 31
0.0
  0
LINE
  5
359
330
1F
100
AcDbEntity
  8
0-9_取手彫込
  6
Continuous
 62
     7
370
     9
100
AcDbLine
 10
-2931.50026960629
 20
-1826.500214550947
 30
0.0
 11
-2931.50026960629
 21
-1852.500214550947
 31
0.0
  0
LINE
  5
35A
330
1F
100
AcDbEntity
  8
0-9_取手彫込
  6
Continuous
 62
     7
370
     9
100
AcDbLine
 10
-3159.000269606337
 20
-1826.500214550947
 30
0.0
 11
-3159.000269606337
 21
-1852.500214550947
 31
0.0
  0
LINE
  5
35B
330
1F
100
AcDbEntity
  8
0-9_取手彫込
  6
Continuous
 62
    92
370
    13
100
AcDbLine
 10
-2749.50026960632
 20
-1826.500214550947
 30
0.0
 11
-2522.000269606282
 21
-1826.500214550947
 31
0.0
  0
LINE
  5
35C
330
1F
100
AcDbEntity
  8
0-9_取手彫込
  6
Continuous
 62
    92
370
    13
100
AcDbLine
 10
-2749.500269606293
 20
-1852.500214550947
 30
0.0
 11
-2522.000269606282
 21
-1852.500214550947
 31
0.0
  0
LINE
  5
35D
330
1F
100
AcDbEntity
  8
0-9_取手彫込
  6
Continuous
 62
     7
370
     9
100
AcDbLine
 10
-2522.000269606274
 20
-1826.500214550947
 30
0.0
 11
-2522.000269606274
 21
-1852.500214550947
 31
0.0
  0
LINE
  5
35E
330
1F
100
AcDbEntity
  8
0-9_取手彫込
  6
Continuous
 62
     7
370
     9
100
AcDbLine
 10
-2749.50026960632
 20
-1826.500214550947
 30
0.0
 11
-2749.50026960632
 21
-1852.500214550947
 31
0.0
  0
LINE
  5
35F
330
1F
100
AcDbEntity
  8
0-9_取手彫込
  6
Continuous
 62
    92
370
    13
100
AcDbLine
 10
-3950.00026960634
 20
-1826.500214550947
 30
0.0
 11
-3722.500269606302
 21
-1826.500214550947
 31
0.0
  0
LINE
  5
360
330
1F
100
AcDbEntity
  8
0-9_取手彫込
  6
Continuous
 62
    92
370
    13
100
AcDbLine
 10
-3950.000269606313
 20
-1852.500214550947
 30
0.0
 11
-3722.500269606302
 21
-1852.500214550947
 31
0.0
  0
LINE
  5
361
330
1F
100
AcDbEntity
  8
0-9_取手彫込
  6
Continuous
 62
     7
370
     9
100
AcDbLine
 10
-3722.500269606294
 20
-1826.500214550947
 30
0.0
 11
-3722.500269606294
 21
-1852.500214550947
 31
0.0
  0
LINE
  5
362
330
1F
100
AcDbEntity
  8
0-9_取手彫込
  6
Continuous
 62
     7
370
     9
100
AcDbLine
 10
-3950.00026960634
 20
-1826.500214550947
 30
0.0
 11
-3950.00026960634
 21
-1852.500214550947
 31
0.0
  0
LINE
  5
363
330
1F
100
AcDbEntity
  8
0-9_取手彫込
  6
Continuous
 62
    92
370
    13
100
AcDbLine
 10
-3540.500269606324
 20
-1826.500214550947
 30
0.0
 11
-3313.000269606286
 21
-1826.500214550947
 31
0.0
  0
LINE
  5
364
330
1F
100
AcDbEntity
  8
0-9_取手彫込
  6
Continuous
 62
    92
370
    13
100
AcDbLine
 10
-3540.500269606297
 20
-1852.500214550947
 30
0.0
 11
-3313.000269606286
 21
-1852.500214550947
 31
0.0
  0
LINE
  5
365
330
1F
100
AcDbEntity
  8
0-9_取手彫込
  6
Continuous
 62
     7
370
     9
100
AcDbLine
 10
-3313.000269606277
 20
-1826.500214550947
 30
0.0
 11
-3313.000269606277
 21
-1852.500214550947
 31
0.0
  0
LINE
  5
366
330
1F
100
AcDbEntity
  8
0-9_取手彫込
  6
Continuous
 62
     7
370
     9
100
AcDbLine
 10
-3540.500269606324
 20
-1826.500214550947
 30
0.0
 11
-3540.500269606324
 21
-1852.500214550947
 31
0.0
  0
LINE
  5
367
330
1F
100
AcDbEntity
  8
F-0_補助線
  6
JWW_HOJO
 62
     7
370
     9
100
AcDbLine
 10
849.9995876002961
 20
-3795.000165475381
 30
0.0
 11
849.9995876002961
 21
-4195.000170630377
 31
0.0
  0
LINE
  5
368
330
1F
100
AcDbEntity
  8
F-0_補助線
  6
JWW_HOJO
 62
     7
370
     9
100
AcDbLine
 10
349.9999175200594
 20
-3795.000165475381
 30
0.0
 11
349.9999175200594
 21
-4195.000170630377
 31
0.0
  0
LINE
  5
369
330
1F
100
AcDbEntity
  8
F-1_枠
  6
Continuous
 62
   200
370
    20
100
AcDbLine
 10
5699.998762800888
 20
-4205.000164959882
 30
0.0
 11
-5999.999752560178
 21
-4205.000164959882
 31
0.0
  0
LINE
  5
36A
330
1F
100
AcDbEntity
  8
F-1_枠
  6
Continuous
 62
   200
370
    20
100
AcDbLine
 10
5699.998762800888
 20
-4200.000156196389
 30
0.0
 11
-5999.999752560178
 21
-4200.000156196389
 31
0.0
  0
LINE
  5
36B
330
1F
100
AcDbEntity
  8
F-1_枠
  6
Continuous
 62
   200
370
    20
100
AcDbLine
 10
5699.998762800888
 20
-4195.000170630377
 30
0.0
 11
-5999.999752560178
 21
-4195.000170630377
 31
0.0
  0
LINE
  5
36C
330
1F
100
AcDbEntity
  8
F-1_枠
  6
Continuous
 62
   200
370
    20
100
AcDbLine
 10
4189.999224688556
 20
-3795.000165475381
 30
0.0
 11
4189.999224688556
 21
-4195.000170630377
 31
0.0
  0
LINE
  5
36D
330
1F
100
AcDbEntity
  8
F-1_枠
  6
Continuous
 62
   200
370
    20
100
AcDbLine
 10
2689.998729808911
 20
-3795.000165475381
 30
0.0
 11
2689.998729808911
 21
-4195.000170630377
 31
0.0
  0
LINE
  5
36E
330
1F
100
AcDbEntity
  8
F-1_枠
  6
Continuous
 62
   200
370
    20
100
AcDbLine
 10
-150.0001237199109
 20
-3795.000165475381
 30
0.0
 11
-150.0001237199109
 21
-4195.000170630377
 31
0.0
  0
LINE
  5
36F
330
1F
100
AcDbEntity
  8
F-1_枠
  6
Continuous
 62
   200
370
    20
100
AcDbLine
 10
-150.0001237199109
 20
-3995.00009846043
 30
0.0
 11
5689.998977248734
 21
-3995.005526671539
 31
0.0
  0
LINE
  5
370
330
1F
100
AcDbEntity
  8
F-0_補助線
  6
JWW_HOJO
 62
     7
370
     9
100
AcDbLine
 10
-5989.999990205507
 20
-3995.000098460775
 30
0.0
 11
-150.0001237199109
 21
-3995.000098460775
 31
0.0
  0
LINE
  5
371
330
1F
100
AcDbEntity
  8
F-0_補助線
  6
JWW_HOJO
 62
     7
370
     9
100
AcDbLine
 10
-5989.999990205507
 20
-3905.000098460775
 30
0.0
 11
-150.0001237199109
 21
-3905.000098460775
 31
0.0
  0
LINE
  5
372
330
1F
100
AcDbEntity
  8
F-0_補助線
  6
JWW_HOJO
 62
     7
370
     9
100
AcDbLine
 10
-5989.999990205507
 20
-4085.000098460775
 30
0.0
 11
-150.0001237199109
 21
-4085.000098460775
 31
0.0
  0
LINE
  5
373
330
1F
100
AcDbEntity
  8
F-0_補助線
  6
JWW_HOJO
 62
     7
370
     9
100
AcDbLine
 10
-150.0002584955388
 20
-4139.999902160367
 30
0.0
 11
5689.998842473105
 21
-4140.005330371476
 31
0.0
  0
LINE
  5
374
330
1F
100
AcDbEntity
  8
F-0_補助線
  6
JWW_HOJO
 62
     7
370
     9
100
AcDbLine
 10
-150.0001748415872
 20
-4049.999902160406
 30
0.0
 11
5689.998926127057
 21
-4050.005330371515
 31
0.0
  0
LINE
  5
375
330
1F
100
AcDbEntity
  8
F-0_補助線
  6
JWW_HOJO
 62
     7
370
     9
100
AcDbLine
 10
-150.0000725978671
 20
-3939.999899600454
 30
0.0
 11
5689.999028370777
 21
-3940.005327811563
 31
0.0
  0
LINE
  5
376
330
1F
100
AcDbEntity
  8
F-0_補助線
  6
JWW_HOJO
 62
     7
370
     9
100
AcDbLine
 10
-149.9999889439155
 20
-3849.999899600493
 30
0.0
 11
5689.999112024728
 21
-3850.005327811602
 31
0.0
  0
LINE
  5
377
330
1F
100
AcDbEntity
  8
F-0_補助線
  6
JWW_HOJO
 62
     7
370
     9
100
AcDbLine
 10
2779.998729808911
 20
-3795.000165475381
 30
0.0
 11
2779.998729808911
 21
-4195.000170630377
 31
0.0
  0
LINE
  5
378
330
1F
100
AcDbEntity
  8
F-0_補助線
  6
JWW_HOJO
 62
     7
370
     9
100
AcDbLine
 10
-60.0001237199109
 20
-3795.000165475381
 30
0.0
 11
-60.0001237199109
 21
-4195.000170630377
 31
0.0
  0
LINE
  5
379
330
1F
100
AcDbEntity
  8
F-0_補助線
  6
JWW_HOJO
 62
     7
370
     9
100
AcDbLine
 10
4279.999224688556
 20
-3795.000165475381
 30
0.0
 11
4279.999224688556
 21
-4195.000170630377
 31
0.0
  0
LINE
  5
37A
330
1F
100
AcDbEntity
  8
F-0_補助線
  6
JWW_HOJO
 62
     7
370
     9
100
AcDbLine
 10
-5247.547376752838
 20
-3795.000165475382
 30
0.0
 11
-5247.547376752838
 21
-4205.000327342266
 31
0.0
  0
LINE
  5
37B
330
1F
100
AcDbEntity
  8
F-0_補助線
  6
JWW_HOJO
 62
     7
370
     9
100
AcDbLine
 10
-210.0001237199109
 20
-3795.000165475381
 30
0.0
 11
-210.0001237199109
 21
-4195.000170630377
 31
0.0
  0
LINE
  5
37C
330
1F
100
AcDbEntity
  8
F-1_枠
  6
Continuous
 62
   200
370
    20
100
AcDbLine
 10
5699.998762800888
 20
-3795.000165475381
 30
0.0
 11
-5999.99998453501
 21
-3795.000165475381
 31
0.0
  0
LINE
  5
37D
330
1F
100
AcDbEntity
  8
F-1_枠
  6
Continuous
 62
   200
370
    20
100
AcDbLine
 10
5699.998762800888
 20
-3790.000179909372
 30
0.0
 11
-5999.99998453501
 21
-3790.000179909372
 31
0.0
  0
LINE
  5
37E
330
1F
100
AcDbEntity
  8
F-A_文字
  6
Continuous
 62
     7
370
     9
100
AcDbLine
 10
5689.998977248734
 20
184.5000148463899
 30
0.0
 11
99.99947934537346
 21
-3790.000179909372
 31
0.0
  0
LINE
  5
37F
330
1F
100
AcDbEntity
  8
F-1_枠
  6
Continuous
 62
   200
370
    20
100
AcDbLine
 10
-5989.999990205507
 20
187.5000989759289
 30
0.0
 11
5689.998977248734
 21
187.5000989759289
 31
0.0
  0
MTEXT
  5
380
330
1F
100
AcDbEntity
  8
0-A_文字
  6
Continuous
 62
     7
370
     9
100
AcDbMText
 10
-3370.000269606307
 20
4014.565285639456
 30
0.0
 40
79.13076923076923
 41
1350.0
 46
0.0
 71
     7
 72
     1
  1
{\fＭＳ ゴシック|b0|i0|c128|p49;Ｆ－ＷＰ（０８）　間口６尺}
 73
     1
 44
1.0
  0
MTEXT
  5
381
330
1F
100
AcDbEntity
  8
0-A_文字
  6
Continuous
 62
     7
370
     9
100
AcDbMText
 10
2219.999228297054
 20
4014.565285639456
 30
0.0
 40
79.13076923076923
 41
1350.0
 46
0.0
 71
     7
 72
     1
  1
{\fＭＳ ゴシック|b0|i0|c128|p49;Ｆ－ＷＰ（０８）　間口９尺}
 73
     1
 44
1.0
  0
MTEXT
  5
382
330
1F
100
AcDbEntity
  8
0-A_文字
  6
Continuous
 62
     7
370
     9
100
AcDbMText
 10
-3422.500269606307
 20
34.09671808073415
 30
0.0
 40
79.19357142857143
 41
1455.0
 46
0.0
 71
     7
 72
     1
  1
{\fＭＳ ゴシック|b0|i0|c128|p49;Ｆ－ＷＰ（０８）　間口１２尺}
 73
     1
 44
1.0
  0
MTEXT
  5
383
330
1F
100
AcDbEntity
  8
0-B_寸法
  6
Continuous
 62
     7
370
    70
100
AcDbMText
 10
-3582.500269606306
 20
2183.575148463894
 30
0.0
 40
57.14999999999999
 41
412.5
 46
0.0
 71
     7
 72
     1
  1
{\fＭＳ ゴシック|b0|i0|c128|p49;ＤＨ＝2,284}
 11
6.123031769111886E-17
 21
1.0
 31
0.0
 73
     1
 44
1.0
  0
MTEXT
  5
384
330
1F
100
AcDbEntity
  8
0-B_寸法
  6
Continuous
 62
     7
370
    70
100
AcDbMText
 10
1611.999228297056
 20
2183.575148463894
 30
0.0
 40
57.14999999999999
 41
412.5
 46
0.0
 71
     7
 72
     1
  1
{\fＭＳ ゴシック|b0|i0|c128|p49;ＤＨ＝2,284}
 11
6.123031769111886E-17
 21
1.0
 31
0.0
 73
     1
 44
1.0
  0
MTEXT
  5
385
330
1F
100
AcDbEntity
  8
0-B_寸法
  6
Continuous
 62
     7
370
    70
100
AcDbMText
 10
-3782.500269606308
 20
2157.825148463893
 30
0.0
 40
57.15000000000001
 41
487.5
 46
0.0
 71
     7
 72
     1
  1
{\fＭＳ ゴシック|b0|i0|c128|p49;枠外＝2,347.5}
 11
6.123031769111886E-17
 21
1.0
 31
0.0
 73
     1
 44
1.0
  0
MTEXT
  5
386
330
1F
100
AcDbEntity
  8
0-B_寸法
  6
Continuous
 62
     7
370
    70
100
AcDbMText
 10
1411.999228297055
 20
2157.825148463893
 30
0.0
 40
57.15000000000001
 41
487.5
 46
0.0
 71
     7
 72
     1
  1
{\fＭＳ ゴシック|b0|i0|c128|p49;枠外＝2,347.5}
 11
6.123031769111886E-17
 21
1.0
 31
0.0
 73
     1
 44
1.0
  0
MTEXT
  5
387
330
1F
100
AcDbEntity
  8
0-B_寸法
  6
Continuous
 62
     7
370
   211
100
AcDbMText
 10
-2805.640287971903
 20
1039.174371074407
 30
0.0
 40
57.15
 41
37.5
 46
0.0
 71
     7
 72
     1
  1
{\fＭＳ ゴシック|b0|i0|c128|p49;1}
 73
     1
 44
1.0
  0
MTEXT
  5
388
330
1F
100
AcDbEntity
  8
0-B_寸法
  6
Continuous
 62
     7
370
   211
100
AcDbMText
 10
2388.85920993146
 20
1039.174371074407
 30
0.0
 40
57.15
 41
37.5
 46
0.0
 71
     7
 72
     1
  1
{\fＭＳ ゴシック|b0|i0|c128|p49;1}
 73
     1
 44
1.0
  0
MTEXT
  5
389
330
1F
100
AcDbEntity
  8
0-B_寸法
  6
Continuous
 62
     7
370
   211
100
AcDbMText
 10
-3083.250269606307
 20
924.0751484638936
 30
0.0
 40
57.15
 41
112.5
 46
0.0
 71
     7
 72
     1
  1
{\fＭＳ ゴシック|b0|i0|c128|p49;394}
 73
     1
 44
1.0
  0
MTEXT
  5
38A
330
1F
100
AcDbEntity
  8
0-B_寸法
  6
Continuous
 62
     7
370
   211
100
AcDbMText
 10
-2688.250269606307
 20
924.0751484638936
 30
0.0
 40
57.15
 41
112.5
 46
0.0
 71
     7
 72
     1
  1
{\fＭＳ ゴシック|b0|i0|c128|p49;394}
 73
     1
 44
1.0
  0
MTEXT
  5
38B
330
1F
100
AcDbEntity
  8
0-B_寸法
  6
Continuous
 62
     7
370
   211
100
AcDbMText
 10
2111.249228297056
 20
924.0751484638936
 30
0.0
 40
57.15
 41
112.5
 46
0.0
 71
     7
 72
     1
  1
{\fＭＳ ゴシック|b0|i0|c128|p49;394}
 73
     1
 44
1.0
  0
MTEXT
  5
38C
330
1F
100
AcDbEntity
  8
0-B_寸法
  6
Continuous
 62
     7
370
   211
100
AcDbMText
 10
2506.249228297056
 20
924.0751484638936
 30
0.0
 40
57.15
 41
112.5
 46
0.0
 71
     7
 72
     1
  1
{\fＭＳ ゴシック|b0|i0|c128|p49;394}
 73
     1
 44
1.0
  0
MTEXT
  5
38D
330
1F
100
AcDbEntity
  8
0-B_寸法
  6
Continuous
 62
     7
370
   211
100
AcDbMText
 10
-2410.140287971903
 20
839.1743710744071
 30
0.0
 40
57.15
 41
37.5
 46
0.0
 71
     7
 72
     1
  1
{\fＭＳ ゴシック|b0|i0|c128|p49;2}
 73
     1
 44
1.0
  0
MTEXT
  5
38E
330
1F
100
AcDbEntity
  8
0-B_寸法
  6
Continuous
 62
     7
370
   211
100
AcDbMText
 10
2784.359209931459
 20
839.1743710744071
 30
0.0
 40
57.15
 41
37.5
 46
0.0
 71
     7
 72
     1
  1
{\fＭＳ ゴシック|b0|i0|c128|p49;2}
 73
     1
 44
1.0
  0
MTEXT
  5
38F
330
1F
100
AcDbEntity
  8
0-B_寸法
  6
Continuous
 62
     7
370
   211
100
AcDbMText
 10
3575.359209931458
 20
839.1743710744071
 30
0.0
 40
57.15
 41
37.5
 46
0.0
 71
     7
 72
     1
  1
{\fＭＳ ゴシック|b0|i0|c128|p49;2}
 73
     1
 44
1.0
  0
MTEXT
  5
390
330
1F
100
AcDbEntity
  8
0-B_寸法
  6
Continuous
 62
     7
370
   211
100
AcDbMText
 10
-2993.250269606307
 20
724.0751484638936
 30
0.0
 40
57.15
 41
337.5
 46
0.0
 71
     7
 72
     1
  1
{\fＭＳ ゴシック|b0|i0|c128|p49;ＤＷ＝789}
 73
     1
 44
1.0
  0
MTEXT
  5
391
330
1F
100
AcDbEntity
  8
0-B_寸法
  6
Continuous
 62
     7
370
   211
100
AcDbMText
 10
-2199.500269606307
 20
724.0751484638936
 30
0.0
 40
57.15
 41
337.5
 46
0.0
 71
     7
 72
     1
  1
{\fＭＳ ゴシック|b0|i0|c128|p49;ＤＷ＝789}
 73
     1
 44
1.0
  0
MTEXT
  5
392
330
1F
100
AcDbEntity
  8
0-B_寸法
  6
Continuous
 62
     7
370
   211
100
AcDbMText
 10
2223.249228297056
 20
724.0751484638936
 30
0.0
 40
57.15
 41
337.5
 46
0.0
 71
     7
 72
     1
  1
{\fＭＳ ゴシック|b0|i0|c128|p49;ＤＷ＝789}
 73
     1
 44
1.0
  0
MTEXT
  5
393
330
1F
100
AcDbEntity
  8
0-B_寸法
  6
Continuous
 62
     7
370
   211
100
AcDbMText
 10
3016.999228297056
 20
724.0751484638936
 30
0.0
 40
57.15
 41
337.5
 46
0.0
 71
     7
 72
     1
  1
{\fＭＳ ゴシック|b0|i0|c128|p49;ＤＷ＝789}
 73
     1
 44
1.0
  0
MTEXT
  5
394
330
1F
100
AcDbEntity
  8
0-B_寸法
  6
Continuous
 62
     7
370
   211
100
AcDbMText
 10
3785.999228297054
 20
724.0751484638936
 30
0.0
 40
57.15
 41
337.5
 46
0.0
 71
     7
 72
     1
  1
{\fＭＳ ゴシック|b0|i0|c128|p49;ＤＷ＝789}
 73
     1
 44
1.0
  0
MTEXT
  5
395
330
1F
100
AcDbEntity
  8
0-B_寸法
  6
Continuous
 62
     7
370
   211
100
AcDbMText
 10
-2707.500269606307
 20
524.0751484638929
 30
0.0
 40
57.15000000000001
 41
562.5
 46
0.0
 71
     7
 72
     1
  1
{\fＭＳ ゴシック|b0|i0|c128|p49;枠外寸法＝1,645}
 73
     1
 44
1.0
  0
MTEXT
  5
396
330
1F
100
AcDbEntity
  8
0-B_寸法
  6
Continuous
 62
     7
370
   211
100
AcDbMText
 10
2904.499228297055
 20
524.075148463893
 30
0.0
 40
57.15000000000001
 41
562.5
 46
0.0
 71
     7
 72
     1
  1
{\fＭＳ ゴシック|b0|i0|c128|p49;枠外寸法＝2,436}
 73
     1
 44
1.0
  0
MTEXT
  5
397
330
1F
100
AcDbEntity
  8
0-B_寸法
  6
Continuous
 62
     7
370
    70
100
AcDbMText
 10
-4373.500269606307
 20
-1796.925214550947
 30
0.0
 40
57.14999999999999
 41
412.5
 46
0.0
 71
     7
 72
     1
  1
{\fＭＳ ゴシック|b0|i0|c128|p49;ＤＨ＝2,284}
 11
6.123031769111886E-17
 21
1.0
 31
0.0
 73
     1
 44
1.0
  0
MTEXT
  5
398
330
1F
100
AcDbEntity
  8
0-B_寸法
  6
Continuous
 62
     7
370
    70
100
AcDbMText
 10
-4573.500269606305
 20
-1822.675214550947
 30
0.0
 40
57.15000000000001
 41
487.5
 46
0.0
 71
     7
 72
     1
  1
{\fＭＳ ゴシック|b0|i0|c128|p49;枠外＝2,347.5}
 11
6.123031769111886E-17
 21
1.0
 31
0.0
 73
     1
 44
1.0
  0
MTEXT
  5
399
330
1F
100
AcDbEntity
  8
0-B_寸法
  6
Continuous
 62
     7
370
   211
100
AcDbMText
 10
-3596.640287971903
 20
-2941.325991940434
 30
0.0
 40
57.15
 41
37.5
 46
0.0
 71
     7
 72
     1
  1
{\fＭＳ ゴシック|b0|i0|c128|p49;1}
 73
     1
 44
1.0
  0
MTEXT
  5
39A
330
1F
100
AcDbEntity
  8
0-B_寸法
  6
Continuous
 62
     7
370
   211
100
AcDbMText
 10
-3874.250269606307
 20
-3056.425214550947
 30
0.0
 40
57.15
 41
112.5
 46
0.0
 71
     7
 72
     1
  1
{\fＭＳ ゴシック|b0|i0|c128|p49;394}
 73
     1
 44
1.0
  0
MTEXT
  5
39B
330
1F
100
AcDbEntity
  8
0-B_寸法
  6
Continuous
 62
     7
370
   211
100
AcDbMText
 10
-3479.250269606306
 20
-3056.425214550947
 30
0.0
 40
57.15
 41
112.5
 46
0.0
 71
     7
 72
     1
  1
{\fＭＳ ゴシック|b0|i0|c128|p49;394}
 73
     1
 44
1.0
  0
MTEXT
  5
39C
330
1F
100
AcDbEntity
  8
0-B_寸法
  6
Continuous
 62
     7
370
   211
100
AcDbMText
 10
-3201.140287971902
 20
-3141.325991940434
 30
0.0
 40
57.15
 41
37.5
 46
0.0
 71
     7
 72
     1
  1
{\fＭＳ ゴシック|b0|i0|c128|p49;2}
 73
     1
 44
1.0
  0
MTEXT
  5
39D
330
1F
100
AcDbEntity
  8
0-B_寸法
  6
Continuous
 62
     7
370
   211
100
AcDbMText
 10
-2410.140287971903
 20
-3141.325991940434
 30
0.0
 40
57.15
 41
37.5
 46
0.0
 71
     7
 72
     1
  1
{\fＭＳ ゴシック|b0|i0|c128|p49;2}
 73
     1
 44
1.0
  0
MTEXT
  5
39E
330
1F
100
AcDbEntity
  8
0-B_寸法
  6
Continuous
 62
     7
370
   211
100
AcDbMText
 10
-1619.140287971904
 20
-3141.325991940434
 30
0.0
 40
57.15
 41
37.5
 46
0.0
 71
     7
 72
     1
  1
{\fＭＳ ゴシック|b0|i0|c128|p49;2}
 73
     1
 44
1.0
  0
MTEXT
  5
39F
330
1F
100
AcDbEntity
  8
0-B_寸法
  6
Continuous
 62
     7
370
   211
100
AcDbMText
 10
-3762.250269606306
 20
-3256.425214550947
 30
0.0
 40
57.15
 41
337.5
 46
0.0
 71
     7
 72
     1
  1
{\fＭＳ ゴシック|b0|i0|c128|p49;ＤＷ＝789}
 73
     1
 44
1.0
  0
MTEXT
  5
3A0
330
1F
100
AcDbEntity
  8
0-B_寸法
  6
Continuous
 62
     7
370
   211
100
AcDbMText
 10
-2990.500269606306
 20
-3256.425214550947
 30
0.0
 40
57.15
 41
337.5
 46
0.0
 71
     7
 72
     1
  1
{\fＭＳ ゴシック|b0|i0|c128|p49;ＤＷ＝789}
 73
     1
 44
1.0
  0
MTEXT
  5
3A1
330
1F
100
AcDbEntity
  8
0-B_寸法
  6
Continuous
 62
     7
370
   211
100
AcDbMText
 10
-2199.500269606307
 20
-3256.425214550947
 30
0.0
 40
57.15
 41
337.5
 46
0.0
 71
     7
 72
     1
  1
{\fＭＳ ゴシック|b0|i0|c128|p49;ＤＷ＝789}
 73
     1
 44
1.0
  0
MTEXT
  5
3A2
330
1F
100
AcDbEntity
  8
0-B_寸法
  6
Continuous
 62
     7
370
   211
100
AcDbMText
 10
-1408.500269606307
 20
-3256.425214550947
 30
0.0
 40
57.15
 41
337.5
 46
0.0
 71
     7
 72
     1
  1
{\fＭＳ ゴシック|b0|i0|c128|p49;ＤＷ＝789}
 73
     1
 44
1.0
  0
MTEXT
  5
3A3
330
1F
100
AcDbEntity
  8
0-B_寸法
  6
Continuous
 62
     7
370
   211
100
AcDbMText
 10
-2685.500269606306
 20
-3456.425214550948
 30
0.0
 40
57.15000000000001
 41
562.5
 46
0.0
 71
     7
 72
     1
  1
{\fＭＳ ゴシック|b0|i0|c128|p49;枠外寸法＝3,227}
 73
     1
 44
1.0
  0
MTEXT
  5
3A4
330
1F
100
AcDbEntity
  8
F-A_文字
  6
Continuous
 62
     7
370
     9
100
AcDbMText
 10
-5890.000039177972
 20
4018.575148463894
 30
0.0
 40
57.15
 41
300.0
 46
0.0
 71
     7
 72
     1
  1
{\fＭＳ ゴシック|b0|i0|c128|p49;デザイン}
 73
     1
 44
1.0
  0
MTEXT
  5
3A5
330
1F
100
AcDbEntity
  8
F-A_文字
  6
Continuous
 62
     7
370
     9
100
AcDbMText
 10
-5852.499992783006
 20
2031.325062684755
 30
0.0
 40
57.15
 41
225.0
 46
0.0
 71
     7
 72
     1
  1
{\fＭＳ ゴシック|b0|i0|c128|p49;姿　図}
 73
     1
 44
1.0
  0
MTEXT
  5
3A6
330
1F
100
AcDbEntity
  8
F-A_文字
  6
Continuous
 62
     7
370
     9
100
AcDbMText
 10
-5890.000004381747
 20
38.07493236644844
 30
0.0
 40
57.15
 41
300.0
 46
0.0
 71
     7
 72
     1
  1
{\fＭＳ ゴシック|b0|i0|c128|p49;デザイン}
 73
     1
 44
1.0
  0
MTEXT
  5
3A7
330
1F
100
AcDbEntity
  8
F-A_文字
  6
Continuous
 62
     7
370
     9
100
AcDbMText
 10
-5857.499885559082
 20
-1949.175091552734
 30
0.0
 40
57.15
 41
225.0
 46
0.0
 71
     7
 72
     1
  1
{\fＭＳ ゴシック|b0|i0|c128|p49;姿　図}
 73
     1
 44
1.0
  0
MTEXT
  5
3A8
330
1F
100
AcDbEntity
  8
F-A_文字
  6
Continuous
 62
     7
370
     0
100
AcDbMText
 10
-60.0001237199109
 20
-3887.139983254319
 30
0.0
 40
45.72
 41
180.0
 46
0.0
 71
     7
 72
     1
  1
{\fＭＳ ゴシック|b0|i0|c128|p49;図面名}
 73
     1
 44
1.0
  0
MTEXT
  5
3A9
330
1F
100
AcDbEntity
  8
F-A_文字
  6
Continuous
 62
     7
370
     0
100
AcDbMText
 10
2779.998729808911
 20
-3887.142623000158
 30
0.0
 40
45.72
 41
300.0
 46
0.0
 71
     7
 72
     1
  1
{\fＭＳ ゴシック|b0|i0|c128|p49;ＳＣＡＬＥ}
 73
     1
 44
1.0
  0
MTEXT
  5
3AA
330
1F
100
AcDbEntity
  8
F-A_文字
  6
Continuous
 62
     7
370
     0
100
AcDbMText
 10
4279.999224688556
 20
-3887.144017233137
 30
0.0
 40
45.72
 41
240.0
 46
0.0
 71
     7
 72
     1
  1
{\fＭＳ ゴシック|b0|i0|c128|p49;ＤＡＴＥ}
 73
     1
 44
1.0
  0
MTEXT
  5
3AB
330
1F
100
AcDbEntity
  8
F-A_文字
  6
Continuous
 62
     7
370
     0
100
AcDbMText
 10
4778.749126529666
 20
-3938.21404752235
 30
0.0
 40
78.58125
 41
412.5
 46
0.0
 71
     7
 72
     1
  1
{\fＭＳ ゴシック|b0|i0|c128|p49;17.05.30}
 73
     1
 44
1.0
  0
MTEXT
  5
3AC
330
1F
100
AcDbEntity
  8
F-A_文字
  6
Continuous
 62
     7
370
     0
100
AcDbMText
 10
1180.417701903719
 20
-3946.424073982223
 30
0.0
 40
77.15249999999999
 41
405.0
 46
0.0
 71
     7
 72
     1
  1
{\fＭＳ ゴシック|b0|i0|c128|p49;建具姿図}
 73
     1
 44
1.0
  0
MTEXT
  5
3AD
330
1F
100
AcDbEntity
  8
F-A_文字
  6
Continuous
 62
     7
370
     0
100
AcDbMText
 10
3383.748977248734
 20
-3946.427028289692
 30
0.0
 40
77.15249999999999
 41
202.5
 46
0.0
 71
     7
 72
     1
  1
{\fＭＳ ゴシック|b0|i0|c128|p49;1/30}
 73
     1
 44
1.0
  0
MTEXT
  5
3AE
330
1F
100
AcDbEntity
  8
F-A_文字
  6
Continuous
 62
     7
370
     0
100
AcDbMText
 10
349.9999175200594
 20
-3958.262454254887
 30
0.0
 40
55.05
 41
525.0
 46
0.0
 71
     7
 72
     1
  1
{\fHG明朝B|b1|i0|c128|p17;ＳＯＦＴＡＲＴ}
 73
     1
 44
1.0
  0
MTEXT
  5
3AF
330
1F
100
AcDbEntity
  8
F-A_文字
  6
Continuous
 62
     7
370
     0
100
AcDbMText
 10
-5239.999990205507
 20
-4045.185598460775
 30
0.0
 40
79.629
 41
3135.0
 46
0.0
 71
     7
 72
     1
  1
{\fＭＳ ゴシック|b0|i0|c128|p49;ソフトアート　間仕切りシステム・折れ戸　落とし込み　Ｆ－ＷＰ}
 73
     1
 44
1.0
  0
MTEXT
  5
3B0
330
1F
100
AcDbEntity
  8
F-A_文字
  6
Continuous
 62
     7
370
     0
100
AcDbMText
 10
2779.998729808911
 20
-4087.142625560244
 30
0.0
 40
45.72
 41
240.0
 46
0.0
 71
     7
 72
     1
  1
{\fＭＳ ゴシック|b0|i0|c128|p49;ＦＩＬＥ}
 73
     1
 44
1.0
  0
MTEXT
  5
3B1
330
1F
100
AcDbEntity
  8
F-A_文字
  6
Continuous
 62
     7
370
     0
100
AcDbMText
 10
4279.999224688556
 20
-4087.144019793223
 30
0.0
 40
45.72
 41
180.0
 46
0.0
 71
     7
 72
     1
  1
{\fＭＳ ゴシック|b0|i0|c128|p49;ＮＯ．}
 73
     1
 44
1.0
  0
MTEXT
  5
3B2
330
1F
100
AcDbEntity
  8
F-A_文字
  6
Continuous
 62
     7
370
     0
100
AcDbMText
 10
1234.998729808911
 20
-4096.140831648532
 30
0.0
 40
45.72
 41
120.0
 46
0.0
 71
     7
 72
     1
  1
{\fＭＳ ゴシック|b0|i0|c128|p49;株式}
 73
     1
 44
1.0
  0
MTEXT
  5
3B3
330
1F
100
AcDbEntity
  8
F-A_文字
  6
Continuous
 62
     7
370
     9
100
AcDbMText
 10
3226.248977248734
 20
-4145.569780849797
 30
0.0
 40
78.86699999999999
 41
517.5
 46
0.0
 71
     7
 72
     1
  1
{\fＭＳ ゴシック|b0|i0|c128|p49;F08-WP_B02}
 73
     1
 44
1.0
  0
MTEXT
  5
3B4
330
1F
100
AcDbEntity
  8
F-A_文字
  6
Continuous
 62
     7
370
     9
100
AcDbMText
 10
4936.249033580831
 20
-4147.857175082368
 30
0.0
 40
74.295
 41
97.5
 46
0.0
 71
     7
 72
     1
  1
{\fＭＳ ゴシック|b0|i0|c128|p49;01}
 73
     1
 44
1.0
  0
MTEXT
  5
3B5
330
1F
100
AcDbEntity
  8
F-A_文字
  6
Continuous
 62
     7
370
     0
100
AcDbMText
 10
1444.998729808911
 20
-4164.281916906312
 30
0.0
 40
101.44125
 41
1065.0
 46
0.0
 71
     7
 72
     1
  1
{\fＭＳ ゴシック|b0|i0|c128|p49;ウッドワン・・・}
 73
     1
 44
1.0
  0
MTEXT
  5
3B6
330
1F
100
AcDbEntity
  8
F-A_文字
  6
Continuous
 62
     7
370
     0
100
AcDbMText
 10
1234.998729808911
 20
-4168.140831648571
 30
0.0
 40
45.72
 41
120.0
 46
0.0
 71
     7
 72
     1
  1
{\fＭＳ ゴシック|b0|i0|c128|p49;会社}
 73
     1
 44
1.0
  0
MTEXT
  5
3B7
330
1F
100
AcDbEntity
  8
F-A_文字
  6
Continuous
 62
     7
370
     0
100
AcDbMText
 10
5608.403311109712
 20
-4314.841581403302
 30
0.0
 40
68.58
 41
90.0
 46
0.0
 71
     7
 72
     1
  1
{\fＭＳ ゴシック|b0|i0|c128|p49;）}
 73
     1
 44
1.0
  0
MTEXT
  5
3B8
330
1F
100
AcDbEntity
  8
F-A_文字
  6
Continuous
 62
     7
370
     0
100
AcDbMText
 10
5190.195950842071
 20
-4316.23560625224
 30
0.0
 40
68.58
 41
45.0
 46
0.0
 71
     7
 72
     1
  1
{\fＭＳ ゴシック|b0|i0|c128|p49;,}
 73
     1
 44
1.0
  0
MTEXT
  5
3B9
330
1F
100
AcDbEntity
  8
F-A_文字
  6
Continuous
 62
     7
370
     0
100
AcDbMText
 10
4923.937261915373
 20
-4314.772129670666
 30
0.0
 40
74.295
 41
97.5
 46
0.0
 71
     7
 72
     1
  1
{\fＭＳ ゴシック|b0|i0|c128|p49;$y}
 73
     1
 44
1.0
  0
MTEXT
  5
3BA
330
1F
100
AcDbEntity
  8
F-A_文字
  6
Continuous
 62
     7
370
     0
100
AcDbMText
 10
5078.673982954195
 20
-4314.772129670666
 30
0.0
 40
74.295
 41
97.5
 46
0.0
 71
     7
 72
     1
  1
{\fＭＳ ゴシック|b0|i0|c128|p49;$m}
 73
     1
 44
1.0
  0
MTEXT
  5
3BB
330
1F
100
AcDbEntity
  8
F-A_文字
  6
Continuous
 62
     7
370
     0
100
AcDbMText
 10
5233.410715437103
 20
-4314.772129670666
 30
0.0
 40
74.295
 41
97.5
 46
0.0
 71
     7
 72
     1
  1
{\fＭＳ ゴシック|b0|i0|c128|p49;$d}
 73
     1
 44
1.0
  0
MTEXT
  5
3BC
330
1F
100
AcDbEntity
  8
F-A_文字
  6
Continuous
 62
     7
370
     0
100
AcDbMText
 10
5388.147447920011
 20
-4314.772129670666
 30
0.0
 40
74.295
 41
195.0
 46
0.0
 71
     7
 72
     1
  1
{\fＭＳ ゴシック|b0|i0|c128|p49;印刷}
 73
     1
 44
1.0
  0
MTEXT
  5
3BD
330
1F
100
AcDbEntity
  8
F-A_文字
  6
Continuous
 62
     7
370
     0
100
AcDbMText
 10
4784.033374252999
 20
-4319.023655950115
 30
0.0
 40
68.58
 41
90.0
 46
0.0
 71
     7
 72
     1
  1
{\fＭＳ ゴシック|b0|i0|c128|p49;（}
 73
     1
 44
1.0
  0
MTEXT
  5
3BE
330
1F
100
AcDbEntity
  8
F-A_文字
  6
Continuous
 62
     7
370
     0
100
AcDbMText
 10
5031.277143812345
 20
-4319.023655950115
 30
0.0
 40
68.58
 41
45.0
 46
0.0
 71
     7
 72
     1
  1
{\fＭＳ ゴシック|b0|i0|c128|p49;,}
 73
     1
 44
1.0
  0
MTEXT
  5
3BF
330
1F
100
AcDbEntity
  8
F-C
  6
Continuous
 62
     7
370
     9
100
AcDbMText
 10
-5999.999752560178
 20
-4585.757164959881
 30
0.0
 40
78.486
 41
772.5
 46
0.0
 71
     7
 72
     1
  1
{\fＭＳ ゴシック|b0|i0|c128|p49;'13.07.16　初回}
 73
     1
 44
1.0
  0
ENDSEC
  0
SECTION
  2
OBJECTS
  0
DICTIONARY
  5
C
330
0
100
AcDbDictionary
281
     1
  3
ACAD_GROUP
350
D
  3
ACAD_LAYOUT
350
1A
  3
ACAD_MATERIAL
350
3B
  3
ACAD_MLEADERSTYLE
350
3C1
  3
ACAD_MLINESTYLE
350
17
  3
ACAD_PLOTSETTINGS
350
19
  3
ACAD_PLOTSTYLENAME
350
E
  3
ACAD_TABLESTYLE
350
3C0
  3
ACAD_VISUALSTYLE
350
2A
  0
DICTIONARY
  5
D
102
{ACAD_REACTORS
330
C
102
}
330
C
100
AcDbDictionary
281
     1
  0
DICTIONARY
  5
1A
102
{ACAD_REACTORS
330
C
102
}
330
C
100
AcDbDictionary
281
     1
  3
Layout1
350
1E
  3
Layout2
350
26
  3
Model
350
22
  0
DICTIONARY
  5
3B
102
{ACAD_REACTORS
330
C
102
}
330
C
100
AcDbDictionary
281
     1
  3
ByBlock
350
3D
  3
ByLayer
350
3C
  3
Global
350
3E
  0
DICTIONARY
  5
3C1
102
{ACAD_REACTORS
330
C
102
}
330
C
100
AcDbDictionary
281
     1
  0
DICTIONARY
  5
17
102
{ACAD_REACTORS
330
C
102
}
330
C
100
AcDbDictionary
281
     1
  3
Standard
350
18
  0
DICTIONARY
  5
19
102
{ACAD_REACTORS
330
C
102
}
330
C
100
AcDbDictionary
281
     1
  0
ACDBDICTIONARYWDFLT
  5
E
102
{ACAD_REACTORS
330
C
102
}
330
C
100
AcDbDictionary
281
     1
  3
Normal
350
F
100
AcDbDictionaryWithDefault
340
F
  0
DICTIONARY
  5
3C0
102
{ACAD_REACTORS
330
C
102
}
330
C
100
AcDbDictionary
281
     1
  0
DICTIONARY
  5
2A
102
{ACAD_REACTORS
330
C
102
}
330
C
100
AcDbDictionary
281
     1
  3
2dWireframe
350
2F
  3
3D Hidden
350
31
  3
3dWireframe
350
30
  3
Basic
350
32
  3
Brighten
350
36
  3
ColorChange
350
3A
  3
Conceptual
350
34
  3
Dim
350
35
  3
Facepattern
350
39
  3
Flat
350
2B
  3
FlatWithEdges
350
2C
  3
Gouraud
350
2D
  3
GouraudWithEdges
350
2E
  3
Linepattern
350
38
  3
Realistic
350
33
  3
Thicken
350
37
  0
LAYOUT
  5
1E
102
{ACAD_REACTORS
330
1A
102
}
330
1A
100
AcDbPlotSettings
  1

  2
none_device
  4

  6

 40
0.0
 41
0.0
 42
0.0
 43
0.0
 44
0.0
 45
0.0
 46
0.0
 47
0.0
 48
0.0
 49
0.0
140
0.0
141
0.0
142
1.0
143
1.0
 70
   688
 72
     0
 73
     0
 74
     5
  7

 75
    16
 76
     0
 77
     5
 78
   300
147
1.0
148
0.0
149
0.0
100
AcDbLayout
  1
Layout1
 70
     1
 71
     1
 10
0.0
 20
0.0
 11
420.0
 21
297.0
 12
0.0
 22
0.0
 32
0.0
 14
1.000000000000000E+20
 24
1.000000000000000E+20
 34
1.000000000000000E+20
 15
-1.000000000000000E+20
 25
-1.000000000000000E+20
 35
-1.000000000000000E+20
146
0.0
 13
0.0
 23
0.0
 33
0.0
 16
1.0
 26
0.0
 36
0.0
 17
0.0
 27
1.0
 37
0.0
 76
     0
330
1B
  0
LAYOUT
  5
26
102
{ACAD_REACTORS
330
1A
102
}
330
1A
100
AcDbPlotSettings
  1

  2
none_device
  4

  6

 40
0.0
 41
0.0
 42
0.0
 43
0.0
 44
0.0
 45
0.0
 46
0.0
 47
0.0
 48
0.0
 49
0.0
140
0.0
141
0.0
142
1.0
143
1.0
 70
   688
 72
     0
 73
     0
 74
     5
  7

 75
    16
 76
     0
 77
     5
 78
   300
147
1.0
148
0.0
149
0.0
100
AcDbLayout
  1
Layout2
 70
     1
 71
     2
 10
0.0
 20
0.0
 11
0.0
 21
0.0
 12
0.0
 22
0.0
 32
0.0
 14
0.0
 24
0.0
 34
0.0
 15
0.0
 25
0.0
 35
0.0
146
0.0
 13
0.0
 23
0.0
 33
0.0
 16
1.0
 26
0.0
 36
0.0
 17
0.0
 27
1.0
 37
0.0
 76
     0
330
23
  0
LAYOUT
  5
22
102
{ACAD_REACTORS
330
1A
102
}
330
1A
100
AcDbPlotSettings
  1

  2
none_device
  4

  6

 40
0.0
 41
0.0
 42
0.0
 43
0.0
 44
0.0
 45
0.0
 46
0.0
 47
0.0
 48
0.0
 49
0.0
140
0.0
141
0.0
142
1.0
143
1.0
 70
  1712
 72
     0
 73
     0
 74
     0
  7

 75
     0
 76
     0
 77
     5
 78
   300
147
1.0
148
0.0
149
0.0
100
AcDbLayout
  1
Model
 70
     1
 71
     0
 10
-6300.0
 20
-4455.0
 11
6300.0
 21
4455.0
 12
0.0
 22
0.0
 32
0.0
 14
-6300.0
 24
-4455.0
 34
0.0
 15
6300.0
 25
4455.0
 35
0.0
146
0.0
 13
0.0
 23
0.0
 33
0.0
 16
1.0
 26
0.0
 36
0.0
 17
0.0
 27
1.0
 37
0.0
 76
     0
330
1F
331
29
  0
MATERIAL
  5
3D
102
{ACAD_REACTORS
330
3B
102
}
330
3B
100
AcDbMaterial
  1
ByBlock
 72
     1
 94
      127
  0
MATERIAL
  5
3C
102
{ACAD_REACTORS
330
3B
102
}
330
3B
100
AcDbMaterial
  1
ByLayer
 72
     1
 94
      127
  0
MATERIAL
  5
3E
102
{ACAD_REACTORS
330
3B
102
}
330
3B
100
AcDbMaterial
  1
Global
 72
     1
 94
      127
  0
MLINESTYLE
  5
18
102
{ACAD_REACTORS
330
17
102
}
330
17
100
AcDbMlineStyle
  2
Standard
 70
     0
  3

 62
   256
 51
90.0
 52
90.0
 71
     2
 49
0.5
 62
   256
  6
BYLAYER
 49
-0.5
 62
   256
  6
BYLAYER
  0
ACDBPLACEHOLDER
  5
F
102
{ACAD_REACTORS
330
E
102
}
330
E
  0
VISUALSTYLE
  5
2F
102
{ACAD_REACTORS
330
2A
102
}
330
2A
100
AcDbVisualStyle
  2
2dWireframe
 70
     4
177
     2
291
     0
 71
     0
176
     1
 72
     2
176
     1
 73
     0
176
     1
 90
        0
176
     1
 40
-0.6
176
     1
 41
-30.0
176
     1
 62
     5
 63
     7
421
 16777215
176
     1
 74
     1
176
     1
 91
        4
176
     1
 64
     7
176
     1
 65
   257
176
     1
 75
     1
176
     1
175
     1
176
     1
 42
1.0
176
     1
 92
        0
176
     1
 66
   257
176
     1
 43
1.0
176
     1
 76
     1
176
     1
 77
     6
176
     1
 78
     2
176
     1
 67
     7
176
     1
 79
     5
176
     1
170
     0
176
     1
171
     0
176
     1
290
     0
176
     1
 93
        1
176
     1
 44
0.0
176
     1
173
     0
176
     1
  0
VISUALSTYLE
  5
31
102
{ACAD_REACTORS
330
2A
102
}
330
2A
100
AcDbVisualStyle
  2
3D Hidden
 70
     6
177
     2
291
     0
 71
     1
176
     1
 72
     2
176
     1
 73
     2
176
     1
 90
        0
176
     1
 40
-0.6
176
     1
 41
-30.0
176
     1
 62
     5
 63
     7
421
 16777215
176
     1
 74
     2
176
     1
 91
        2
176
     1
 64
     7
176
     1
 65
   257
176
     1
 75
     2
176
     1
175
     1
176
     1
 42
40.0
176
     1
 92
        0
176
     1
 66
   257
176
     1
 43
1.0
176
     1
 76
     1
176
     1
 77
     6
176
     1
 78
     2
176
     1
 67
     7
176
     1
 79
     3
176
     1
170
     0
176
     1
171
     0
176
     1
290
     0
176
     1
 93
        1
176
     1
 44
0.0
176
     1
173
     0
176
     1
  0
VISUALSTYLE
  5
30
102
{ACAD_REACTORS
330
2A
102
}
330
2A
100
AcDbVisualStyle
  2
3dWireframe
 70
     5
177
     2
291
     0
 71
     0
176
     1
 72
     2
176
     1
 73
     0
176
     1
 90
        0
176
     1
 40
-0.6
176
     1
 41
-30.0
176
     1
 62
     5
 63
     7
421
 16777215
176
     1
 74
     1
176
     1
 91
        4
176
     1
 64
     7
176
     1
 65
   257
176
     1
 75
     1
176
     1
175
     1
176
     1
 42
1.0
176
     1
 92
        0
176
     1
 66
   257
176
     1
 43
1.0
176
     1
 76
     1
176
     1
 77
     6
176
     1
 78
     2
176
     1
 67
     7
176
     1
 79
     5
176
     1
170
     0
176
     1
171
     0
176
     1
290
     0
176
     1
 93
        1
176
     1
 44
0.0
176
     1
173
     0
176
     1
  0
VISUALSTYLE
  5
32
102
{ACAD_REACTORS
330
2A
102
}
330
2A
100
AcDbVisualStyle
  2
Basic
 70
     7
177
     2
291
     1
 71
     1
176
     1
 72
     0
176
     1
 73
     1
176
     1
 90
        0
176
     1
 40
-0.6
176
     1
 41
-30.0
176
     1
 62
     5
 63
     7
421
 16777215
176
     1
 74
     0
176
     1
 91
        4
176
     1
 64
     7
176
     1
 65
   257
176
     1
 75
     1
176
     1
175
     1
176
     1
 42
1.0
176
     1
 92
        8
176
     1
 66
     7
176
     1
 43
1.0
176
     1
 76
     1
176
     1
 77
     6
176
     1
 78
     2
176
     1
 67
     7
176
     1
 79
     5
176
     1
170
     0
176
     1
171
     0
176
     1
290
     0
176
     1
 93
        1
176
     1
 44
0.0
176
     1
173
     0
176
     1
  0
VISUALSTYLE
  5
36
102
{ACAD_REACTORS
330
2A
102
}
330
2A
100
AcDbVisualStyle
  2
Brighten
 70
    12
177
     2
291
     1
 71
     2
176
     1
 72
     2
176
     1
 73
     0
176
     1
 90
        0
176
     1
 40
-0.6
176
     1
 41
-30.0
176
     1
 62
     5
 63
     7
421
 16777215
176
     1
 74
     1
176
     1
 91
        4
176
     1
 64
     7
176
     1
 65
   257
176
     1
 75
     1
176
     1
175
     1
176
     1
 42
1.0
176
     1
 92
        8
176
     1
 66
     7
176
     1
 43
1.0
176
     1
 76
     1
176
     1
 77
     6
176
     1
 78
     2
176
     1
 67
     7
176
     1
 79
     5
176
     1
170
     0
176
     1
171
     0
176
     1
290
     0
176
     1
 93
        1
176
     1
 44
50.0
176
     1
173
     0
176
     1
  0
VISUALSTYLE
  5
3A
102
{ACAD_REACTORS
330
2A
102
}
330
2A
100
AcDbVisualStyle
  2
ColorChange
 70
    16
177
     2
291
     1
 71
     2
176
     1
 72
     2
176
     1
 73
     3
176
     1
 90
        0
176
     1
 40
-0.6
176
     1
 41
-30.0
176
     1
 62
     5
 63
     8
421
  8421504
176
     1
 74
     1
176
     1
 91
        4
176
     1
 64
     7
176
     1
 65
   257
176
     1
 75
     1
176
     1
175
     1
176
     1
 42
1.0
176
     1
 92
        8
176
     1
 66
     8
424
  8421504
176
     1
 43
1.0
176
     1
 76
     1
176
     1
 77
     6
176
     1
 78
     2
176
     1
 67
     7
176
     1
 79
     5
176
     1
170
     0
176
     1
171
     0
176
     1
290
     0
176
     1
 93
        1
176
     1
 44
0.0
176
     1
173
     0
176
     1
  0
VISUALSTYLE
  5
34
102
{ACAD_REACTORS
330
2A
102
}
330
2A
100
AcDbVisualStyle
  2
Conceptual
 70
     9
177
     2
291
     0
 71
     3
176
     1
 72
     2
176
     1
 73
     0
176
     1
 90
        0
176
     1
 40
-0.6
176
     1
 41
-30.0
176
     1
 62
     5
 63
     7
421
 16777215
176
     1
 74
     2
176
     1
 91
        2
176
     1
 64
     7
176
     1
 65
   257
176
     1
 75
     1
176
     1
175
     1
176
     1
 42
40.0
176
     1
 92
        8
176
     1
 66
     7
176
     1
 43
1.0
176
     1
 76
     1
176
     1
 77
     6
176
     1
 78
     2
176
     1
 67
     7
176
     1
 79
     3
176
     1
170
     0
176
     1
171
     0
176
     1
290
     0
176
     1
 93
        1
176
     1
 44
0.0
176
     1
173
     0
176
     1
  0
VISUALSTYLE
  5
35
102
{ACAD_REACTORS
330
2A
102
}
330
2A
100
AcDbVisualStyle
  2
Dim
 70
    11
177
     2
291
     1
 71
     2
176
     1
 72
     2
176
     1
 73
     0
176
     1
 90
        0
176
     1
 40
-0.6
176
     1
 41
-30.0
176
     1
 62
     5
 63
     7
421
 16777215
176
     1
 74
     1
176
     1
 91
        4
176
     1
 64
     7
176
     1
 65
   257
176
     1
 75
     1
176
     1
175
     1
176
     1
 42
1.0
176
     1
 92
        8
176
     1
 66
     7
176
     1
 43
1.0
176
     1
 76
     1
176
     1
 77
     6
176
     1
 78
     2
176
     1
 67
     7
176
     1
 79
     5
176
     1
170
     0
176
     1
171
     0
176
     1
290
     0
176
     1
 93
        1
176
     1
 44
-50.0
176
     1
173
     0
176
     1
  0
VISUALSTYLE
  5
39
102
{ACAD_REACTORS
330
2A
102
}
330
2A
100
AcDbVisualStyle
  2
Facepattern
 70
    15
177
     2
291
     1
 71
     2
176
     1
 72
     2
176
     1
 73
     0
176
     1
 90
        0
176
     1
 40
-0.6
176
     1
 41
-30.0
176
     1
 62
     5
 63
     7
421
 16777215
176
     1
 74
     1
176
     1
 91
        4
176
     1
 64
     7
176
     1
 65
   257
176
     1
 75
     1
176
     1
175
     1
176
     1
 42
1.0
176
     1
 92
        8
176
     1
 66
     7
176
     1
 43
1.0
176
     1
 76
     1
176
     1
 77
     6
176
     1
 78
     2
176
     1
 67
     7
176
     1
 79
     5
176
     1
170
     0
176
     1
171
     0
176
     1
290
     0
176
     1
 93
        1
176
     1
 44
0.0
176
     1
173
     0
176
     1
  0
VISUALSTYLE
  5
2B
102
{ACAD_REACTORS
330
2A
102
}
330
2A
100
AcDbVisualStyle
  2
Flat
 70
     0
177
     2
291
     1
 71
     2
176
     1
 72
     1
176
     1
 73
     1
176
     1
 90
        2
176
     1
 40
-0.6
176
     1
 41
30.0
176
     1
 62
     5
 63
     7
421
 16777215
176
     1
 74
     0
176
     1
 91
        4
176
     1
 64
     7
176
     1
 65
   257
176
     1
 75
     1
176
     1
175
     1
176
     1
 42
1.0
176
     1
 92
        8
176
     1
 66
     7
176
     1
 43
1.0
176
     1
 76
     1
176
     1
 77
     6
176
     1
 78
     2
176
     1
 67
     7
176
     1
 79
     5
176
     1
170
     0
176
     1
171
     0
176
     1
290
     0
176
     1
 93
       13
176
     1
 44
0.0
176
     1
173
     0
176
     1
  0
VISUALSTYLE
  5
2C
102
{ACAD_REACTORS
330
2A
102
}
330
2A
100
AcDbVisualStyle
  2
FlatWithEdges
 70
     1
177
     2
291
     1
 71
     2
176
     1
 72
     1
176
     1
 73
     1
176
     1
 90
        2
176
     1
 40
-0.6
176
     1
 41
30.0
176
     1
 62
     5
 63
     7
421
 16777215
176
     1
 74
     1
176
     1
 91
        4
176
     1
 64
     7
176
     1
 65
   257
176
     1
 75
     1
176
     1
175
     1
176
     1
 42
1.0
176
     1
 92
        0
176
     1
 66
   257
176
     1
 43
1.0
176
     1
 76
     1
176
     1
 77
     6
176
     1
 78
     2
176
     1
 67
     7
176
     1
 79
     5
176
     1
170
     0
176
     1
171
     0
176
     1
290
     0
176
     1
 93
       13
176
     1
 44
0.0
176
     1
173
     0
176
     1
  0
VISUALSTYLE
  5
2D
102
{ACAD_REACTORS
330
2A
102
}
330
2A
100
AcDbVisualStyle
  2
Gouraud
 70
     2
177
     2
291
     1
 71
     2
176
     1
 72
     2
176
     1
 73
     1
176
     1
 90
        2
176
     1
 40
-0.6
176
     1
 41
30.0
176
     1
 62
     5
 63
     7
421
 16777215
176
     1
 74
     0
176
     1
 91
        4
176
     1
 64
     7
176
     1
 65
   257
176
     1
 75
     1
176
     1
175
     1
176
     1
 42
1.0
176
     1
 92
        0
176
     1
 66
     7
176
     1
 43
1.0
176
     1
 76
     1
176
     1
 77
     6
176
     1
 78
     2
176
     1
 67
     7
176
     1
 79
     5
176
     1
170
     0
176
     1
171
     0
176
     1
290
     0
176
     1
 93
       13
176
     1
 44
0.0
176
     1
173
     0
176
     1
  0
VISUALSTYLE
  5
2E
102
{ACAD_REACTORS
330
2A
102
}
330
2A
100
AcDbVisualStyle
  2
GouraudWithEdges
 70
     3
177
     2
291
     1
 71
     2
176
     1
 72
     2
176
     1
 73
     1
176
     1
 90
        2
176
     1
 40
-0.6
176
     1
 41
30.0
176
     1
 62
     5
 63
     7
421
 16777215
176
     1
 74
     1
176
     1
 91
        4
176
     1
 64
     7
176
     1
 65
   257
176
     1
 75
     1
176
     1
175
     1
176
     1
 42
1.0
176
     1
 92
        0
176
     1
 66
   257
176
     1
 43
1.0
176
     1
 76
     1
176
     1
 77
     6
176
     1
 78
     2
176
     1
 67
     7
176
     1
 79
     5
176
     1
170
     0
176
     1
171
     0
176
     1
290
     0
176
     1
 93
       13
176
     1
 44
0.0
176
     1
173
     0
176
     1
  0
VISUALSTYLE
  5
38
102
{ACAD_REACTORS
330
2A
102
}
330
2A
100
AcDbVisualStyle
  2
Linepattern
 70
    14
177
     2
291
     1
 71
     2
176
     1
 72
     2
176
     1
 73
     0
176
     1
 90
        0
176
     1
 40
-0.6
176
     1
 41
-30.0
176
     1
 62
     5
 63
     7
421
 16777215
176
     1
 74
     1
176
     1
 91
        4
176
     1
 64
     7
176
     1
 65
   257
176
     1
 75
     7
176
     1
175
     7
176
     1
 42
1.0
176
     1
 92
        8
176
     1
 66
     7
176
     1
 43
1.0
176
     1
 76
     1
176
     1
 77
     6
176
     1
 78
     2
176
     1
 67
     7
176
     1
 79
     5
176
     1
170
     0
176
     1
171
     0
176
     1
290
     0
176
     1
 93
        1
176
     1
 44
0.0
176
     1
173
     0
176
     1
  0
VISUALSTYLE
  5
33
102
{ACAD_REACTORS
330
2A
102
}
330
2A
100
AcDbVisualStyle
  2
Realistic
 70
     8
177
     2
291
     0
 71
     2
176
     1
 72
     2
176
     1
 73
     0
176
     1
 90
        0
176
     1
 40
-0.6
176
     1
 41
-30.0
176
     1
 62
     5
 63
     7
421
 16777215
176
     1
 74
     1
176
     1
 91
        0
176
     1
 64
     7
176
     1
 65
   257
176
     1
 75
     1
176
     1
175
     1
176
     1
 42
1.0
176
     1
 92
        8
176
     1
 66
     8
424
  7895160
176
     1
 43
1.0
176
     1
 76
     1
176
     1
 77
     6
176
     1
 78
     2
176
     1
 67
     7
176
     1
 79
     5
176
     1
170
     0
176
     1
171
     0
176
     1
290
     0
176
     1
 93
       13
176
     1
 44
0.0
176
     1
173
     0
176
     1
  0
VISUALSTYLE
  5
37
102
{ACAD_REACTORS
330
2A
102
}
330
2A
100
AcDbVisualStyle
  2
Thicken
 70
    13
177
     2
291
     1
 71
     2
176
     1
 72
     2
176
     1
 73
     0
176
     1
 90
        0
176
     1
 40
-0.6
176
     1
 41
-30.0
176
     1
 62
     5
 63
     7
421
 16777215
176
     1
 74
     1
176
     1
 91
        4
176
     1
 64
     7
176
     1
 65
   257
176
     1
 75
     1
176
     1
175
     1
176
     1
 42
1.0
176
     1
 92
       12
176
     1
 66
     7
176
     1
 43
1.0
176
     1
 76
     1
176
     1
 77
     6
176
     1
 78
     2
176
     1
 67
     7
176
     1
 79
     5
176
     1
170
     0
176
     1
171
     0
176
     1
290
     0
176
     1
 93
        1
176
     1
 44
0.0
176
     1
173
     0
176
     1
  0
ENDSEC
  0
EOF
