  0
SECTION
  2
HEADER
  9
$ACADVER
  1
AC1024
  9
$ACADMAINTVER
 70
     6
  9
$DWGCODEPAGE
  3
ANSI_932
  9
$INSBASE
 10
0.0
 20
0.0
 30
0.0
  9
$EXTMIN
 10
-4455.0
 20
-3150.0
 30
0.0
  9
$EXTMAX
 10
4455.0
 20
3150.0
 30
0.0
  9
$LIMMIN
 10
-4455.0
 20
-3150.0
  9
$LIMMAX
 10
4455.0
 20
3150.0
  9
$ORTHOMODE
 70
     0
  9
$REGENMODE
 70
     1
  9
$FILLMODE
 70
     1
  9
$QTEXTMODE
 70
     0
  9
$MIRRTEXT
 70
     1
  9
$LTSCALE
 40
30.0
  9
$ATTMODE
 70
     1
  9
$TEXTSIZE
 40
2.5
  9
$TRACEWID
 40
1.0
  9
$TEXTSTYLE
  7
Standard
  9
$CLAYER
  8
0
  9
$CELTYPE
  6
ByLayer
  9
$CECOLOR
 62
   256
  9
$CELTSCALE
 40
1.0
  9
$DISPSILH
 70
     0
  9
$DIMSCALE
 40
1.0
  9
$DIMASZ
 40
2.5
  9
$DIMEXO
 40
0.625
  9
$DIMDLI
 40
3.75
  9
$DIMRND
 40
0.0
  9
$DIMDLE
 40
0.0
  9
$DIMEXE
 40
1.25
  9
$DIMTP
 40
0.0
  9
$DIMTM
 40
0.0
  9
$DIMTXT
 40
2.5
  9
$DIMCEN
 40
2.5
  9
$DIMTSZ
 40
0.0
  9
$DIMTOL
 70
     0
  9
$DIMLIM
 70
     0
  9
$DIMTIH
 70
     0
  9
$DIMTOH
 70
     0
  9
$DIMSE1
 70
     0
  9
$DIMSE2
 70
     0
  9
$DIMTAD
 70
     1
  9
$DIMZIN
 70
     8
  9
$DIMBLK
  1

  9
$DIMASO
 70
     1
  9
$DIMSHO
 70
     1
  9
$DIMPOST
  1

  9
$DIMAPOST
  1

  9
$DIMALT
 70
     0
  9
$DIMALTD
 70
     3
  9
$DIMALTF
 40
0.03937007874016
  9
$DIMLFAC
 40
1.0
  9
$DIMTOFL
 70
     1
  9
$DIMTVP
 40
0.0
  9
$DIMTIX
 70
     0
  9
$DIMSOXD
 70
     0
  9
$DIMSAH
 70
     0
  9
$DIMBLK1
  1

  9
$DIMBLK2
  1

  9
$DIMSTYLE
  2
ISO-25
  9
$DIMCLRD
 70
     0
  9
$DIMCLRE
 70
     0
  9
$DIMCLRT
 70
     0
  9
$DIMTFAC
 40
1.0
  9
$DIMGAP
 40
0.625
  9
$DIMJUST
 70
     0
  9
$DIMSD1
 70
     0
  9
$DIMSD2
 70
     0
  9
$DIMTOLJ
 70
     0
  9
$DIMTZIN
 70
     8
  9
$DIMALTZ
 70
     0
  9
$DIMALTTZ
 70
     0
  9
$DIMUPT
 70
     0
  9
$DIMDEC
 70
     2
  9
$DIMTDEC
 70
     2
  9
$DIMALTU
 70
     2
  9
$DIMALTTD
 70
     3
  9
$DIMTXSTY
  7
Standard
  9
$DIMAUNIT
 70
     0
  9
$DIMADEC
 70
     0
  9
$DIMALTRND
 40
0.0
  9
$DIMAZIN
 70
     0
  9
$DIMDSEP
 70
    44
  9
$DIMATFIT
 70
     3
  9
$DIMFRAC
 70
     0
  9
$DIMLDRBLK
  1

  9
$DIMLUNIT
 70
     2
  9
$DIMLWD
 70
    -2
  9
$DIMLWE
 70
    -2
  9
$DIMTMOVE
 70
     0
  9
$DIMFXL
 40
1.0
  9
$DIMFXLON
 70
     0
  9
$DIMJOGANG
 40
0.7853981633974483
  9
$DIMTFILL
 70
     0
  9
$DIMTFILLCLR
 70
     0
  9
$DIMARCSYM
 70
     0
  9
$DIMLTYPE
  6

  9
$DIMLTEX1
  6

  9
$DIMLTEX2
  6

  9
$DIMTXTDIRECTION
 70
     0
  9
$LUNITS
 70
     2
  9
$LUPREC
 70
     4
  9
$SKETCHINC
 40
1.0
  9
$FILLETRAD
 40
10.0
  9
$AUNITS
 70
     0
  9
$AUPREC
 70
     0
  9
$MENU
  1
.
  9
$ELEVATION
 40
0.0
  9
$PELEVATION
 40
0.0
  9
$THICKNESS
 40
0.0
  9
$LIMCHECK
 70
     0
  9
$CHAMFERA
 40
10.0
  9
$CHAMFERB
 40
10.0
  9
$CHAMFERC
 40
20.0
  9
$CHAMFERD
 40
0.0
  9
$SKPOLY
 70
     0
  9
$TDCREATE
 40
2457997.709686921
  9
$TDUCREATE
 40
2457997.334686921
  9
$TDUPDATE
 40
2457997.709686933
  9
$TDUUPDATE
 40
2457997.334686933
  9
$TDINDWG
 40
0.0000000116
  9
$TDUSRTIMER
 40
0.0000000116
  9
$USRTIMER
 70
     1
  9
$ANGBASE
 50
0.0
  9
$ANGDIR
 70
     0
  9
$PDMODE
 70
     0
  9
$PDSIZE
 40
0.0
  9
$PLINEWID
 40
0.0
  9
$SPLFRAME
 70
     0
  9
$SPLINETYPE
 70
     6
  9
$SPLINESEGS
 70
     8
  9
$HANDSEED
  5
348
  9
$SURFTAB1
 70
     6
  9
$SURFTAB2
 70
     6
  9
$SURFTYPE
 70
     6
  9
$SURFU
 70
     6
  9
$SURFV
 70
     6
  9
$UCSBASE
  2

  9
$UCSNAME
  2

  9
$UCSORG
 10
0.0
 20
0.0
 30
0.0
  9
$UCSXDIR
 10
1.0
 20
0.0
 30
0.0
  9
$UCSYDIR
 10
0.0
 20
1.0
 30
0.0
  9
$UCSORTHOREF
  2

  9
$UCSORTHOVIEW
 70
     0
  9
$UCSORGTOP
 10
0.0
 20
0.0
 30
0.0
  9
$UCSORGBOTTOM
 10
0.0
 20
0.0
 30
0.0
  9
$UCSORGLEFT
 10
0.0
 20
0.0
 30
0.0
  9
$UCSORGRIGHT
 10
0.0
 20
0.0
 30
0.0
  9
$UCSORGFRONT
 10
0.0
 20
0.0
 30
0.0
  9
$UCSORGBACK
 10
0.0
 20
0.0
 30
0.0
  9
$PUCSBASE
  2

  9
$PUCSNAME
  2

  9
$PUCSORG
 10
0.0
 20
0.0
 30
0.0
  9
$PUCSXDIR
 10
1.0
 20
0.0
 30
0.0
  9
$PUCSYDIR
 10
0.0
 20
1.0
 30
0.0
  9
$PUCSORTHOREF
  2

  9
$PUCSORTHOVIEW
 70
     0
  9
$PUCSORGTOP
 10
0.0
 20
0.0
 30
0.0
  9
$PUCSORGBOTTOM
 10
0.0
 20
0.0
 30
0.0
  9
$PUCSORGLEFT
 10
0.0
 20
0.0
 30
0.0
  9
$PUCSORGRIGHT
 10
0.0
 20
0.0
 30
0.0
  9
$PUCSORGFRONT
 10
0.0
 20
0.0
 30
0.0
  9
$PUCSORGBACK
 10
0.0
 20
0.0
 30
0.0
  9
$USERI1
 70
     0
  9
$USERI2
 70
     0
  9
$USERI3
 70
     0
  9
$USERI4
 70
     0
  9
$USERI5
 70
     0
  9
$USERR1
 40
0.0
  9
$USERR2
 40
0.0
  9
$USERR3
 40
0.0
  9
$USERR4
 40
0.0
  9
$USERR5
 40
0.0
  9
$WORLDVIEW
 70
     1
  9
$SHADEDGE
 70
     3
  9
$SHADEDIF
 70
    70
  9
$TILEMODE
 70
     1
  9
$MAXACTVP
 70
    64
  9
$PINSBASE
 10
0.0
 20
0.0
 30
0.0
  9
$PLIMCHECK
 70
     0
  9
$PEXTMIN
 10
1.000000000000000E+20
 20
1.000000000000000E+20
 30
1.000000000000000E+20
  9
$PEXTMAX
 10
-1.000000000000000E+20
 20
-1.000000000000000E+20
 30
-1.000000000000000E+20
  9
$PLIMMIN
 10
0.0
 20
0.0
  9
$PLIMMAX
 10
420.0
 20
297.0
  9
$UNITMODE
 70
     0
  9
$VISRETAIN
 70
     1
  9
$PLINEGEN
 70
     0
  9
$PSLTSCALE
 70
     1
  9
$TREEDEPTH
 70
  3020
  9
$CMLSTYLE
  2
Standard
  9
$CMLJUST
 70
     0
  9
$CMLSCALE
 40
20.0
  9
$PROXYGRAPHICS
 70
     1
  9
$MEASUREMENT
 70
     1
  9
$CELWEIGHT
370
    -1
  9
$ENDCAPS
280
     0
  9
$JOINSTYLE
280
     0
  9
$LWDISPLAY
290
     0
  9
$INSUNITS
 70
     4
  9
$HYPERLINKBASE
  1

  9
$STYLESHEET
  1

  9
$XEDIT
290
     1
  9
$CEPSNTYPE
380
     0
  9
$PSTYLEMODE
290
     1
  9
$FINGERPRINTGUID
  2
{F65551B9-C762-44AA-A7B5-98149F680C02}
  9
$VERSIONGUID
  2
{FAEB1C32-E019-11D5-929B-00C0DF256EC4}
  9
$EXTNAMES
290
     1
  9
$PSVPSCALE
 40
0.0
  9
$OLESTARTUP
290
     0
  9
$SORTENTS
280
   127
  9
$INDEXCTL
280
     0
  9
$HIDETEXT
280
     1
  9
$XCLIPFRAME
280
     2
  9
$HALOGAP
280
     0
  9
$OBSCOLOR
 70
   257
  9
$OBSLTYPE
280
     0
  9
$INTERSECTIONDISPLAY
280
     0
  9
$INTERSECTIONCOLOR
 70
   257
  9
$DIMASSOC
280
     2
  9
$PROJECTNAME
  1

  9
$CAMERADISPLAY
290
     0
  9
$LENSLENGTH
 40
50.0
  9
$CAMERAHEIGHT
 40
0.0
  9
$STEPSPERSEC
 40
2.0
  9
$STEPSIZE
 40
6.0
  9
$3DDWFPREC
 40
2.0
  9
$PSOLWIDTH
 40
5.0
  9
$PSOLHEIGHT
 40
80.0
  9
$LOFTANG1
 40
1.570796326794897
  9
$LOFTANG2
 40
1.570796326794897
  9
$LOFTMAG1
 40
0.0
  9
$LOFTMAG2
 40
0.0
  9
$LOFTPARAM
 70
     7
  9
$LOFTNORMALS
280
     1
  9
$LATITUDE
 40
37.795
  9
$LONGITUDE
 40
-122.394
  9
$NORTHDIRECTION
 40
0.0
  9
$TIMEZONE
 70
 -8000
  9
$LIGHTGLYPHDISPLAY
280
     1
  9
$TILEMODELIGHTSYNCH
280
     1
  9
$SOLIDHIST
280
     1
  9
$SHOWHIST
280
     1
  9
$DWFFRAME
280
     2
  9
$DGNFRAME
280
     2
  9
$REALWORLDSCALE
290
     1
  9
$INTERFERECOLOR
 62
   256
  9
$CSHADOW
280
     0
  9
$SHADOWPLANELOCATION
 40
0.0
  0
ENDSEC
  0
SECTION
  2
CLASSES
  0
CLASS
  1
ACDBDICTIONARYWDFLT
  2
AcDbDictionaryWithDefault
  3
ObjectDBX Classes
 90
        0
 91
        4
280
     0
281
     0
  0
CLASS
  1
VISUALSTYLE
  2
AcDbVisualStyle
  3
ObjectDBX Classes
 90
     4095
 91
        4
280
     0
281
     0
  0
CLASS
  1
MATERIAL
  2
AcDbMaterial
  3
ObjectDBX Classes
 90
     1153
 91
        4
280
     0
281
     0
  0
ENDSEC
  0
SECTION
  2
TABLES
  0
TABLE
  2
VPORT
  5
8
330
0
100
AcDbSymbolTable
 70
     1
  0
VPORT
  5
29
330
8
100
AcDbSymbolTableRecord
100
AcDbViewportTableRecord
  2
*Active
 70
     0
 10
0.0
 20
0.0
 11
1.0
 21
1.0
 12
0.0
 22
0.0
 13
0.0
 23
0.0
 14
10.0
 24
10.0
 15
10.0
 25
10.0
 16
0.0
 26
0.0
 36
1.0
 17
0.0
 27
0.0
 37
0.0
 40
6930.000000000001
 41
1.414285714285714
 42
50.0
 43
0.0
 44
0.0
 50
0.0
 51
0.0
 71
     0
 72
 10000
 73
     1
 74
     3
 75
     0
 76
     0
 77
     0
 78
     0
281
     0
 65
     1
110
0.0
120
0.0
130
0.0
111
1.0
121
0.0
131
0.0
112
0.0
122
1.0
132
0.0
 79
     0
146
0.0
 60
     3
 61
     5
292
     1
282
     1
141
0.0
142
0.0
 63
   250
  0
ENDTAB
  0
TABLE
  2
LTYPE
  5
5
330
0
100
AcDbSymbolTable
 70
     2
  0
LTYPE
  5
14
330
5
100
AcDbSymbolTableRecord
100
AcDbLinetypeTableRecord
  2
ByBlock
 70
     0
  3

 72
    65
 73
     0
 40
0.0
  0
LTYPE
  5
15
330
5
100
AcDbSymbolTableRecord
100
AcDbLinetypeTableRecord
  2
ByLayer
 70
     0
  3

 72
    65
 73
     0
 40
0.0
  0
LTYPE
  5
16
330
5
100
AcDbSymbolTableRecord
100
AcDbLinetypeTableRecord
  2
Continuous
 70
     0
  3
Solid line
 72
    65
 73
     0
 40
0.0
  0
LTYPE
  5
3F
330
5
100
AcDbSymbolTableRecord
100
AcDbLinetypeTableRecord
  2
JWW_DASHED1
 70
     0
  3
-  --  --  --  --  --  --  --  -
 72
    65
 73
     2
 40
1.693333333333333
 49
0.8466666666666667
 74
     0
 49
-0.8466666666666667
 74
     0
  0
ENDTAB
  0
TABLE
  2
LAYER
  5
2
330
0
100
AcDbSymbolTable
 70
     3
  0
LAYER
  5
10
330
2
100
AcDbSymbolTableRecord
100
AcDbLayerTableRecord
  2
0
 70
     0
 62
     7
  6
Continuous
370
    -3
390
F
347
3E
  0
LAYER
  5
40
330
2
100
AcDbSymbolTableRecord
100
AcDbLayerTableRecord
  2
0-0
 70
     0
 62
     7
  6
Continuous
370
    -3
390
F
347
3E
  0
LAYER
  5
41
330
2
100
AcDbSymbolTableRecord
100
AcDbLayerTableRecord
  2
寸法
 70
     0
 62
     7
  6
Continuous
370
    -3
390
F
347
3E
  0
ENDTAB
  0
TABLE
  2
STYLE
  5
3
330
0
100
AcDbSymbolTable
 70
     1
  0
STYLE
  5
11
330
3
100
AcDbSymbolTableRecord
100
AcDbTextStyleTableRecord
  2
Standard
 70
     0
 40
0.0
 41
1.0
 50
0.0
 71
     0
 42
2.5
  3
txt
  4

  0
ENDTAB
  0
TABLE
  2
VIEW
  5
6
330
0
100
AcDbSymbolTable
 70
     0
  0
ENDTAB
  0
TABLE
  2
UCS
  5
7
330
0
100
AcDbSymbolTable
 70
     0
  0
ENDTAB
  0
TABLE
  2
APPID
  5
9
330
0
100
AcDbSymbolTable
 70
     1
  0
APPID
  5
12
330
9
100
AcDbSymbolTableRecord
100
AcDbRegAppTableRecord
  2
ACAD
 70
     0
  0
ENDTAB
  0
TABLE
  2
DIMSTYLE
  5
A
330
0
100
AcDbSymbolTable
 70
     1
100
AcDbDimStyleTable
  0
DIMSTYLE
105
27
330
A
100
AcDbSymbolTableRecord
100
AcDbDimStyleTableRecord
  2
ISO-25
 70
     0
 41
2.5
 42
0.625
 43
3.75
 44
1.25
 73
     0
 74
     0
 77
     1
 78
     8
140
2.5
141
2.5
143
0.03937007874016
147
0.625
171
     3
172
     1
178
     0
271
     2
272
     2
274
     3
278
    44
283
     0
284
     8
340
11
  0
ENDTAB
  0
TABLE
  2
BLOCK_RECORD
  5
1
330
0
100
AcDbSymbolTable
 70
     1
  0
BLOCK_RECORD
  5
1F
330
1
100
AcDbSymbolTableRecord
100
AcDbBlockTableRecord
  2
*Model_Space
340
22
 70
     0
280
     1
281
     0
  0
BLOCK_RECORD
  5
1B
330
1
100
AcDbSymbolTableRecord
100
AcDbBlockTableRecord
  2
*Paper_Space
340
1E
 70
     0
280
     1
281
     0
  0
BLOCK_RECORD
  5
23
330
1
100
AcDbSymbolTableRecord
100
AcDbBlockTableRecord
  2
*Paper_Space0
340
26
 70
     0
280
     1
281
     0
  0
ENDTAB
  0
ENDSEC
  0
SECTION
  2
BLOCKS
  0
BLOCK
  5
20
330
1F
100
AcDbEntity
  8
0
100
AcDbBlockBegin
  2
*Model_Space
 70
     0
 10
0.0
 20
0.0
 30
0.0
  3
*Model_Space
  1

  0
ENDBLK
  5
21
330
1F
100
AcDbEntity
  8
0
100
AcDbBlockEnd
  0
BLOCK
  5
1C
330
1B
100
AcDbEntity
 67
     1
  8
0
100
AcDbBlockBegin
  2
*Paper_Space
 70
     0
 10
0.0
 20
0.0
 30
0.0
  3
*Paper_Space
  1

  0
ENDBLK
  5
1D
330
1B
100
AcDbEntity
 67
     1
  8
0
100
AcDbBlockEnd
  0
BLOCK
  5
24
330
23
100
AcDbEntity
  8
0
100
AcDbBlockBegin
  2
*Paper_Space0
 70
     0
 10
0.0
 20
0.0
 30
0.0
  3
*Paper_Space0
  1

  0
ENDBLK
  5
25
330
23
100
AcDbEntity
  8
0
100
AcDbBlockEnd
  0
ENDSEC
  0
SECTION
  2
ENTITIES
  0
LINE
  5
42
330
1F
100
AcDbEntity
  8
0-0
  6
Continuous
 62
    92
370
    13
100
AcDbLine
 10
-764.9744702567564
 20
-1390.744770666231
 30
0.0
 11
-764.9744702567564
 21
893.2552293337687
 31
0.0
  0
LINE
  5
43
330
1F
100
AcDbEntity
  8
0-0
  6
Continuous
 62
    92
370
    13
100
AcDbLine
 10
-797.4744702567558
 20
-1410.744770666231
 30
0.0
 11
-797.4744702567558
 21
936.7552293337689
 31
0.0
  0
LINE
  5
44
330
1F
100
AcDbEntity
  8
0-0
  6
Continuous
 62
    92
370
    13
100
AcDbLine
 10
-767.4744702567558
 20
-1410.744770666231
 30
0.0
 11
-767.4744702567558
 21
900.7552293337687
 31
0.0
  0
LINE
  5
45
330
1F
100
AcDbEntity
  8
0-0
  6
Continuous
 62
    92
370
    13
100
AcDbLine
 10
-764.9744702567564
 20
-1390.744770666231
 30
0.0
 11
-370.9744702567566
 21
-1390.744770666231
 31
0.0
  0
LINE
  5
46
330
1F
100
AcDbEntity
  8
0-0
  6
Continuous
 62
    92
370
    13
100
AcDbLine
 10
-764.9744702567564
 20
893.2552293337687
 30
0.0
 11
-370.9744702567566
 21
893.2552293337687
 31
0.0
  0
LINE
  5
47
330
1F
100
AcDbEntity
  8
0-0
  6
Continuous
 62
    92
370
    13
100
AcDbLine
 10
-370.9744702567566
 20
893.2552293337687
 30
0.0
 11
-370.9744702567566
 21
-1390.744770666231
 31
0.0
  0
LINE
  5
48
330
1F
100
AcDbEntity
  8
0-0
  6
Continuous
 62
    92
370
    13
100
AcDbLine
 10
-369.9744702567558
 20
893.2552293337687
 30
0.0
 11
-369.9744702567558
 21
-1390.744770666231
 31
0.0
  0
LINE
  5
49
330
1F
100
AcDbEntity
  8
0-0
  6
Continuous
 62
    92
370
    13
100
AcDbLine
 10
-369.9744702567558
 20
-1390.744770666231
 30
0.0
 11
24.02552974324394
 21
-1390.744770666231
 31
0.0
  0
LINE
  5
4A
330
1F
100
AcDbEntity
  8
0-0
  6
Continuous
 62
    92
370
    13
100
AcDbLine
 10
-369.9744702567558
 20
893.2552293337687
 30
0.0
 11
24.02552974324394
 21
893.2552293337687
 31
0.0
  0
LINE
  5
4B
330
1F
100
AcDbEntity
  8
0-0
  6
Continuous
 62
    92
370
    13
100
AcDbLine
 10
24.02552974324394
 20
893.2552293337687
 30
0.0
 11
24.02552974324394
 21
-1390.744770666231
 31
0.0
  0
LINE
  5
4C
330
1F
100
AcDbEntity
  8
0-0
  6
Continuous
 62
    92
370
    13
100
AcDbLine
 10
26.02552974324212
 20
893.2552293337687
 30
0.0
 11
26.02552974324212
 21
-1390.744770666231
 31
0.0
  0
LINE
  5
4D
330
1F
100
AcDbEntity
  8
0-0
  6
Continuous
 62
    92
370
    13
100
AcDbLine
 10
26.02552974324212
 20
-1390.744770666231
 30
0.0
 11
420.0255297432419
 21
-1390.744770666231
 31
0.0
  0
LINE
  5
4E
330
1F
100
AcDbEntity
  8
0-0
  6
Continuous
 62
    92
370
    13
100
AcDbLine
 10
26.02552974324212
 20
893.2552293337687
 30
0.0
 11
420.0255297432419
 21
893.2552293337687
 31
0.0
  0
LINE
  5
4F
330
1F
100
AcDbEntity
  8
0-0
  6
Continuous
 62
    92
370
    13
100
AcDbLine
 10
421.0255297432427
 20
-1390.744770666231
 30
0.0
 11
421.0255297432427
 21
893.2552293337687
 31
0.0
  0
LINE
  5
50
330
1F
100
AcDbEntity
  8
0-0
  6
Continuous
 62
    92
370
    13
100
AcDbLine
 10
420.0255297432419
 20
-1390.744770666231
 30
0.0
 11
420.0255297432419
 21
893.2552293337687
 31
0.0
  0
LINE
  5
51
330
1F
100
AcDbEntity
  8
0-0
  6
Continuous
 62
    92
370
    13
100
AcDbLine
 10
-797.4744702567558
 20
-1410.744770666231
 30
0.0
 11
847.5255297432419
 21
-1410.744770666231
 31
0.0
  0
LINE
  5
52
330
1F
100
AcDbEntity
  8
0-0
  6
Continuous
 62
    92
370
    13
100
AcDbLine
 10
847.5255297432419
 20
-1410.744770666231
 30
0.0
 11
847.5255297432419
 21
936.7552293337689
 31
0.0
  0
LINE
  5
53
330
1F
100
AcDbEntity
  8
0-0
  6
Continuous
 62
    92
370
    13
100
AcDbLine
 10
817.5255297432419
 20
-1410.744770666231
 30
0.0
 11
817.5255297432419
 21
900.7552293337687
 31
0.0
  0
LINE
  5
54
330
1F
100
AcDbEntity
  8
0-0
  6
Continuous
 62
    92
370
    13
100
AcDbLine
 10
-797.4744702567558
 20
936.7552293337689
 30
0.0
 11
847.5255297432419
 21
936.7552293337689
 31
0.0
  0
LINE
  5
55
330
1F
100
AcDbEntity
  8
0-0
  6
Continuous
 62
    92
370
    13
100
AcDbLine
 10
-767.4744702567558
 20
900.7552293337687
 30
0.0
 11
817.5255297432419
 21
900.7552293337687
 31
0.0
  0
LINE
  5
56
330
1F
100
AcDbEntity
  8
0-0
  6
Continuous
 62
    92
370
    13
100
AcDbLine
 10
-767.4744702567558
 20
-1398.744770666231
 30
0.0
 11
817.5255297432419
 21
-1398.744770666231
 31
0.0
  0
LINE
  5
57
330
1F
100
AcDbEntity
  8
0-0
  6
Continuous
 62
    92
370
    13
100
AcDbLine
 10
421.0255297432427
 20
-1390.744770666231
 30
0.0
 11
815.0255297432425
 21
-1390.744770666231
 31
0.0
  0
LINE
  5
58
330
1F
100
AcDbEntity
  8
0-0
  6
Continuous
 62
    92
370
    13
100
AcDbLine
 10
421.0255297432427
 20
893.2552293337687
 30
0.0
 11
815.0255297432425
 21
893.2552293337687
 31
0.0
  0
LINE
  5
59
330
1F
100
AcDbEntity
  8
0-0
  6
Continuous
 62
    92
370
    13
100
AcDbLine
 10
815.0255297432425
 20
-1390.744770666231
 30
0.0
 11
815.0255297432425
 21
893.2552293337687
 31
0.0
  0
LINE
  5
5A
330
1F
100
AcDbEntity
  8
0-0
  6
Continuous
 62
     7
370
     9
100
AcDbLine
 10
-688.9744702567709
 20
-435.7447706662311
 30
0.0
 11
-684.9744702567746
 21
-431.7447706662314
 31
0.0
  0
LINE
  5
5B
330
1F
100
AcDbEntity
  8
0-0
  6
Continuous
 62
     7
370
     9
100
AcDbLine
 10
-688.9744702567709
 20
-515.7447706662317
 30
0.0
 11
-684.9744702567746
 21
-519.7447706662315
 31
0.0
  0
LINE
  5
5C
330
1F
100
AcDbEntity
  8
0-0
  6
Continuous
 62
     7
370
     9
100
AcDbLine
 10
-688.9744702567709
 20
-1390.744770666231
 30
0.0
 11
-688.9744702567709
 21
893.2552293337687
 31
0.0
  0
LINE
  5
5D
330
1F
100
AcDbEntity
  8
0-0
  6
Continuous
 62
     7
370
     9
100
AcDbLine
 10
-688.9744702567709
 20
817.2552293337687
 30
0.0
 11
-684.9744702567746
 21
813.255229333769
 31
0.0
  0
LINE
  5
5E
330
1F
100
AcDbEntity
  8
0-0
  6
Continuous
 62
    92
370
    13
100
AcDbLine
 10
-684.9744702567746
 20
-431.7447706662314
 30
0.0
 11
-684.9744702567746
 21
813.255229333769
 31
0.0
  0
LINE
  5
5F
330
1F
100
AcDbEntity
  8
0-0
  6
Continuous
 62
     7
370
     9
100
AcDbLine
 10
-688.9744702567709
 20
-1314.744770666231
 30
0.0
 11
-684.9744702567746
 21
-1310.744770666231
 31
0.0
  0
LINE
  5
60
330
1F
100
AcDbEntity
  8
0-0
  6
Continuous
 62
    92
370
    13
100
AcDbLine
 10
-684.9744702567746
 20
-1310.744770666231
 30
0.0
 11
-684.9744702567746
 21
-519.7447706662315
 31
0.0
  0
LINE
  5
61
330
1F
100
AcDbEntity
  8
0-0
  6
Continuous
 62
     7
370
     9
100
AcDbLine
 10
-402.4744702567655
 20
-1390.744770666231
 30
0.0
 11
-402.4744702567655
 21
893.2552293337687
 31
0.0
  0
LINE
  5
62
330
1F
100
AcDbEntity
  8
0-0
  6
Continuous
 62
     7
370
     9
100
AcDbLine
 10
-338.4744702567691
 20
-1390.744770666231
 30
0.0
 11
-338.4744702567691
 21
893.2552293337687
 31
0.0
  0
LINE
  5
63
330
1F
100
AcDbEntity
  8
0-0
  6
Continuous
 62
     7
370
     9
100
AcDbLine
 10
-51.97447025676368
 20
-435.7447706662311
 30
0.0
 11
-55.97447025676004
 21
-431.7447706662314
 31
0.0
  0
LINE
  5
64
330
1F
100
AcDbEntity
  8
0-0
  6
Continuous
 62
     7
370
     9
100
AcDbLine
 10
-51.97447025676368
 20
-515.7447706662317
 30
0.0
 11
-55.97447025676004
 21
-519.7447706662315
 31
0.0
  0
LINE
  5
65
330
1F
100
AcDbEntity
  8
0-0
  6
Continuous
 62
     7
370
     9
100
AcDbLine
 10
-51.97447025676368
 20
-1390.744770666231
 30
0.0
 11
-51.97447025676368
 21
893.2552293337687
 31
0.0
  0
LINE
  5
66
330
1F
100
AcDbEntity
  8
0-0
  6
Continuous
 62
     7
370
     9
100
AcDbLine
 10
-51.97447025676368
 20
817.2552293337687
 30
0.0
 11
-55.97447025676004
 21
813.255229333769
 31
0.0
  0
LINE
  5
67
330
1F
100
AcDbEntity
  8
0-0
  6
Continuous
 62
    92
370
    13
100
AcDbLine
 10
-55.97447025676004
 20
-431.7447706662314
 30
0.0
 11
-55.97447025676004
 21
813.255229333769
 31
0.0
  0
LINE
  5
68
330
1F
100
AcDbEntity
  8
0-0
  6
Continuous
 62
     7
370
     9
100
AcDbLine
 10
-51.97447025676368
 20
-1314.744770666231
 30
0.0
 11
-55.97447025676004
 21
-1310.744770666231
 31
0.0
  0
LINE
  5
69
330
1F
100
AcDbEntity
  8
0-0
  6
Continuous
 62
    92
370
    13
100
AcDbLine
 10
-55.97447025676004
 20
-1310.744770666231
 30
0.0
 11
-55.97447025676004
 21
-519.7447706662315
 31
0.0
  0
LINE
  5
6A
330
1F
100
AcDbEntity
  8
0-0
  6
Continuous
 62
     7
370
     9
100
AcDbLine
 10
-465.4744702567764
 20
-431.7447706662314
 30
0.0
 11
-461.4744702567527
 21
-435.7447706662311
 31
0.0
  0
LINE
  5
6B
330
1F
100
AcDbEntity
  8
0-0
  6
Continuous
 62
     7
370
     9
100
AcDbLine
 10
-461.4744702567527
 20
-515.7447706662317
 30
0.0
 11
-465.4744702567764
 21
-519.7447706662315
 31
0.0
  0
LINE
  5
6C
330
1F
100
AcDbEntity
  8
0-0
  6
Continuous
 62
     7
370
     9
100
AcDbLine
 10
-461.4744702567527
 20
-1390.744770666231
 30
0.0
 11
-461.4744702567527
 21
893.2552293337687
 31
0.0
  0
LINE
  5
6D
330
1F
100
AcDbEntity
  8
0-0
  6
Continuous
 62
     7
370
     9
100
AcDbLine
 10
-461.4744702567527
 20
817.2552293337687
 30
0.0
 11
-465.4744702567764
 21
813.255229333769
 31
0.0
  0
LINE
  5
6E
330
1F
100
AcDbEntity
  8
0-0
  6
Continuous
 62
    92
370
    13
100
AcDbLine
 10
-465.4744702567764
 20
-431.7447706662314
 30
0.0
 11
-465.4744702567764
 21
813.255229333769
 31
0.0
  0
LINE
  5
6F
330
1F
100
AcDbEntity
  8
0-0
  6
Continuous
 62
     7
370
     9
100
AcDbLine
 10
-465.4744702567764
 20
-1310.744770666231
 30
0.0
 11
-461.4744702567527
 21
-1314.744770666231
 31
0.0
  0
LINE
  5
70
330
1F
100
AcDbEntity
  8
0-0
  6
Continuous
 62
    92
370
    13
100
AcDbLine
 10
-465.4744702567764
 20
-1310.744770666231
 30
0.0
 11
-465.4744702567764
 21
-519.7447706662315
 31
0.0
  0
LINE
  5
71
330
1F
100
AcDbEntity
  8
0-0
  6
Continuous
 62
     7
370
     9
100
AcDbLine
 10
-275.4744702567582
 20
-431.7447706662314
 30
0.0
 11
-279.4744702567546
 21
-435.7447706662311
 31
0.0
  0
LINE
  5
72
330
1F
100
AcDbEntity
  8
0-0
  6
Continuous
 62
     7
370
     9
100
AcDbLine
 10
-279.4744702567546
 20
-515.7447706662317
 30
0.0
 11
-275.4744702567582
 21
-519.7447706662315
 31
0.0
  0
LINE
  5
73
330
1F
100
AcDbEntity
  8
0-0
  6
Continuous
 62
     7
370
     9
100
AcDbLine
 10
-279.4744702567546
 20
-1390.744770666231
 30
0.0
 11
-279.4744702567546
 21
893.2552293337687
 31
0.0
  0
LINE
  5
74
330
1F
100
AcDbEntity
  8
0-0
  6
Continuous
 62
     7
370
     9
100
AcDbLine
 10
-279.4744702567546
 20
817.2552293337687
 30
0.0
 11
-275.4744702567582
 21
813.255229333769
 31
0.0
  0
LINE
  5
75
330
1F
100
AcDbEntity
  8
0-0
  6
Continuous
 62
    92
370
    13
100
AcDbLine
 10
-275.4744702567582
 20
-431.7447706662314
 30
0.0
 11
-275.4744702567582
 21
813.255229333769
 31
0.0
  0
LINE
  5
76
330
1F
100
AcDbEntity
  8
0-0
  6
Continuous
 62
     7
370
     9
100
AcDbLine
 10
-275.4744702567582
 20
-1310.744770666231
 30
0.0
 11
-279.4744702567546
 21
-1314.744770666231
 31
0.0
  0
LINE
  5
77
330
1F
100
AcDbEntity
  8
0-0
  6
Continuous
 62
     7
370
     9
100
AcDbLine
 10
-461.4744702567527
 20
817.2552293337687
 30
0.0
 11
-688.9744702567709
 21
817.2552293337687
 31
0.0
  0
LINE
  5
78
330
1F
100
AcDbEntity
  8
0-0
  6
Continuous
 62
    92
370
    13
100
AcDbLine
 10
-465.4744702567764
 20
813.255229333769
 30
0.0
 11
-684.9744702567746
 21
813.255229333769
 31
0.0
  0
LINE
  5
79
330
1F
100
AcDbEntity
  8
0-0
  6
Continuous
 62
     7
370
     9
100
AcDbLine
 10
-688.9744702567709
 20
-1314.744770666231
 30
0.0
 11
-461.4744702567527
 21
-1314.744770666231
 31
0.0
  0
LINE
  5
7A
330
1F
100
AcDbEntity
  8
0-0
  6
Continuous
 62
    92
370
    13
100
AcDbLine
 10
-684.9744702567746
 20
-1310.744770666231
 30
0.0
 11
-465.4744702567764
 21
-1310.744770666231
 31
0.0
  0
LINE
  5
7B
330
1F
100
AcDbEntity
  8
0-0
  6
Continuous
 62
     7
370
     9
100
AcDbLine
 10
-688.9744702567709
 20
-435.7447706662311
 30
0.0
 11
-461.4744702567527
 21
-435.7447706662311
 31
0.0
  0
LINE
  5
7C
330
1F
100
AcDbEntity
  8
0-0
  6
Continuous
 62
    92
370
    13
100
AcDbLine
 10
-684.9744702567746
 20
-431.7447706662314
 30
0.0
 11
-465.4744702567764
 21
-431.7447706662314
 31
0.0
  0
LINE
  5
7D
330
1F
100
AcDbEntity
  8
0-0
  6
Continuous
 62
    92
370
    13
100
AcDbLine
 10
-684.9744702567746
 20
-519.7447706662315
 30
0.0
 11
-465.4744702567764
 21
-519.7447706662315
 31
0.0
  0
LINE
  5
7E
330
1F
100
AcDbEntity
  8
0-0
  6
Continuous
 62
     7
370
     9
100
AcDbLine
 10
-688.9744702567709
 20
-515.7447706662317
 30
0.0
 11
-461.4744702567527
 21
-515.7447706662317
 31
0.0
  0
LINE
  5
7F
330
1F
100
AcDbEntity
  8
0-0
  6
Continuous
 62
    92
370
    13
100
AcDbLine
 10
-55.97447025676004
 20
-431.7447706662314
 30
0.0
 11
-275.4744702567582
 21
-431.7447706662314
 31
0.0
  0
LINE
  5
80
330
1F
100
AcDbEntity
  8
0-0
  6
Continuous
 62
     7
370
     9
100
AcDbLine
 10
-51.97447025676368
 20
-435.7447706662311
 30
0.0
 11
-279.4744702567546
 21
-435.7447706662311
 31
0.0
  0
LINE
  5
81
330
1F
100
AcDbEntity
  8
0-0
  6
Continuous
 62
    92
370
    13
100
AcDbLine
 10
-55.97447025676004
 20
-519.7447706662315
 30
0.0
 11
-275.4744702567582
 21
-519.7447706662315
 31
0.0
  0
LINE
  5
82
330
1F
100
AcDbEntity
  8
0-0
  6
Continuous
 62
     7
370
     9
100
AcDbLine
 10
-51.97447025676368
 20
-515.7447706662317
 30
0.0
 11
-279.4744702567546
 21
-515.7447706662317
 31
0.0
  0
LINE
  5
83
330
1F
100
AcDbEntity
  8
0-0
  6
Continuous
 62
     7
370
     9
100
AcDbLine
 10
102.0255297432327
 20
-435.7447706662311
 30
0.0
 11
106.025529743229
 21
-431.7447706662314
 31
0.0
  0
LINE
  5
84
330
1F
100
AcDbEntity
  8
0-0
  6
Continuous
 62
     7
370
     9
100
AcDbLine
 10
102.0255297432327
 20
-515.7447706662317
 30
0.0
 11
106.025529743229
 21
-519.7447706662315
 31
0.0
  0
LINE
  5
85
330
1F
100
AcDbEntity
  8
0-0
  6
Continuous
 62
     7
370
     9
100
AcDbLine
 10
102.0255297432327
 20
-1390.744770666231
 30
0.0
 11
102.0255297432327
 21
893.2552293337687
 31
0.0
  0
LINE
  5
86
330
1F
100
AcDbEntity
  8
0-0
  6
Continuous
 62
     7
370
     9
100
AcDbLine
 10
102.0255297432327
 20
817.2552293337687
 30
0.0
 11
106.025529743229
 21
813.255229333769
 31
0.0
  0
LINE
  5
87
330
1F
100
AcDbEntity
  8
0-0
  6
Continuous
 62
    92
370
    13
100
AcDbLine
 10
106.025529743229
 20
-431.7447706662314
 30
0.0
 11
106.025529743229
 21
813.255229333769
 31
0.0
  0
LINE
  5
88
330
1F
100
AcDbEntity
  8
0-0
  6
Continuous
 62
     7
370
     9
100
AcDbLine
 10
102.0255297432327
 20
-1314.744770666231
 30
0.0
 11
106.025529743229
 21
-1310.744770666231
 31
0.0
  0
LINE
  5
89
330
1F
100
AcDbEntity
  8
0-0
  6
Continuous
 62
    92
370
    13
100
AcDbLine
 10
106.025529743229
 20
-1310.744770666231
 30
0.0
 11
106.025529743229
 21
-519.7447706662315
 31
0.0
  0
LINE
  5
8A
330
1F
100
AcDbEntity
  8
0-0
  6
Continuous
 62
     7
370
     9
100
AcDbLine
 10
388.5255297432382
 20
-1390.744770666231
 30
0.0
 11
388.5255297432382
 21
893.2552293337687
 31
0.0
  0
LINE
  5
8B
330
1F
100
AcDbEntity
  8
0-0
  6
Continuous
 62
     7
370
     9
100
AcDbLine
 10
452.5255297432345
 20
-1390.744770666231
 30
0.0
 11
452.5255297432345
 21
893.2552293337687
 31
0.0
  0
LINE
  5
8C
330
1F
100
AcDbEntity
  8
0-0
  6
Continuous
 62
     7
370
     9
100
AcDbLine
 10
739.0255297432402
 20
-435.7447706662311
 30
0.0
 11
735.0255297432439
 21
-431.7447706662314
 31
0.0
  0
LINE
  5
8D
330
1F
100
AcDbEntity
  8
0-0
  6
Continuous
 62
     7
370
     9
100
AcDbLine
 10
739.0255297432402
 20
-515.7447706662317
 30
0.0
 11
735.0255297432439
 21
-519.7447706662315
 31
0.0
  0
LINE
  5
8E
330
1F
100
AcDbEntity
  8
0-0
  6
Continuous
 62
     7
370
     9
100
AcDbLine
 10
739.0255297432402
 20
-1390.744770666231
 30
0.0
 11
739.0255297432402
 21
893.2552293337687
 31
0.0
  0
LINE
  5
8F
330
1F
100
AcDbEntity
  8
0-0
  6
Continuous
 62
     7
370
     9
100
AcDbLine
 10
739.0255297432402
 20
817.2552293337687
 30
0.0
 11
735.0255297432439
 21
813.255229333769
 31
0.0
  0
LINE
  5
90
330
1F
100
AcDbEntity
  8
0-0
  6
Continuous
 62
    92
370
    13
100
AcDbLine
 10
735.0255297432439
 20
-431.7447706662314
 30
0.0
 11
735.0255297432439
 21
813.255229333769
 31
0.0
  0
LINE
  5
91
330
1F
100
AcDbEntity
  8
0-0
  6
Continuous
 62
     7
370
     9
100
AcDbLine
 10
739.0255297432402
 20
-1314.744770666231
 30
0.0
 11
735.0255297432439
 21
-1310.744770666231
 31
0.0
  0
LINE
  5
92
330
1F
100
AcDbEntity
  8
0-0
  6
Continuous
 62
    92
370
    13
100
AcDbLine
 10
735.0255297432439
 20
-1310.744770666231
 30
0.0
 11
735.0255297432439
 21
-519.7447706662315
 31
0.0
  0
LINE
  5
93
330
1F
100
AcDbEntity
  8
0-0
  6
Continuous
 62
     7
370
     9
100
AcDbLine
 10
325.5255297432273
 20
-431.7447706662314
 30
0.0
 11
329.5255297432236
 21
-435.7447706662311
 31
0.0
  0
LINE
  5
94
330
1F
100
AcDbEntity
  8
0-0
  6
Continuous
 62
     7
370
     9
100
AcDbLine
 10
329.5255297432236
 20
-515.7447706662317
 30
0.0
 11
325.5255297432273
 21
-519.7447706662315
 31
0.0
  0
LINE
  5
95
330
1F
100
AcDbEntity
  8
0-0
  6
Continuous
 62
     7
370
     9
100
AcDbLine
 10
329.5255297432236
 20
-1390.744770666231
 30
0.0
 11
329.5255297432236
 21
893.2552293337687
 31
0.0
  0
LINE
  5
96
330
1F
100
AcDbEntity
  8
0-0
  6
Continuous
 62
     7
370
     9
100
AcDbLine
 10
329.5255297432236
 20
817.2552293337687
 30
0.0
 11
325.5255297432273
 21
813.255229333769
 31
0.0
  0
LINE
  5
97
330
1F
100
AcDbEntity
  8
0-0
  6
Continuous
 62
    92
370
    13
100
AcDbLine
 10
325.5255297432273
 20
-431.7447706662314
 30
0.0
 11
325.5255297432273
 21
813.255229333769
 31
0.0
  0
LINE
  5
98
330
1F
100
AcDbEntity
  8
0-0
  6
Continuous
 62
     7
370
     9
100
AcDbLine
 10
325.5255297432273
 20
-1310.744770666231
 30
0.0
 11
329.5255297432236
 21
-1314.744770666231
 31
0.0
  0
LINE
  5
99
330
1F
100
AcDbEntity
  8
0-0
  6
Continuous
 62
    92
370
    13
100
AcDbLine
 10
325.5255297432273
 20
-1310.744770666231
 30
0.0
 11
325.5255297432273
 21
-519.7447706662315
 31
0.0
  0
LINE
  5
9A
330
1F
100
AcDbEntity
  8
0-0
  6
Continuous
 62
     7
370
     9
100
AcDbLine
 10
515.5255297432454
 20
-431.7447706662314
 30
0.0
 11
511.5255297432218
 21
-435.7447706662311
 31
0.0
  0
LINE
  5
9B
330
1F
100
AcDbEntity
  8
0-0
  6
Continuous
 62
     7
370
     9
100
AcDbLine
 10
511.5255297432218
 20
-515.7447706662317
 30
0.0
 11
515.5255297432454
 21
-519.7447706662315
 31
0.0
  0
LINE
  5
9C
330
1F
100
AcDbEntity
  8
0-0
  6
Continuous
 62
     7
370
     9
100
AcDbLine
 10
511.5255297432218
 20
-1390.744770666231
 30
0.0
 11
511.5255297432218
 21
893.2552293337687
 31
0.0
  0
LINE
  5
9D
330
1F
100
AcDbEntity
  8
0-0
  6
Continuous
 62
     7
370
     9
100
AcDbLine
 10
511.5255297432218
 20
817.2552293337687
 30
0.0
 11
515.5255297432454
 21
813.255229333769
 31
0.0
  0
LINE
  5
9E
330
1F
100
AcDbEntity
  8
0-0
  6
Continuous
 62
    92
370
    13
100
AcDbLine
 10
515.5255297432454
 20
-431.7447706662314
 30
0.0
 11
515.5255297432454
 21
813.255229333769
 31
0.0
  0
LINE
  5
9F
330
1F
100
AcDbEntity
  8
0-0
  6
Continuous
 62
     7
370
     9
100
AcDbLine
 10
515.5255297432454
 20
-1310.744770666231
 30
0.0
 11
511.5255297432218
 21
-1314.744770666231
 31
0.0
  0
LINE
  5
A0
330
1F
100
AcDbEntity
  8
0-0
  6
Continuous
 62
    92
370
    13
100
AcDbLine
 10
515.5255297432454
 20
-1310.744770666231
 30
0.0
 11
515.5255297432454
 21
-519.7447706662315
 31
0.0
  0
LINE
  5
A1
330
1F
100
AcDbEntity
  8
0-0
  6
Continuous
 62
     7
370
     9
100
AcDbLine
 10
329.5255297432236
 20
817.2552293337687
 30
0.0
 11
102.0255297432327
 21
817.2552293337687
 31
0.0
  0
LINE
  5
A2
330
1F
100
AcDbEntity
  8
0-0
  6
Continuous
 62
    92
370
    13
100
AcDbLine
 10
325.5255297432273
 20
813.255229333769
 30
0.0
 11
106.025529743229
 21
813.255229333769
 31
0.0
  0
LINE
  5
A3
330
1F
100
AcDbEntity
  8
0-0
  6
Continuous
 62
     7
370
     9
100
AcDbLine
 10
102.0255297432327
 20
-1314.744770666231
 30
0.0
 11
329.5255297432236
 21
-1314.744770666231
 31
0.0
  0
LINE
  5
A4
330
1F
100
AcDbEntity
  8
0-0
  6
Continuous
 62
    92
370
    13
100
AcDbLine
 10
106.025529743229
 20
-1310.744770666231
 30
0.0
 11
325.5255297432273
 21
-1310.744770666231
 31
0.0
  0
LINE
  5
A5
330
1F
100
AcDbEntity
  8
0-0
  6
Continuous
 62
     7
370
     9
100
AcDbLine
 10
102.0255297432327
 20
-435.7447706662311
 30
0.0
 11
329.5255297432236
 21
-435.7447706662311
 31
0.0
  0
LINE
  5
A6
330
1F
100
AcDbEntity
  8
0-0
  6
Continuous
 62
    92
370
    13
100
AcDbLine
 10
106.025529743229
 20
-431.7447706662314
 30
0.0
 11
325.5255297432273
 21
-431.7447706662314
 31
0.0
  0
LINE
  5
A7
330
1F
100
AcDbEntity
  8
0-0
  6
Continuous
 62
    92
370
    13
100
AcDbLine
 10
106.025529743229
 20
-519.7447706662315
 30
0.0
 11
325.5255297432273
 21
-519.7447706662315
 31
0.0
  0
LINE
  5
A8
330
1F
100
AcDbEntity
  8
0-0
  6
Continuous
 62
     7
370
     9
100
AcDbLine
 10
102.0255297432327
 20
-515.7447706662317
 30
0.0
 11
329.5255297432236
 21
-515.7447706662317
 31
0.0
  0
LINE
  5
A9
330
1F
100
AcDbEntity
  8
0-0
  6
Continuous
 62
    92
370
    13
100
AcDbLine
 10
735.0255297432439
 20
-431.7447706662314
 30
0.0
 11
515.5255297432454
 21
-431.7447706662314
 31
0.0
  0
LINE
  5
AA
330
1F
100
AcDbEntity
  8
0-0
  6
Continuous
 62
     7
370
     9
100
AcDbLine
 10
739.0255297432402
 20
-435.7447706662311
 30
0.0
 11
511.5255297432218
 21
-435.7447706662311
 31
0.0
  0
LINE
  5
AB
330
1F
100
AcDbEntity
  8
0-0
  6
Continuous
 62
    92
370
    13
100
AcDbLine
 10
735.0255297432439
 20
-519.7447706662315
 30
0.0
 11
515.5255297432454
 21
-519.7447706662315
 31
0.0
  0
LINE
  5
AC
330
1F
100
AcDbEntity
  8
0-0
  6
Continuous
 62
     7
370
     9
100
AcDbLine
 10
739.0255297432402
 20
-515.7447706662317
 30
0.0
 11
511.5255297432218
 21
-515.7447706662317
 31
0.0
  0
LINE
  5
AD
330
1F
100
AcDbEntity
  8
0-0
  6
Continuous
 62
    92
370
    13
100
AcDbLine
 10
-55.97447025676004
 20
-1310.744770666231
 30
0.0
 11
-275.4744702567582
 21
-1310.744770666231
 31
0.0
  0
LINE
  5
AE
330
1F
100
AcDbEntity
  8
0-0
  6
Continuous
 62
    92
370
    13
100
AcDbLine
 10
-275.4744702567582
 20
-1310.744770666231
 30
0.0
 11
-275.4744702567582
 21
-519.7447706662315
 31
0.0
  0
LINE
  5
AF
330
1F
100
AcDbEntity
  8
0-0
  6
Continuous
 62
     7
370
     9
100
AcDbLine
 10
-51.97447025676368
 20
-1314.744770666231
 30
0.0
 11
-279.4744702567546
 21
-1314.744770666231
 31
0.0
  0
LINE
  5
B0
330
1F
100
AcDbEntity
  8
0-0
  6
JWW_DASHED1
 62
   120
370
     5
100
AcDbLine
 10
-470.8119235540198
 20
-431.7447706662297
 30
0.0
 11
-465.4744702567785
 21
-426.4073173689884
 31
0.0
  0
LINE
  5
B1
330
1F
100
AcDbEntity
  8
0-0
  6
JWW_DASHED1
 62
   120
370
     5
100
AcDbLine
 10
-480.711418489243
 20
-431.7447706662365
 30
0.0
 11
-465.4744702567705
 21
-416.5078224337644
 31
0.0
  0
LINE
  5
B2
330
1F
100
AcDbEntity
  8
0-0
  6
JWW_DASHED1
 62
   120
370
     5
100
AcDbLine
 10
-490.61091342445
 20
-431.744770666228
 30
0.0
 11
-465.474470256779
 21
-406.608327498557
 31
0.0
  0
LINE
  5
B3
330
1F
100
AcDbEntity
  8
0-0
  6
JWW_DASHED1
 62
   120
370
     5
100
AcDbLine
 10
-500.5104083596182
 20
-431.7447706662335
 30
0.0
 11
-465.4744702567764
 21
-396.7088325633922
 31
0.0
  0
LINE
  5
B4
330
1F
100
AcDbEntity
  8
0-0
  6
JWW_DASHED1
 62
   120
370
     5
100
AcDbLine
 10
-510.4099032948387
 20
-431.7447706662382
 30
0.0
 11
-465.4744702567688
 21
-386.8093376281682
 31
0.0
  0
LINE
  5
B5
330
1F
100
AcDbEntity
  8
0-0
  6
JWW_DASHED1
 62
   120
370
     5
100
AcDbLine
 10
-520.3093982299878
 20
-431.7447706662255
 30
0.0
 11
-465.4744702567807
 21
-376.9098426930184
 31
0.0
  0
LINE
  5
B6
330
1F
100
AcDbEntity
  8
0-0
  6
JWW_DASHED1
 62
   120
370
     5
100
AcDbLine
 10
-530.2088931652165
 20
-431.7447706662378
 30
0.0
 11
-465.4744702567739
 21
-367.0103477577952
 31
0.0
  0
LINE
  5
B7
330
1F
100
AcDbEntity
  8
0-0
  6
JWW_DASHED1
 62
   120
370
     5
100
AcDbLine
 10
-540.1083881004354
 20
-431.7447706662399
 30
0.0
 11
-465.4744702567666
 21
-357.1108528225716
 31
0.0
  0
LINE
  5
B8
330
1F
100
AcDbEntity
  8
0-0
  6
JWW_DASHED1
 62
   120
370
     5
100
AcDbLine
 10
-550.007883035584
 20
-431.7447706662272
 30
0.0
 11
-465.4744702567781
 21
-347.2113578874213
 31
0.0
  0
LINE
  5
B9
330
1F
100
AcDbEntity
  8
0-0
  6
JWW_DASHED1
 62
   120
370
     5
100
AcDbLine
 10
-559.9073779707918
 20
-431.744770666219
 30
0.0
 11
-465.4744702567866
 21
-337.3118629522131
 31
0.0
  0
LINE
  5
BA
330
1F
100
AcDbEntity
  8
0-0
  6
JWW_DASHED1
 62
   120
370
     5
100
AcDbLine
 10
-569.806872906023
 20
-431.7447706662335
 30
0.0
 11
-465.4744702567803
 21
-327.4123680169907
 31
0.0
  0
LINE
  5
BB
330
1F
100
AcDbEntity
  8
0-0
  6
JWW_DASHED1
 62
   120
370
     5
100
AcDbLine
 10
-579.7063678411797
 20
-431.7447706662289
 30
0.0
 11
-465.4744702567756
 21
-317.5128730818243
 31
0.0
  0
LINE
  5
BC
330
1F
100
AcDbEntity
  8
0-0
  6
JWW_DASHED1
 62
   120
370
     5
100
AcDbLine
 10
-589.605862776388
 20
-431.7447706662203
 30
0.0
 11
-465.4744702567841
 21
-307.6133781466165
 31
0.0
  0
LINE
  5
BD
330
1F
100
AcDbEntity
  8
0-0
  6
JWW_DASHED1
 62
   120
370
     5
100
AcDbLine
 10
-599.5053577116214
 20
-431.7447706662374
 30
0.0
 11
-465.4744702567781
 21
-297.7138832113941
 31
0.0
  0
LINE
  5
BE
330
1F
100
AcDbEntity
  8
0-0
  6
JWW_DASHED1
 62
   120
370
     5
100
AcDbLine
 10
-609.4048526467768
 20
-431.7447706662306
 30
0.0
 11
-465.474470256773
 21
-287.8143882762272
 31
0.0
  0
LINE
  5
BF
330
1F
100
AcDbEntity
  8
0-0
  6
JWW_DASHED1
 62
   120
370
     5
100
AcDbLine
 10
-619.3043475819837
 20
-431.7447706662221
 30
0.0
 11
-465.4744702567815
 21
-277.9148933410194
 31
0.0
  0
LINE
  5
C0
330
1F
100
AcDbEntity
  8
0-0
  6
JWW_DASHED1
 62
   120
370
     5
100
AcDbLine
 10
-629.2038425172198
 20
-431.7447706662412
 30
0.0
 11
-465.474470256776
 21
-268.0153984057975
 31
0.0
  0
LINE
  5
C1
330
1F
100
AcDbEntity
  8
0-0
  6
JWW_DASHED1
 62
   120
370
     5
100
AcDbLine
 10
-639.1033374523726
 20
-431.7447706662327
 30
0.0
 11
-465.4744702567705
 21
-258.1159034706302
 31
0.0
  0
LINE
  5
C2
330
1F
100
AcDbEntity
  8
0-0
  6
JWW_DASHED1
 62
   120
370
     5
100
AcDbLine
 10
-649.0028323875804
 20
-431.7447706662238
 30
0.0
 11
-465.474470256779
 21
-248.2164085354223
 31
0.0
  0
LINE
  5
C3
330
1F
100
AcDbEntity
  8
0-0
  6
JWW_DASHED1
 62
   120
370
     5
100
AcDbLine
 10
-658.9023273228022
 20
-431.7447706662293
 30
0.0
 11
-465.4744702567871
 21
-238.3169136002141
 31
0.0
  0
LINE
  5
C4
330
1F
100
AcDbEntity
  8
0-0
  6
JWW_DASHED1
 62
   120
370
     5
100
AcDbLine
 10
-668.8018222579688
 20
-431.744770666234
 30
0.0
 11
-465.4744702567705
 21
-228.4174186650357
 31
0.0
  0
LINE
  5
C5
330
1F
100
AcDbEntity
  8
0-0
  6
JWW_DASHED1
 62
   120
370
     5
100
AcDbLine
 10
-678.7013171931766
 20
-431.7447706662255
 30
0.0
 11
-465.4744702567764
 21
-218.5179237298249
 31
0.0
  0
LINE
  5
C6
330
1F
100
AcDbEntity
  8
0-0
  6
JWW_DASHED1
 62
   120
370
     5
100
AcDbLine
 10
-684.9744702567891
 20
-428.1184287946212
 30
0.0
 11
-465.4744702567845
 21
-208.618428794617
 31
0.0
  0
LINE
  5
C7
330
1F
100
AcDbEntity
  8
0-0
  6
JWW_DASHED1
 62
   120
370
     5
100
AcDbLine
 10
-684.9744702567704
 20
-418.2189338594411
 30
0.0
 11
-465.4744702567688
 21
-198.7189338594391
 31
0.0
  0
LINE
  5
C8
330
1F
100
AcDbEntity
  8
0-0
  6
JWW_DASHED1
 62
   120
370
     5
100
AcDbLine
 10
-684.974470256778
 20
-408.3194389242324
 30
0.0
 11
-465.4744702567739
 21
-188.8194389242283
 31
0.0
  0
LINE
  5
C9
330
1F
100
AcDbEntity
  8
0-0
  6
JWW_DASHED1
 62
   120
370
     5
100
AcDbLine
 10
-684.9744702567746
 20
-398.4199439890672
 30
0.0
 11
-465.4744702567862
 21
-178.9199439890788
 31
0.0
  0
LINE
  5
CA
330
1F
100
AcDbEntity
  8
0-0
  6
JWW_DASHED1
 62
   120
370
     5
100
AcDbLine
 10
-684.9744702567682
 20
-388.520449053844
 30
0.0
 11
-465.4744702567824
 21
-169.0204490538582
 31
0.0
  0
LINE
  5
CB
330
1F
100
AcDbEntity
  8
0-0
  6
JWW_DASHED1
 62
   120
370
     5
100
AcDbLine
 10
-684.9744702567755
 20
-378.6209541186354
 30
0.0
 11
-465.4744702567713
 21
-159.1209541186312
 31
0.0
  0
LINE
  5
CC
330
1F
100
AcDbEntity
  8
0-0
  6
JWW_DASHED1
 62
   120
370
     5
100
AcDbLine
 10
-684.9744702567882
 20
-368.7214591834863
 30
0.0
 11
-465.4744702567841
 21
-149.2214591834822
 31
0.0
  0
LINE
  5
CD
330
1F
100
AcDbEntity
  8
0-0
  6
JWW_DASHED1
 62
   120
370
     5
100
AcDbLine
 10
-684.9744702567657
 20
-358.8219642482474
 30
0.0
 11
-465.4744702567798
 21
-139.3219642482616
 31
0.0
  0
LINE
  5
CE
330
1F
100
AcDbEntity
  8
0-0
  6
JWW_DASHED1
 62
   120
370
     5
100
AcDbLine
 10
-684.9744702567725
 20
-348.9224693130383
 30
0.0
 11
-465.4744702567688
 21
-129.4224693130342
 31
0.0
  0
LINE
  5
CF
330
1F
100
AcDbEntity
  8
0-0
  6
JWW_DASHED1
 62
   120
370
     5
100
AcDbLine
 10
-684.9744702567857
 20
-339.0229743778893
 30
0.0
 11
-465.4744702567815
 21
-119.5229743778847
 31
0.0
  0
LINE
  5
D0
330
1F
100
AcDbEntity
  8
0-0
  6
JWW_DASHED1
 62
   120
370
     5
100
AcDbLine
 10
-684.9744702567635
 20
-329.1234794426512
 30
0.0
 11
-465.4744702567781
 21
-109.623479442665
 31
0.0
  0
LINE
  5
D1
330
1F
100
AcDbEntity
  8
0-0
  6
JWW_DASHED1
 62
   120
370
     5
100
AcDbLine
 10
-684.9744702567721
 20
-319.223984507443
 30
0.0
 11
-465.4744702567705
 21
-99.72398450744137
 31
0.0
  0
LINE
  5
D2
330
1F
100
AcDbEntity
  8
0-0
  6
JWW_DASHED1
 62
   120
370
     5
100
AcDbLine
 10
-684.9744702567831
 20
-309.3244895722922
 30
0.0
 11
-465.474470256779
 21
-89.82448957228812
 31
0.0
  0
LINE
  5
D3
330
1F
100
AcDbEntity
  8
0-0
  6
JWW_DASHED1
 62
   120
370
     5
100
AcDbLine
 10
-684.9744702567755
 20
-299.4249946370683
 30
0.0
 11
-465.4744702567871
 21
-79.92499463707986
 31
0.0
  0
LINE
  5
D4
330
1F
100
AcDbEntity
  8
0-0
  6
JWW_DASHED1
 62
   120
370
     5
100
AcDbLine
 10
-684.9744702567699
 20
-289.5254997018468
 30
0.0
 11
-465.4744702567679
 21
-70.02549970184475
 31
0.0
  0
LINE
  5
D5
330
1F
100
AcDbEntity
  8
0-0
  6
JWW_DASHED1
 62
   120
370
     5
100
AcDbLine
 10
-684.9744702567801
 20
-279.6260047666952
 30
0.0
 11
-465.4744702567764
 21
-60.12600476669107
 31
0.0
  0
LINE
  5
D6
330
1F
100
AcDbEntity
  8
0-0
  6
JWW_DASHED1
 62
   120
370
     5
100
AcDbLine
 10
-684.9744702567891
 20
-269.726509831487
 30
0.0
 11
-465.4744702567845
 21
-50.22650983148282
 31
0.0
  0
LINE
  5
D7
330
1F
100
AcDbEntity
  8
0-0
  6
JWW_DASHED1
 62
   120
370
     5
100
AcDbLine
 10
-684.9744702567677
 20
-259.8270148962497
 30
0.0
 11
-465.4744702567815
 21
-40.3270148962639
 31
0.0
  0
LINE
  5
D8
330
1F
100
AcDbEntity
  8
0-0
  6
JWW_DASHED1
 62
   120
370
     5
100
AcDbLine
 10
-684.974470256778
 20
-249.9275199610982
 30
0.0
 11
-465.4744702567739
 21
-30.42751996109359
 31
0.0
  0
LINE
  5
D9
330
1F
100
AcDbEntity
  8
0-0
  6
JWW_DASHED1
 62
   120
370
     5
100
AcDbLine
 10
-684.9744702567862
 20
-240.0280250258903
 30
0.0
 11
-465.4744702567815
 21
-20.52802502588577
 31
0.0
  0
LINE
  5
DA
330
1F
100
AcDbEntity
  8
0-0
  6
JWW_DASHED1
 62
   120
370
     5
100
AcDbLine
 10
-684.9744702567657
 20
-230.1285300906527
 30
0.0
 11
-465.4744702567798
 21
-10.62853009066728
 31
0.0
  0
LINE
  5
DB
330
1F
100
AcDbEntity
  8
0-0
  6
JWW_DASHED1
 62
   120
370
     5
100
AcDbLine
 10
-684.9744702567755
 20
-220.2290351555011
 30
0.0
 11
-465.4744702567713
 21
-0.7290351554969732
 31
0.0
  0
LINE
  5
DC
330
1F
100
AcDbEntity
  8
0-0
  6
JWW_DASHED1
 62
   120
370
     5
100
AcDbLine
 10
-684.974470256784
 20
-210.3295402202933
 30
0.0
 11
-465.4744702567794
 21
9.17045977971128
 31
0.0
  0
LINE
  5
DD
330
1F
100
AcDbEntity
  8
0-0
  6
JWW_DASHED1
 62
   120
370
     5
100
AcDbLine
 10
-684.9744702567635
 20
-200.4300452850569
 30
0.0
 11
-465.4744702567777
 21
19.06995471492934
 31
0.0
  0
LINE
  5
DE
330
1F
100
AcDbEntity
  8
0-0
  6
JWW_DASHED1
 62
   120
370
     5
100
AcDbLine
 10
-684.9744702567725
 20
-190.5305503499041
 30
0.0
 11
-465.4744702567688
 21
28.96944965010007
 31
0.0
  0
LINE
  5
DF
330
1F
100
AcDbEntity
  8
0-0
  6
JWW_DASHED1
 62
   120
370
     5
100
AcDbLine
 10
-684.9744702567814
 20
-180.6310554146958
 30
0.0
 11
-465.4744702567768
 21
38.86894458530833
 31
0.0
  0
LINE
  5
E0
330
1F
100
AcDbEntity
  8
0-0
  6
JWW_DASHED1
 62
   120
370
     5
100
AcDbLine
 10
-684.9744702567733
 20
-170.7315604794722
 30
0.0
 11
-465.4744702567854
 21
48.76843952051658
 31
0.0
  0
LINE
  5
E1
330
1F
100
AcDbEntity
  8
0-0
  6
JWW_DASHED1
 62
   120
370
     5
100
AcDbLine
 10
-684.9744702567733
 20
-160.8320655443104
 30
0.0
 11
-465.4744702567722
 21
58.66793445569115
 31
0.0
  0
LINE
  5
E2
330
1F
100
AcDbEntity
  8
0-0
  6
JWW_DASHED1
 62
   120
370
     5
100
AcDbLine
 10
-684.9744702567789
 20
-150.9325706090988
 30
0.0
 11
-465.4744702567743
 21
68.56742939090537
 31
0.0
  0
LINE
  5
E3
330
1F
100
AcDbEntity
  8
0-0
  6
JWW_DASHED1
 62
   120
370
     5
100
AcDbLine
 10
-684.9744702567865
 20
-141.0330756738909
 30
0.0
 11
-465.4744702567824
 21
78.46692432611363
 31
0.0
  0
LINE
  5
E4
330
1F
100
AcDbEntity
  8
0-0
  6
JWW_DASHED1
 62
   120
370
     5
100
AcDbLine
 10
-684.9744702567721
 20
-131.1335807387138
 30
0.0
 11
-465.4744702567705
 21
88.36641926128735
 31
0.0
  0
LINE
  5
E5
330
1F
100
AcDbEntity
  8
0-0
  6
JWW_DASHED1
 62
   120
370
     5
100
AcDbLine
 10
-684.9744702567763
 20
-121.2340858035022
 30
0.0
 11
-465.4744702567717
 21
98.265914196502
 31
0.0
  0
LINE
  5
E6
330
1F
100
AcDbEntity
  8
0-0
  6
JWW_DASHED1
 62
   120
370
     5
100
AcDbLine
 10
-684.9744702567843
 20
-111.3345908682939
 30
0.0
 11
-465.4744702567798
 21
108.1654091317107
 31
0.0
  0
LINE
  5
E7
330
1F
100
AcDbEntity
  8
0-0
  6
JWW_DASHED1
 62
   120
370
     5
100
AcDbLine
 10
-684.9744702567695
 20
-101.4350959331172
 30
0.0
 11
-465.4744702567841
 21
118.0649040668686
 31
0.0
  0
LINE
  5
E8
330
1F
100
AcDbEntity
  8
0-0
  6
JWW_DASHED1
 62
   120
370
     5
100
AcDbLine
 10
-684.9744702567733
 20
-91.5356009979051
 30
0.0
 11
-465.4744702567696
 21
127.9643990020995
 31
0.0
  0
LINE
  5
E9
330
1F
100
AcDbEntity
  8
0-0
  6
JWW_DASHED1
 62
   120
370
     5
100
AcDbLine
 10
-684.9744702567818
 20
-81.63610606269685
 30
0.0
 11
-465.4744702567777
 21
137.8638939373077
 31
0.0
  0
LINE
  5
EA
330
1F
100
AcDbEntity
  8
0-0
  6
JWW_DASHED1
 62
   120
370
     5
100
AcDbLine
 10
-684.9744702567677
 20
-71.73661112752058
 30
0.0
 11
-465.4744702567815
 21
147.7633888724652
 31
0.0
  0
LINE
  5
EB
330
1F
100
AcDbEntity
  8
0-0
  6
JWW_DASHED1
 62
   120
370
     5
100
AcDbLine
 10
-684.9744702567759
 20
-61.83711619231275
 30
0.0
 11
-465.4744702567743
 21
157.6628838076888
 31
0.0
  0
LINE
  5
EC
330
1F
100
AcDbEntity
  8
0-0
  6
JWW_DASHED1
 62
   120
370
     5
100
AcDbLine
 10
-684.9744702567793
 20
-51.93762125709981
 30
0.0
 11
-465.4744702567747
 21
167.5623787429043
 31
0.0
  0
LINE
  5
ED
330
1F
100
AcDbEntity
  8
0-0
  6
JWW_DASHED1
 62
   120
370
     5
100
AcDbLine
 10
-684.9744702567652
 20
-42.03812632192395
 30
0.0
 11
-465.4744702567798
 21
177.4618736780619
 31
0.0
  0
LINE
  5
EE
330
1F
100
AcDbEntity
  8
0-0
  6
JWW_DASHED1
 62
   120
370
     5
100
AcDbLine
 10
-684.9744702567733
 20
-32.13863138671613
 30
0.0
 11
-465.4744702567722
 21
187.3613686132855
 31
0.0
  0
LINE
  5
EF
330
1F
100
AcDbEntity
  8
0-0
  6
JWW_DASHED1
 62
   120
370
     5
100
AcDbLine
 10
-684.9744702567772
 20
-22.23913645150361
 30
0.0
 11
-465.4744702567726
 21
197.2608635485014
 31
0.0
  0
LINE
  5
F0
330
1F
100
AcDbEntity
  8
0-0
  6
JWW_DASHED1
 62
   120
370
     5
100
AcDbLine
 10
-684.9744702567733
 20
-12.33964151633799
 30
0.0
 11
-465.4744702567854
 21
207.1603584836508
 31
0.0
  0
LINE
  5
F1
330
1F
100
AcDbEntity
  8
0-0
  6
JWW_DASHED1
 62
   120
370
     5
100
AcDbLine
 10
-684.9744702567716
 20
-2.440146581119507
 30
0.0
 11
-465.4744702567858
 21
217.0598534188663
 31
0.0
  0
LINE
  5
F2
330
1F
100
AcDbEntity
  8
0-0
  6
JWW_DASHED1
 62
   120
370
     5
100
AcDbLine
 10
-684.9744702567746
 20
7.459348354093862
 30
0.0
 11
-465.47447025677
 21
226.9593483540984
 31
0.0
  0
LINE
  5
F3
330
1F
100
AcDbEntity
  8
0-0
  6
JWW_DASHED1
 62
   120
370
     5
100
AcDbLine
 10
-684.9744702567865
 20
17.35884328924328
 30
0.0
 11
-465.4744702567824
 21
236.8588432892479
 31
0.0
  0
LINE
  5
F4
330
1F
100
AcDbEntity
  8
0-0
  6
JWW_DASHED1
 62
   120
370
     5
100
AcDbLine
 10
-684.9744702567695
 20
27.25833822447711
 30
0.0
 11
-465.4744702567837
 21
246.7583382244629
 31
0.0
  0
LINE
  5
F5
330
1F
100
AcDbEntity
  8
0-0
  6
JWW_DASHED1
 62
   120
370
     5
100
AcDbLine
 10
-684.9744702567721
 20
37.15783315969091
 30
0.0
 11
-465.4744702567675
 21
256.6578331596955
 31
0.0
  0
LINE
  5
F6
330
1F
100
AcDbEntity
  8
0-0
  6
JWW_DASHED1
 62
   120
370
     5
100
AcDbLine
 10
-684.9744702567843
 20
47.05732809484033
 30
0.0
 11
-465.4744702567798
 21
266.5573280948449
 31
0.0
  0
LINE
  5
F7
330
1F
100
AcDbEntity
  8
0-0
  6
JWW_DASHED1
 62
   120
370
     5
100
AcDbLine
 10
-684.9744702567673
 20
56.95682303007374
 30
0.0
 11
-465.4744702567815
 21
276.4568230300596
 31
0.0
  0
LINE
  5
F8
330
1F
100
AcDbEntity
  8
0-0
  6
JWW_DASHED1
 62
   120
370
     5
100
AcDbLine
 10
-684.9744702567759
 20
66.85631796528199
 30
0.0
 11
-465.4744702567743
 21
286.3563179652836
 31
0.0
  0
LINE
  5
F9
330
1F
100
AcDbEntity
  8
0-0
  6
JWW_DASHED1
 62
   120
370
     5
100
AcDbLine
 10
-684.9744702567818
 20
76.75581290043738
 30
0.0
 11
-465.4744702567773
 21
296.2558129004419
 31
0.0
  0
LINE
  5
FA
330
1F
100
AcDbEntity
  8
0-0
  6
JWW_DASHED1
 62
   120
370
     5
100
AcDbLine
 10
-684.9744702567652
 20
86.65530783567036
 30
0.0
 11
-465.4744702567794
 21
306.1553078356562
 31
0.0
  0
LINE
  5
FB
330
1F
100
AcDbEntity
  8
0-0
  6
JWW_DASHED1
 62
   120
370
     5
100
AcDbLine
 10
-684.9744702567755
 20
96.5548027708492
 30
0.0
 11
-465.4744702567739
 21
316.0548027708508
 31
0.0
  0
LINE
  5
FC
330
1F
100
AcDbEntity
  8
0-0
  6
JWW_DASHED1
 62
   120
370
     5
100
AcDbLine
 10
-684.9744702567793
 20
106.4542977060344
 30
0.0
 11
-465.4744702567743
 21
325.9542977060386
 31
0.0
  0
LINE
  5
FD
330
1F
100
AcDbEntity
  8
0-0
  6
JWW_DASHED1
 62
   120
370
     5
100
AcDbLine
 10
-684.9744702567721
 20
116.3537926412585
 30
0.0
 11
-465.4744702567832
 21
335.8537926412469
 31
0.0
  0
LINE
  5
FE
330
1F
100
AcDbEntity
  8
0-0
  6
JWW_DASHED1
 62
   120
370
     5
100
AcDbLine
 10
-684.9744702567733
 20
126.2532875764458
 30
0.0
 11
-465.4744702567717
 21
345.753287576447
 31
0.0
  0
LINE
  5
FF
330
1F
100
AcDbEntity
  8
0-0
  6
JWW_DASHED1
 62
   120
370
     5
100
AcDbLine
 10
-684.9744702567767
 20
136.152782511631
 30
0.0
 11
-465.4744702567726
 21
355.6527825116356
 31
0.0
  0
LINE
  5
100
330
1F
100
AcDbEntity
  8
0-0
  6
JWW_DASHED1
 62
   120
370
     5
100
AcDbLine
 10
-684.9744702567853
 20
146.0522774468397
 30
0.0
 11
-465.4744702567807
 21
365.5522774468438
 31
0.0
  0
LINE
  5
101
330
1F
100
AcDbEntity
  8
0-0
  6
JWW_DASHED1
 62
   120
370
     5
100
AcDbLine
 10
-684.9744702567733
 20
155.951772382013
 30
0.0
 11
-465.4744702567722
 21
375.4517723820142
 31
0.0
  0
LINE
  5
102
330
1F
100
AcDbEntity
  8
0-0
  6
JWW_DASHED1
 62
   120
370
     5
100
AcDbLine
 10
-684.9744702567741
 20
165.8512673172285
 30
0.0
 11
-465.47447025677
 21
385.3512673172327
 31
0.0
  0
LINE
  5
103
330
1F
100
AcDbEntity
  8
0-0
  6
JWW_DASHED1
 62
   120
370
     5
100
AcDbLine
 10
-684.9744702567823
 20
175.7507622524368
 30
0.0
 11
-465.4744702567781
 21
395.2507622524409
 31
0.0
  0
LINE
  5
104
330
1F
100
AcDbEntity
  8
0-0
  6
JWW_DASHED1
 62
   120
370
     5
100
AcDbLine
 10
-684.9744702567716
 20
185.6502571876096
 30
0.0
 11
-465.4744702567858
 21
405.150257187595
 31
0.0
  0
LINE
  5
105
330
1F
100
AcDbEntity
  8
0-0
  6
JWW_DASHED1
 62
   120
370
     5
100
AcDbLine
 10
-684.9744702567721
 20
195.5497521228256
 30
0.0
 11
-465.4744702567675
 21
415.0497521228297
 31
0.0
  0
LINE
  5
106
330
1F
100
AcDbEntity
  8
0-0
  6
JWW_DASHED1
 62
   120
370
     5
100
AcDbLine
 10
-684.9744702567797
 20
205.4492470580334
 30
0.0
 11
-465.4744702567756
 21
424.9492470580379
 31
0.0
  0
LINE
  5
107
330
1F
100
AcDbEntity
  8
0-0
  6
JWW_DASHED1
 62
   120
370
     5
100
AcDbLine
 10
-684.9744702567691
 20
215.3487419932063
 30
0.0
 11
-465.4744702567832
 21
434.8487419931917
 31
0.0
  0
LINE
  5
108
330
1F
100
AcDbEntity
  8
0-0
  6
JWW_DASHED1
 62
   120
370
     5
100
AcDbLine
 10
-684.9744702567775
 20
225.2482369284141
 30
0.0
 11
-465.474470256776
 21
444.7482369284157
 31
0.0
  0
LINE
  5
109
330
1F
100
AcDbEntity
  8
0-0
  6
JWW_DASHED1
 62
   120
370
     5
100
AcDbLine
 10
-684.9744702567775
 20
235.1477318636304
 30
0.0
 11
-465.474470256773
 21
454.647731863635
 31
0.0
  0
LINE
  5
10A
330
1F
100
AcDbEntity
  8
0-0
  6
JWW_DASHED1
 62
   120
370
     5
100
AcDbLine
 10
-684.9744702567665
 20
245.0472267988029
 30
0.0
 11
-465.4744702567815
 21
464.5472267987883
 31
0.0
  0
LINE
  5
10B
330
1F
100
AcDbEntity
  8
0-0
  6
JWW_DASHED1
 62
   120
370
     5
100
AcDbLine
 10
-684.9744702567755
 20
254.9467217340107
 30
0.0
 11
-465.4744702567739
 21
474.4467217340123
 31
0.0
  0
LINE
  5
10C
330
1F
100
AcDbEntity
  8
0-0
  6
JWW_DASHED1
 62
   120
370
     5
100
AcDbLine
 10
-684.974470256775
 20
264.8462166692275
 30
0.0
 11
-465.4744702567705
 21
484.346216669232
 31
0.0
  0
LINE
  5
10D
330
1F
100
AcDbEntity
  8
0-0
  6
JWW_DASHED1
 62
   120
370
     5
100
AcDbLine
 10
-684.9744702567716
 20
274.7457116043927
 30
0.0
 11
-465.4744702567832
 21
494.2457116043811
 31
0.0
  0
LINE
  5
10E
330
1F
100
AcDbEntity
  8
0-0
  6
JWW_DASHED1
 62
   120
370
     5
100
AcDbLine
 10
-684.9744702567729
 20
284.6452065396073
 30
0.0
 11
-465.4744702567875
 21
504.1452065395931
 31
0.0
  0
LINE
  5
10F
330
1F
100
AcDbEntity
  8
0-0
  6
JWW_DASHED1
 62
   120
370
     5
100
AcDbLine
 10
-684.9744702567725
 20
294.5447014748245
 30
0.0
 11
-465.4744702567679
 21
514.0447014748287
 31
0.0
  0
LINE
  5
110
330
1F
100
AcDbEntity
  8
0-0
  6
JWW_DASHED1
 62
   120
370
     5
100
AcDbLine
 10
-684.9744702567848
 20
304.444196409974
 30
0.0
 11
-465.4744702567807
 21
523.9441964099781
 31
0.0
  0
LINE
  5
111
330
1F
100
AcDbEntity
  8
0-0
  6
JWW_DASHED1
 62
   120
370
     5
100
AcDbLine
 10
-684.9744702567712
 20
314.343691345204
 30
0.0
 11
-465.4744702567854
 21
533.8436913451893
 31
0.0
  0
LINE
  5
112
330
1F
100
AcDbEntity
  8
0-0
  6
JWW_DASHED1
 62
   120
370
     5
100
AcDbLine
 10
-684.9744702567699
 20
324.2431862804211
 30
0.0
 11
-465.4744702567654
 21
543.7431862804258
 31
0.0
  0
LINE
  5
113
330
1F
100
AcDbEntity
  8
0-0
  6
JWW_DASHED1
 62
   120
370
     5
100
AcDbLine
 10
-684.9744702567823
 20
334.142681215571
 30
0.0
 11
-465.4744702567781
 21
553.6426812155747
 31
0.0
  0
LINE
  5
114
330
1F
100
AcDbEntity
  8
0-0
  6
JWW_DASHED1
 62
   120
370
     5
100
AcDbLine
 10
-684.9744702567691
 20
344.0421761508006
 30
0.0
 11
-465.4744702567832
 21
563.5421761507864
 31
0.0
  0
LINE
  5
115
330
1F
100
AcDbEntity
  8
0-0
  6
JWW_DASHED1
 62
   120
370
     5
100
AcDbLine
 10
-684.9744702567772
 20
353.9416710860084
 30
0.0
 11
-465.4744702567756
 21
573.4416710860104
 31
0.0
  0
LINE
  5
116
330
1F
100
AcDbEntity
  8
0-0
  6
JWW_DASHED1
 62
   120
370
     5
100
AcDbLine
 10
-684.9744702567797
 20
363.8411660211681
 30
0.0
 11
-465.4744702567756
 21
583.3411660211722
 31
0.0
  0
LINE
  5
117
330
1F
100
AcDbEntity
  8
0-0
  6
JWW_DASHED1
 62
   120
370
     5
100
AcDbLine
 10
-684.9744702567665
 20
373.7406609563972
 30
0.0
 11
-465.4744702567811
 21
593.240660956383
 31
0.0
  0
LINE
  5
118
330
1F
100
AcDbEntity
  8
0-0
  6
JWW_DASHED1
 62
   120
370
     5
100
AcDbLine
 10
-684.9744702567755
 20
383.640155891605
 30
0.0
 11
-465.4744702567739
 21
603.1401558916066
 31
0.0
  0
LINE
  5
119
330
1F
100
AcDbEntity
  8
0-0
  6
JWW_DASHED1
 62
   120
370
     5
100
AcDbLine
 10
-684.9744702567772
 20
393.5396508267647
 30
0.0
 11
-465.474470256773
 21
613.0396508267693
 31
0.0
  0
LINE
  5
11A
330
1F
100
AcDbEntity
  8
0-0
  6
JWW_DASHED1
 62
   120
370
     5
100
AcDbLine
 10
-684.9744702567857
 20
403.4391457619729
 30
0.0
 11
-465.4744702567815
 21
622.9391457619771
 31
0.0
  0
LINE
  5
11B
330
1F
100
AcDbEntity
  8
0-0
  6
JWW_DASHED1
 62
   120
370
     5
100
AcDbLine
 10
-684.9744702567725
 20
413.3386406972021
 30
0.0
 11
-465.4744702567871
 21
632.8386406971874
 31
0.0
  0
LINE
  5
11C
330
1F
100
AcDbEntity
  8
0-0
  6
JWW_DASHED1
 62
   120
370
     5
100
AcDbLine
 10
-684.974470256775
 20
423.2381356323622
 30
0.0
 11
-465.4744702567705
 21
642.7381356323663
 31
0.0
  0
LINE
  5
11D
330
1F
100
AcDbEntity
  8
0-0
  6
JWW_DASHED1
 62
   120
370
     5
100
AcDbLine
 10
-684.9744702567831
 20
433.1376305675695
 30
0.0
 11
-465.474470256779
 21
652.6376305675738
 31
0.0
  0
LINE
  5
11E
330
1F
100
AcDbEntity
  8
0-0
  6
JWW_DASHED1
 62
   120
370
     5
100
AcDbLine
 10
-684.9744702567707
 20
443.0371255027987
 30
0.0
 11
-465.4744702567849
 21
662.5371255027836
 31
0.0
  0
LINE
  5
11F
330
1F
100
AcDbEntity
  8
0-0
  6
JWW_DASHED1
 62
   120
370
     5
100
AcDbLine
 10
-684.9744702567725
 20
452.9366204379588
 30
0.0
 11
-465.4744702567679
 21
672.4366204379634
 31
0.0
  0
LINE
  5
120
330
1F
100
AcDbEntity
  8
0-0
  6
JWW_DASHED1
 62
   120
370
     5
100
AcDbLine
 10
-684.9744702567801
 20
462.836115373167
 30
0.0
 11
-465.4744702567764
 21
682.3361153731712
 31
0.0
  0
LINE
  5
121
330
1F
100
AcDbEntity
  8
0-0
  6
JWW_DASHED1
 62
   120
370
     5
100
AcDbLine
 10
-684.9744702567687
 20
472.7356103083953
 30
0.0
 11
-465.4744702567828
 21
692.2356103083812
 31
0.0
  0
LINE
  5
122
330
1F
100
AcDbEntity
  8
0-0
  6
JWW_DASHED1
 62
   120
370
     5
100
AcDbLine
 10
-684.9744702567699
 20
482.6351052435554
 30
0.0
 11
-465.4744702567654
 21
702.13510524356
 31
0.0
  0
LINE
  5
123
330
1F
100
AcDbEntity
  8
0-0
  6
JWW_DASHED1
 62
   120
370
     5
100
AcDbLine
 10
-684.974470256778
 20
492.5346001787641
 30
0.0
 11
-465.4744702567739
 21
712.0346001787682
 31
0.0
  0
LINE
  5
124
330
1F
100
AcDbEntity
  8
0-0
  6
JWW_DASHED1
 62
   120
370
     5
100
AcDbLine
 10
-684.9744702567704
 20
502.4340951139881
 30
0.0
 11
-465.4744702567815
 21
721.9340951139765
 31
0.0
  0
LINE
  5
125
330
1F
100
AcDbEntity
  8
0-0
  6
JWW_DASHED1
 62
   120
370
     5
100
AcDbLine
 10
-684.9744702567793
 20
512.3335900491409
 30
0.0
 11
-465.4744702567777
 21
731.8335900491425
 31
0.0
  0
LINE
  5
126
330
1F
100
AcDbEntity
  8
0-0
  6
JWW_DASHED1
 62
   120
370
     5
100
AcDbLine
 10
-684.9744702567755
 20
522.2330849843611
 30
0.0
 11
-465.4744702567713
 21
741.7330849843648
 31
0.0
  0
LINE
  5
127
330
1F
100
AcDbEntity
  8
0-0
  6
JWW_DASHED1
 62
   120
370
     5
100
AcDbLine
 10
-684.9744702567835
 20
532.1325799195689
 30
0.0
 11
-465.4744702567794
 21
751.6325799195736
 31
0.0
  0
LINE
  5
128
330
1F
100
AcDbEntity
  8
0-0
  6
JWW_DASHED1
 62
   120
370
     5
100
AcDbLine
 10
-684.9744702567772
 20
542.0320748547372
 30
0.0
 11
-465.4744702567756
 21
761.5320748547391
 31
0.0
  0
LINE
  5
129
330
1F
100
AcDbEntity
  8
0-0
  6
JWW_DASHED1
 62
   120
370
     5
100
AcDbLine
 10
-684.9744702567725
 20
551.9315697899582
 30
0.0
 11
-465.4744702567688
 21
771.4315697899623
 31
0.0
  0
LINE
  5
12A
330
1F
100
AcDbEntity
  8
0-0
  6
JWW_DASHED1
 62
   120
370
     5
100
AcDbLine
 10
-684.9744702567814
 20
561.831064725166
 30
0.0
 11
-465.4744702567768
 21
781.3310647251706
 31
0.0
  0
LINE
  5
12B
330
1F
100
AcDbEntity
  8
0-0
  6
JWW_DASHED1
 62
   120
370
     5
100
AcDbLine
 10
-684.974470256775
 20
571.7305596603342
 30
0.0
 11
-465.4744702567892
 21
791.23055966032
 31
0.0
  0
LINE
  5
12C
330
1F
100
AcDbEntity
  8
0-0
  6
JWW_DASHED1
 62
   120
370
     5
100
AcDbLine
 10
-684.9744702567704
 20
581.6300545955548
 30
0.0
 11
-465.4744702567662
 21
801.1300545955594
 31
0.0
  0
LINE
  5
12D
330
1F
100
AcDbEntity
  8
0-0
  6
JWW_DASHED1
 62
   120
370
     5
100
AcDbLine
 10
-684.9744702567789
 20
591.529549530763
 30
0.0
 11
-465.4744702567743
 21
811.0295495307676
 31
0.0
  0
LINE
  5
12E
330
1F
100
AcDbEntity
  8
0-0
  6
JWW_DASHED1
 62
   120
370
     5
100
AcDbLine
 10
-684.9744702567725
 20
601.4290444659308
 30
0.0
 11
-473.1482853889244
 21
813.2552293337792
 31
0.0
  0
LINE
  5
12F
330
1F
100
AcDbEntity
  8
0-0
  6
JWW_DASHED1
 62
   120
370
     5
100
AcDbLine
 10
-684.9744702567677
 20
611.3285394011523
 30
0.0
 11
-483.0477803241633
 21
813.2552293337567
 31
0.0
  0
LINE
  5
130
330
1F
100
AcDbEntity
  8
0-0
  6
JWW_DASHED1
 62
   120
370
     5
100
AcDbLine
 10
-684.9744702567763
 20
621.2280343363597
 30
0.0
 11
-492.9472752593712
 21
813.2552293337652
 31
0.0
  0
LINE
  5
131
330
1F
100
AcDbEntity
  8
0-0
  6
JWW_DASHED1
 62
   120
370
     5
100
AcDbLine
 10
-684.9744702567707
 20
631.1275292715275
 30
0.0
 11
-502.8467701945227
 21
813.255229333775
 31
0.0
  0
LINE
  5
132
330
1F
100
AcDbEntity
  8
0-0
  6
JWW_DASHED1
 62
   120
370
     5
100
AcDbLine
 10
-684.9744702567789
 20
641.0270242067352
 30
0.0
 11
-512.7462651297437
 21
813.2552293337708
 31
0.0
  0
LINE
  5
133
330
1F
100
AcDbEntity
  8
0-0
  6
JWW_DASHED1
 62
   120
370
     5
100
AcDbLine
 10
-684.9744702567733
 20
650.9265191419571
 30
0.0
 11
-522.6457600649674
 21
813.2552293337635
 31
0.0
  0
LINE
  5
134
330
1F
100
AcDbEntity
  8
0-0
  6
JWW_DASHED1
 62
   120
370
     5
100
AcDbLine
 10
-684.9744702567704
 20
660.826014077122
 30
0.0
 11
-532.5452550001206
 21
813.2552293337716
 31
0.0
  0
LINE
  5
135
330
1F
100
AcDbEntity
  8
0-0
  6
JWW_DASHED1
 62
   120
370
     5
100
AcDbLine
 10
-684.9744702567767
 20
670.7255090123315
 30
0.0
 11
-542.4447499353294
 21
813.2552293337792
 31
0.0
  0
LINE
  5
136
330
1F
100
AcDbEntity
  8
0-0
  6
JWW_DASHED1
 62
   120
370
     5
100
AcDbLine
 10
-684.9744702567712
 20
680.6250039475542
 30
0.0
 11
-552.3442448705636
 21
813.2552293337613
 31
0.0
  0
LINE
  5
137
330
1F
100
AcDbEntity
  8
0-0
  6
JWW_DASHED1
 62
   120
370
     5
100
AcDbLine
 10
-684.974470256784
 20
690.5244988827031
 30
0.0
 11
-562.2437398057126
 21
813.2552293337745
 31
0.0
  0
LINE
  5
138
330
1F
100
AcDbEntity
  8
0-0
  6
JWW_DASHED1
 62
   120
370
     5
100
AcDbLine
 10
-684.9744702567746
 20
700.4239938179289
 30
0.0
 11
-572.143234740928
 21
813.255229333775
 31
0.0
  0
LINE
  5
139
330
1F
100
AcDbEntity
  8
0-0
  6
JWW_DASHED1
 62
   120
370
     5
100
AcDbLine
 10
-684.9744702567687
 20
710.3234887531512
 30
0.0
 11
-582.0427296761598
 21
813.2552293337601
 31
0.0
  0
LINE
  5
13A
330
1F
100
AcDbEntity
  8
0-0
  6
JWW_DASHED1
 62
   120
370
     5
100
AcDbLine
 10
-684.9744702567809
 20
720.2229836883002
 30
0.0
 11
-591.9422246113088
 21
813.2552293337728
 31
0.0
  0
LINE
  5
13B
330
1F
100
AcDbEntity
  8
0-0
  6
JWW_DASHED1
 62
   120
370
     5
100
AcDbLine
 10
-684.9744702567725
 20
730.1224786235255
 30
0.0
 11
-601.8417195465256
 21
813.255229333772
 31
0.0
  0
LINE
  5
13C
330
1F
100
AcDbEntity
  8
0-0
  6
JWW_DASHED1
 62
   120
370
     5
100
AcDbLine
 10
-684.9744702567704
 20
740.0219735586894
 30
0.0
 11
-611.7412144816972
 21
813.2552293337626
 31
0.0
  0
LINE
  5
13D
330
1F
100
AcDbEntity
  8
0-0
  6
JWW_DASHED1
 62
   120
370
     5
100
AcDbLine
 10
-684.9744702567789
 20
749.9214684938972
 30
0.0
 11
-621.6407094169045
 21
813.2552293337711
 31
0.0
  0
LINE
  5
13E
330
1F
100
AcDbEntity
  8
0-0
  6
JWW_DASHED1
 62
   120
370
     5
100
AcDbLine
 10
-684.9744702567704
 20
759.8209634291221
 30
0.0
 11
-631.5402043521248
 21
813.2552293337674
 31
0.0
  0
LINE
  5
13F
330
1F
100
AcDbEntity
  8
0-0
  6
JWW_DASHED1
 62
   120
370
     5
100
AcDbLine
 10
-684.9744702567677
 20
769.7204583642865
 30
0.0
 11
-641.4396992872934
 21
813.2552293337609
 31
0.0
  0
LINE
  5
140
330
1F
100
AcDbEntity
  8
0-0
  6
JWW_DASHED1
 62
   120
370
     5
100
AcDbLine
 10
-684.9744702567763
 20
779.6199532994939
 30
0.0
 11
-651.3391942225012
 21
813.2552293337694
 31
0.0
  0
LINE
  5
141
330
1F
100
AcDbEntity
  8
0-0
  6
JWW_DASHED1
 62
   120
370
     5
100
AcDbLine
 10
-684.9744702567687
 20
789.5194482347183
 30
0.0
 11
-661.2386891577222
 21
813.2552293337643
 31
0.0
  0
LINE
  5
142
330
1F
100
AcDbEntity
  8
0-0
  6
JWW_DASHED1
 62
   120
370
     5
100
AcDbLine
 10
-684.9744702567809
 20
799.4189431698678
 30
0.0
 11
-671.1381840928733
 21
813.255229333775
 31
0.0
  0
LINE
  5
143
330
1F
100
AcDbEntity
  8
0-0
  6
JWW_DASHED1
 62
   120
370
     5
100
AcDbLine
 10
-684.9744702567733
 20
809.3184381050913
 30
0.0
 11
-681.0376790280974
 21
813.2552293337674
 31
0.0
  0
LINE
  5
144
330
1F
100
AcDbEntity
  8
0-0
  6
JWW_DASHED1
 62
   120
370
     5
100
AcDbLine
 10
-61.31192355400344
 20
-431.7447706662297
 30
0.0
 11
-55.97447025676217
 21
-426.4073173689884
 31
0.0
  0
LINE
  5
145
330
1F
100
AcDbEntity
  8
0-0
  6
JWW_DASHED1
 62
   120
370
     5
100
AcDbLine
 10
-71.21141848922662
 20
-431.7447706662365
 30
0.0
 11
-55.97447025675407
 21
-416.5078224337644
 31
0.0
  0
LINE
  5
146
330
1F
100
AcDbEntity
  8
0-0
  6
JWW_DASHED1
 62
   120
370
     5
100
AcDbLine
 10
-81.11091342443359
 20
-431.744770666228
 30
0.0
 11
-55.9744702567626
 21
-406.608327498557
 31
0.0
  0
LINE
  5
147
330
1F
100
AcDbEntity
  8
0-0
  6
JWW_DASHED1
 62
   120
370
     5
100
AcDbLine
 10
-91.01040835960177
 20
-431.7447706662335
 30
0.0
 11
-55.97447025676004
 21
-396.7088325633922
 31
0.0
  0
LINE
  5
148
330
1F
100
AcDbEntity
  8
0-0
  6
JWW_DASHED1
 62
   120
370
     5
100
AcDbLine
 10
-100.9099032948224
 20
-431.7447706662382
 30
0.0
 11
-55.97447025675237
 21
-386.8093376281682
 31
0.0
  0
LINE
  5
149
330
1F
100
AcDbEntity
  8
0-0
  6
JWW_DASHED1
 62
   120
370
     5
100
AcDbLine
 10
-110.8093982299714
 20
-431.7447706662255
 30
0.0
 11
-55.97447025676431
 21
-376.9098426930184
 31
0.0
  0
LINE
  5
14A
330
1F
100
AcDbEntity
  8
0-0
  6
JWW_DASHED1
 62
   120
370
     5
100
AcDbLine
 10
-120.7088931652001
 20
-431.7447706662378
 30
0.0
 11
-55.97447025675748
 21
-367.0103477577952
 31
0.0
  0
LINE
  5
14B
330
1F
100
AcDbEntity
  8
0-0
  6
JWW_DASHED1
 62
   120
370
     5
100
AcDbLine
 10
-130.608388100419
 20
-431.7447706662399
 30
0.0
 11
-55.97447025675024
 21
-357.1108528225716
 31
0.0
  0
LINE
  5
14C
330
1F
100
AcDbEntity
  8
0-0
  6
JWW_DASHED1
 62
   120
370
     5
100
AcDbLine
 10
-140.5078830355676
 20
-431.7447706662272
 30
0.0
 11
-55.97447025676175
 21
-347.2113578874213
 31
0.0
  0
LINE
  5
14D
330
1F
100
AcDbEntity
  8
0-0
  6
JWW_DASHED1
 62
   120
370
     5
100
AcDbLine
 10
-150.4073779707754
 20
-431.744770666219
 30
0.0
 11
-55.97447025677027
 21
-337.3118629522131
 31
0.0
  0
LINE
  5
14E
330
1F
100
AcDbEntity
  8
0-0
  6
JWW_DASHED1
 62
   120
370
     5
100
AcDbLine
 10
-160.3068729060067
 20
-431.7447706662335
 30
0.0
 11
-55.97447025676388
 21
-327.4123680169907
 31
0.0
  0
LINE
  5
14F
330
1F
100
AcDbEntity
  8
0-0
  6
JWW_DASHED1
 62
   120
370
     5
100
AcDbLine
 10
-170.2063678411638
 20
-431.7447706662289
 30
0.0
 11
-55.97447025675919
 21
-317.5128730818243
 31
0.0
  0
LINE
  5
150
330
1F
100
AcDbEntity
  8
0-0
  6
JWW_DASHED1
 62
   120
370
     5
100
AcDbLine
 10
-180.1058627763716
 20
-431.7447706662203
 30
0.0
 11
-55.97447025676772
 21
-307.6133781466165
 31
0.0
  0
LINE
  5
151
330
1F
100
AcDbEntity
  8
0-0
  6
JWW_DASHED1
 62
   120
370
     5
100
AcDbLine
 10
-190.005357711605
 20
-431.7447706662374
 30
0.0
 11
-55.97447025676175
 21
-297.7138832113941
 31
0.0
  0
LINE
  5
152
330
1F
100
AcDbEntity
  8
0-0
  6
JWW_DASHED1
 62
   120
370
     5
100
AcDbLine
 10
-199.9048526467604
 20
-431.7447706662306
 30
0.0
 11
-55.97447025675663
 21
-287.8143882762272
 31
0.0
  0
LINE
  5
153
330
1F
100
AcDbEntity
  8
0-0
  6
JWW_DASHED1
 62
   120
370
     5
100
AcDbLine
 10
-209.8043475819678
 20
-431.7447706662221
 30
0.0
 11
-55.97447025676516
 21
-277.9148933410194
 31
0.0
  0
LINE
  5
154
330
1F
100
AcDbEntity
  8
0-0
  6
JWW_DASHED1
 62
   120
370
     5
100
AcDbLine
 10
-219.7038425172033
 20
-431.7447706662412
 30
0.0
 11
-55.97447025675962
 21
-268.0153984057975
 31
0.0
  0
LINE
  5
155
330
1F
100
AcDbEntity
  8
0-0
  6
JWW_DASHED1
 62
   120
370
     5
100
AcDbLine
 10
-229.6033374523562
 20
-431.7447706662327
 30
0.0
 11
-55.97447025675407
 21
-258.1159034706302
 31
0.0
  0
LINE
  5
156
330
1F
100
AcDbEntity
  8
0-0
  6
JWW_DASHED1
 62
   120
370
     5
100
AcDbLine
 10
-239.502832387564
 20
-431.7447706662238
 30
0.0
 11
-55.9744702567626
 21
-248.2164085354223
 31
0.0
  0
LINE
  5
157
330
1F
100
AcDbEntity
  8
0-0
  6
JWW_DASHED1
 62
   120
370
     5
100
AcDbLine
 10
-249.4023273227859
 20
-431.7447706662293
 30
0.0
 11
-55.9744702567707
 21
-238.3169136002141
 31
0.0
  0
LINE
  5
158
330
1F
100
AcDbEntity
  8
0-0
  6
JWW_DASHED1
 62
   120
370
     5
100
AcDbLine
 10
-259.3018222579524
 20
-431.744770666234
 30
0.0
 11
-55.97447025675407
 21
-228.4174186650357
 31
0.0
  0
LINE
  5
159
330
1F
100
AcDbEntity
  8
0-0
  6
JWW_DASHED1
 62
   120
370
     5
100
AcDbLine
 10
-269.2013171931602
 20
-431.7447706662255
 30
0.0
 11
-55.97447025676004
 21
-218.5179237298249
 31
0.0
  0
LINE
  5
15A
330
1F
100
AcDbEntity
  8
0-0
  6
JWW_DASHED1
 62
   120
370
     5
100
AcDbLine
 10
-275.4744702567727
 20
-428.1184287946212
 30
0.0
 11
-55.97447025676814
 21
-208.618428794617
 31
0.0
  0
LINE
  5
15B
330
1F
100
AcDbEntity
  8
0-0
  6
JWW_DASHED1
 62
   120
370
     5
100
AcDbLine
 10
-275.474470256754
 20
-418.2189338594411
 30
0.0
 11
-55.97447025675237
 21
-198.7189338594391
 31
0.0
  0
LINE
  5
15C
330
1F
100
AcDbEntity
  8
0-0
  6
JWW_DASHED1
 62
   120
370
     5
100
AcDbLine
 10
-275.4744702567616
 20
-408.3194389242324
 30
0.0
 11
-55.97447025675748
 21
-188.8194389242283
 31
0.0
  0
LINE
  5
15D
330
1F
100
AcDbEntity
  8
0-0
  6
JWW_DASHED1
 62
   120
370
     5
100
AcDbLine
 10
-275.4744702567582
 20
-398.4199439890672
 30
0.0
 11
-55.97447025676985
 21
-178.9199439890788
 31
0.0
  0
LINE
  5
15E
330
1F
100
AcDbEntity
  8
0-0
  6
JWW_DASHED1
 62
   120
370
     5
100
AcDbLine
 10
-275.4744702567518
 20
-388.520449053844
 30
0.0
 11
-55.97447025676601
 21
-169.0204490538582
 31
0.0
  0
LINE
  5
15F
330
1F
100
AcDbEntity
  8
0-0
  6
JWW_DASHED1
 62
   120
370
     5
100
AcDbLine
 10
-275.4744702567591
 20
-378.6209541186354
 30
0.0
 11
-55.97447025675493
 21
-159.1209541186312
 31
0.0
  0
LINE
  5
160
330
1F
100
AcDbEntity
  8
0-0
  6
JWW_DASHED1
 62
   120
370
     5
100
AcDbLine
 10
-275.4744702567718
 20
-368.7214591834863
 30
0.0
 11
-55.97447025676772
 21
-149.2214591834822
 31
0.0
  0
LINE
  5
161
330
1F
100
AcDbEntity
  8
0-0
  6
JWW_DASHED1
 62
   120
370
     5
100
AcDbLine
 10
-275.4744702567493
 20
-358.8219642482474
 30
0.0
 11
-55.97447025676345
 21
-139.3219642482616
 31
0.0
  0
LINE
  5
162
330
1F
100
AcDbEntity
  8
0-0
  6
JWW_DASHED1
 62
   120
370
     5
100
AcDbLine
 10
-275.4744702567561
 20
-348.9224693130383
 30
0.0
 11
-55.97447025675237
 21
-129.4224693130342
 31
0.0
  0
LINE
  5
163
330
1F
100
AcDbEntity
  8
0-0
  6
JWW_DASHED1
 62
   120
370
     5
100
AcDbLine
 10
-275.4744702567693
 20
-339.0229743778893
 30
0.0
 11
-55.97447025676516
 21
-119.5229743778847
 31
0.0
  0
LINE
  5
164
330
1F
100
AcDbEntity
  8
0-0
  6
JWW_DASHED1
 62
   120
370
     5
100
AcDbLine
 10
-275.4744702567472
 20
-329.1234794426512
 30
0.0
 11
-55.97447025676175
 21
-109.623479442665
 31
0.0
  0
LINE
  5
165
330
1F
100
AcDbEntity
  8
0-0
  6
JWW_DASHED1
 62
   120
370
     5
100
AcDbLine
 10
-275.4744702567557
 20
-319.223984507443
 30
0.0
 11
-55.97447025675407
 21
-99.72398450744137
 31
0.0
  0
LINE
  5
166
330
1F
100
AcDbEntity
  8
0-0
  6
JWW_DASHED1
 62
   120
370
     5
100
AcDbLine
 10
-275.4744702567667
 20
-309.3244895722922
 30
0.0
 11
-55.9744702567626
 21
-89.82448957228812
 31
0.0
  0
LINE
  5
167
330
1F
100
AcDbEntity
  8
0-0
  6
JWW_DASHED1
 62
   120
370
     5
100
AcDbLine
 10
-275.4744702567591
 20
-299.4249946370683
 30
0.0
 11
-55.9744702567707
 21
-79.92499463707986
 31
0.0
  0
LINE
  5
168
330
1F
100
AcDbEntity
  8
0-0
  6
JWW_DASHED1
 62
   120
370
     5
100
AcDbLine
 10
-275.4744702567535
 20
-289.5254997018468
 30
0.0
 11
-55.97447025675152
 21
-70.02549970184475
 31
0.0
  0
LINE
  5
169
330
1F
100
AcDbEntity
  8
0-0
  6
JWW_DASHED1
 62
   120
370
     5
100
AcDbLine
 10
-275.4744702567642
 20
-279.6260047666952
 30
0.0
 11
-55.97447025676004
 21
-60.12600476669107
 31
0.0
  0
LINE
  5
16A
330
1F
100
AcDbEntity
  8
0-0
  6
JWW_DASHED1
 62
   120
370
     5
100
AcDbLine
 10
-275.4744702567727
 20
-269.726509831487
 30
0.0
 11
-55.97447025676814
 21
-50.22650983148282
 31
0.0
  0
LINE
  5
16B
330
1F
100
AcDbEntity
  8
0-0
  6
JWW_DASHED1
 62
   120
370
     5
100
AcDbLine
 10
-275.4744702567514
 20
-259.8270148962497
 30
0.0
 11
-55.97447025676516
 21
-40.3270148962639
 31
0.0
  0
LINE
  5
16C
330
1F
100
AcDbEntity
  8
0-0
  6
JWW_DASHED1
 62
   120
370
     5
100
AcDbLine
 10
-275.4744702567616
 20
-249.9275199610982
 30
0.0
 11
-55.97447025675748
 21
-30.42751996109359
 31
0.0
  0
LINE
  5
16D
330
1F
100
AcDbEntity
  8
0-0
  6
JWW_DASHED1
 62
   120
370
     5
100
AcDbLine
 10
-275.4744702567697
 20
-240.0280250258903
 30
0.0
 11
-55.97447025676516
 21
-20.52802502588577
 31
0.0
  0
LINE
  5
16E
330
1F
100
AcDbEntity
  8
0-0
  6
JWW_DASHED1
 62
   120
370
     5
100
AcDbLine
 10
-275.4744702567493
 20
-230.1285300906527
 30
0.0
 11
-55.97447025676345
 21
-10.62853009066728
 31
0.0
  0
LINE
  5
16F
330
1F
100
AcDbEntity
  8
0-0
  6
JWW_DASHED1
 62
   120
370
     5
100
AcDbLine
 10
-275.4744702567591
 20
-220.2290351555011
 30
0.0
 11
-55.97447025675493
 21
-0.7290351554969732
 31
0.0
  0
LINE
  5
170
330
1F
100
AcDbEntity
  8
0-0
  6
JWW_DASHED1
 62
   120
370
     5
100
AcDbLine
 10
-275.4744702567676
 20
-210.3295402202933
 30
0.0
 11
-55.97447025676303
 21
9.17045977971128
 31
0.0
  0
LINE
  5
171
330
1F
100
AcDbEntity
  8
0-0
  6
JWW_DASHED1
 62
   120
370
     5
100
AcDbLine
 10
-275.4744702567472
 20
-200.4300452850569
 30
0.0
 11
-55.97447025676132
 21
19.06995471492934
 31
0.0
  0
LINE
  5
172
330
1F
100
AcDbEntity
  8
0-0
  6
JWW_DASHED1
 62
   120
370
     5
100
AcDbLine
 10
-275.4744702567561
 20
-190.5305503499041
 30
0.0
 11
-55.97447025675237
 21
28.96944965010007
 31
0.0
  0
LINE
  5
173
330
1F
100
AcDbEntity
  8
0-0
  6
JWW_DASHED1
 62
   120
370
     5
100
AcDbLine
 10
-275.474470256765
 20
-180.6310554146958
 30
0.0
 11
-55.97447025676047
 21
38.86894458530833
 31
0.0
  0
LINE
  5
174
330
1F
100
AcDbEntity
  8
0-0
  6
JWW_DASHED1
 62
   120
370
     5
100
AcDbLine
 10
-275.4744702567574
 20
-170.7315604794722
 30
0.0
 11
-55.974470256769
 21
48.76843952051658
 31
0.0
  0
LINE
  5
175
330
1F
100
AcDbEntity
  8
0-0
  6
JWW_DASHED1
 62
   120
370
     5
100
AcDbLine
 10
-275.4744702567574
 20
-160.8320655443104
 30
0.0
 11
-55.97447025675578
 21
58.66793445569115
 31
0.0
  0
LINE
  5
176
330
1F
100
AcDbEntity
  8
0-0
  6
JWW_DASHED1
 62
   120
370
     5
100
AcDbLine
 10
-275.4744702567625
 20
-150.9325706090988
 30
0.0
 11
-55.97447025675791
 21
68.56742939090537
 31
0.0
  0
LINE
  5
177
330
1F
100
AcDbEntity
  8
0-0
  6
JWW_DASHED1
 62
   120
370
     5
100
AcDbLine
 10
-275.4744702567701
 20
-141.0330756738909
 30
0.0
 11
-55.97447025676601
 21
78.46692432611363
 31
0.0
  0
LINE
  5
178
330
1F
100
AcDbEntity
  8
0-0
  6
JWW_DASHED1
 62
   120
370
     5
100
AcDbLine
 10
-275.4744702567557
 20
-131.1335807387138
 30
0.0
 11
-55.97447025675407
 21
88.36641926128735
 31
0.0
  0
LINE
  5
179
330
1F
100
AcDbEntity
  8
0-0
  6
JWW_DASHED1
 62
   120
370
     5
100
AcDbLine
 10
-275.4744702567599
 20
-121.2340858035022
 30
0.0
 11
-55.97447025675535
 21
98.265914196502
 31
0.0
  0
LINE
  5
17A
330
1F
100
AcDbEntity
  8
0-0
  6
JWW_DASHED1
 62
   120
370
     5
100
AcDbLine
 10
-275.474470256768
 20
-111.3345908682939
 30
0.0
 11
-55.97447025676345
 21
108.1654091317107
 31
0.0
  0
LINE
  5
17B
330
1F
100
AcDbEntity
  8
0-0
  6
JWW_DASHED1
 62
   120
370
     5
100
AcDbLine
 10
-275.4744702567531
 20
-101.4350959331172
 30
0.0
 11
-55.97447025676772
 21
118.0649040668686
 31
0.0
  0
LINE
  5
17C
330
1F
100
AcDbEntity
  8
0-0
  6
JWW_DASHED1
 62
   120
370
     5
100
AcDbLine
 10
-275.4744702567574
 20
-91.5356009979051
 30
0.0
 11
-55.97447025675322
 21
127.9643990020995
 31
0.0
  0
LINE
  5
17D
330
1F
100
AcDbEntity
  8
0-0
  6
JWW_DASHED1
 62
   120
370
     5
100
AcDbLine
 10
-275.4744702567655
 20
-81.63610606269685
 30
0.0
 11
-55.97447025676132
 21
137.8638939373077
 31
0.0
  0
LINE
  5
17E
330
1F
100
AcDbEntity
  8
0-0
  6
JWW_DASHED1
 62
   120
370
     5
100
AcDbLine
 10
-275.4744702567514
 20
-71.73661112752058
 30
0.0
 11
-55.97447025676516
 21
147.7633888724652
 31
0.0
  0
LINE
  5
17F
330
1F
100
AcDbEntity
  8
0-0
  6
JWW_DASHED1
 62
   120
370
     5
100
AcDbLine
 10
-275.4744702567595
 20
-61.83711619231275
 30
0.0
 11
-55.97447025675791
 21
157.6628838076888
 31
0.0
  0
LINE
  5
180
330
1F
100
AcDbEntity
  8
0-0
  6
JWW_DASHED1
 62
   120
370
     5
100
AcDbLine
 10
-275.4744702567629
 20
-51.93762125709981
 30
0.0
 11
-55.97447025675834
 21
167.5623787429043
 31
0.0
  0
LINE
  5
181
330
1F
100
AcDbEntity
  8
0-0
  6
JWW_DASHED1
 62
   120
370
     5
100
AcDbLine
 10
-275.4744702567489
 20
-42.03812632192395
 30
0.0
 11
-55.97447025676345
 21
177.4618736780619
 31
0.0
  0
LINE
  5
182
330
1F
100
AcDbEntity
  8
0-0
  6
JWW_DASHED1
 62
   120
370
     5
100
AcDbLine
 10
-275.4744702567574
 20
-32.13863138671613
 30
0.0
 11
-55.97447025675578
 21
187.3613686132855
 31
0.0
  0
LINE
  5
183
330
1F
100
AcDbEntity
  8
0-0
  6
JWW_DASHED1
 62
   120
370
     5
100
AcDbLine
 10
-275.4744702567608
 20
-22.23913645150361
 30
0.0
 11
-55.97447025675621
 21
197.2608635485014
 31
0.0
  0
LINE
  5
184
330
1F
100
AcDbEntity
  8
0-0
  6
JWW_DASHED1
 62
   120
370
     5
100
AcDbLine
 10
-275.4744702567574
 20
-12.33964151633799
 30
0.0
 11
-55.974470256769
 21
207.1603584836508
 31
0.0
  0
LINE
  5
185
330
1F
100
AcDbEntity
  8
0-0
  6
JWW_DASHED1
 62
   120
370
     5
100
AcDbLine
 10
-275.4744702567552
 20
-2.440146581119507
 30
0.0
 11
-55.97447025676942
 21
217.0598534188663
 31
0.0
  0
LINE
  5
186
330
1F
100
AcDbEntity
  8
0-0
  6
JWW_DASHED1
 62
   120
370
     5
100
AcDbLine
 10
-275.4744702567582
 20
7.459348354093862
 30
0.0
 11
-55.97447025675365
 21
226.9593483540984
 31
0.0
  0
LINE
  5
187
330
1F
100
AcDbEntity
  8
0-0
  6
JWW_DASHED1
 62
   120
370
     5
100
AcDbLine
 10
-275.4744702567701
 20
17.35884328924328
 30
0.0
 11
-55.97447025676601
 21
236.8588432892479
 31
0.0
  0
LINE
  5
188
330
1F
100
AcDbEntity
  8
0-0
  6
JWW_DASHED1
 62
   120
370
     5
100
AcDbLine
 10
-275.4744702567531
 20
27.25833822447711
 30
0.0
 11
-55.97447025676729
 21
246.7583382244629
 31
0.0
  0
LINE
  5
189
330
1F
100
AcDbEntity
  8
0-0
  6
JWW_DASHED1
 62
   120
370
     5
100
AcDbLine
 10
-275.4744702567557
 20
37.15783315969091
 30
0.0
 11
-55.97447025675109
 21
256.6578331596955
 31
0.0
  0
LINE
  5
18A
330
1F
100
AcDbEntity
  8
0-0
  6
JWW_DASHED1
 62
   120
370
     5
100
AcDbLine
 10
-275.474470256768
 20
47.05732809484033
 30
0.0
 11
-55.97447025676345
 21
266.5573280948449
 31
0.0
  0
LINE
  5
18B
330
1F
100
AcDbEntity
  8
0-0
  6
JWW_DASHED1
 62
   120
370
     5
100
AcDbLine
 10
-275.474470256751
 20
56.95682303007374
 30
0.0
 11
-55.97447025676516
 21
276.4568230300596
 31
0.0
  0
LINE
  5
18C
330
1F
100
AcDbEntity
  8
0-0
  6
JWW_DASHED1
 62
   120
370
     5
100
AcDbLine
 10
-275.4744702567595
 20
66.85631796528199
 30
0.0
 11
-55.97447025675791
 21
286.3563179652836
 31
0.0
  0
LINE
  5
18D
330
1F
100
AcDbEntity
  8
0-0
  6
JWW_DASHED1
 62
   120
370
     5
100
AcDbLine
 10
-275.4744702567655
 20
76.75581290043738
 30
0.0
 11
-55.9744702567609
 21
296.2558129004419
 31
0.0
  0
LINE
  5
18E
330
1F
100
AcDbEntity
  8
0-0
  6
JWW_DASHED1
 62
   120
370
     5
100
AcDbLine
 10
-275.4744702567489
 20
86.65530783567036
 30
0.0
 11
-55.97447025676303
 21
306.1553078356562
 31
0.0
  0
LINE
  5
18F
330
1F
100
AcDbEntity
  8
0-0
  6
JWW_DASHED1
 62
   120
370
     5
100
AcDbLine
 10
-275.4744702567591
 20
96.5548027708492
 30
0.0
 11
-55.97447025675748
 21
316.0548027708508
 31
0.0
  0
LINE
  5
190
330
1F
100
AcDbEntity
  8
0-0
  6
JWW_DASHED1
 62
   120
370
     5
100
AcDbLine
 10
-275.4744702567629
 20
106.4542977060344
 30
0.0
 11
-55.97447025675791
 21
325.9542977060386
 31
0.0
  0
LINE
  5
191
330
1F
100
AcDbEntity
  8
0-0
  6
JWW_DASHED1
 62
   120
370
     5
100
AcDbLine
 10
-275.4744702567557
 20
116.3537926412585
 30
0.0
 11
-55.97447025676686
 21
335.8537926412469
 31
0.0
  0
LINE
  5
192
330
1F
100
AcDbEntity
  8
0-0
  6
JWW_DASHED1
 62
   120
370
     5
100
AcDbLine
 10
-275.4744702567574
 20
126.2532875764458
 30
0.0
 11
-55.97447025675535
 21
345.753287576447
 31
0.0
  0
LINE
  5
193
330
1F
100
AcDbEntity
  8
0-0
  6
JWW_DASHED1
 62
   120
370
     5
100
AcDbLine
 10
-275.4744702567604
 20
136.152782511631
 30
0.0
 11
-55.97447025675621
 21
355.6527825116356
 31
0.0
  0
LINE
  5
194
330
1F
100
AcDbEntity
  8
0-0
  6
JWW_DASHED1
 62
   120
370
     5
100
AcDbLine
 10
-275.4744702567689
 20
146.0522774468397
 30
0.0
 11
-55.97447025676431
 21
365.5522774468438
 31
0.0
  0
LINE
  5
195
330
1F
100
AcDbEntity
  8
0-0
  6
JWW_DASHED1
 62
   120
370
     5
100
AcDbLine
 10
-275.4744702567574
 20
155.951772382013
 30
0.0
 11
-55.97447025675578
 21
375.4517723820142
 31
0.0
  0
LINE
  5
196
330
1F
100
AcDbEntity
  8
0-0
  6
JWW_DASHED1
 62
   120
370
     5
100
AcDbLine
 10
-275.4744702567578
 20
165.8512673172285
 30
0.0
 11
-55.97447025675365
 21
385.3512673172327
 31
0.0
  0
LINE
  5
197
330
1F
100
AcDbEntity
  8
0-0
  6
JWW_DASHED1
 62
   120
370
     5
100
AcDbLine
 10
-275.4744702567659
 20
175.7507622524368
 30
0.0
 11
-55.97447025676175
 21
395.2507622524409
 31
0.0
  0
LINE
  5
198
330
1F
100
AcDbEntity
  8
0-0
  6
JWW_DASHED1
 62
   120
370
     5
100
AcDbLine
 10
-275.4744702567552
 20
185.6502571876096
 30
0.0
 11
-55.97447025676942
 21
405.150257187595
 31
0.0
  0
LINE
  5
199
330
1F
100
AcDbEntity
  8
0-0
  6
JWW_DASHED1
 62
   120
370
     5
100
AcDbLine
 10
-275.4744702567557
 20
195.5497521228256
 30
0.0
 11
-55.97447025675109
 21
415.0497521228297
 31
0.0
  0
LINE
  5
19A
330
1F
100
AcDbEntity
  8
0-0
  6
JWW_DASHED1
 62
   120
370
     5
100
AcDbLine
 10
-275.4744702567633
 20
205.4492470580334
 30
0.0
 11
-55.97447025675919
 21
424.9492470580379
 31
0.0
  0
LINE
  5
19B
330
1F
100
AcDbEntity
  8
0-0
  6
JWW_DASHED1
 62
   120
370
     5
100
AcDbLine
 10
-275.4744702567527
 20
215.3487419932063
 30
0.0
 11
-55.97447025676686
 21
434.8487419931917
 31
0.0
  0
LINE
  5
19C
330
1F
100
AcDbEntity
  8
0-0
  6
JWW_DASHED1
 62
   120
370
     5
100
AcDbLine
 10
-275.4744702567612
 20
225.2482369284141
 30
0.0
 11
-55.97447025675962
 21
444.7482369284157
 31
0.0
  0
LINE
  5
19D
330
1F
100
AcDbEntity
  8
0-0
  6
JWW_DASHED1
 62
   120
370
     5
100
AcDbLine
 10
-275.4744702567612
 20
235.1477318636304
 30
0.0
 11
-55.97447025675663
 21
454.647731863635
 31
0.0
  0
LINE
  5
19E
330
1F
100
AcDbEntity
  8
0-0
  6
JWW_DASHED1
 62
   120
370
     5
100
AcDbLine
 10
-275.4744702567506
 20
245.0472267988029
 30
0.0
 11
-55.97447025676516
 21
464.5472267987883
 31
0.0
  0
LINE
  5
19F
330
1F
100
AcDbEntity
  8
0-0
  6
JWW_DASHED1
 62
   120
370
     5
100
AcDbLine
 10
-275.4744702567591
 20
254.9467217340107
 30
0.0
 11
-55.97447025675748
 21
474.4467217340123
 31
0.0
  0
LINE
  5
1A0
330
1F
100
AcDbEntity
  8
0-0
  6
JWW_DASHED1
 62
   120
370
     5
100
AcDbLine
 10
-275.4744702567587
 20
264.8462166692275
 30
0.0
 11
-55.97447025675407
 21
484.346216669232
 31
0.0
  0
LINE
  5
1A1
330
1F
100
AcDbEntity
  8
0-0
  6
JWW_DASHED1
 62
   120
370
     5
100
AcDbLine
 10
-275.4744702567552
 20
274.7457116043927
 30
0.0
 11
-55.97447025676686
 21
494.2457116043811
 31
0.0
  0
LINE
  5
1A2
330
1F
100
AcDbEntity
  8
0-0
  6
JWW_DASHED1
 62
   120
370
     5
100
AcDbLine
 10
-275.4744702567565
 20
284.6452065396073
 30
0.0
 11
-55.97447025677113
 21
504.1452065395931
 31
0.0
  0
LINE
  5
1A3
330
1F
100
AcDbEntity
  8
0-0
  6
JWW_DASHED1
 62
   120
370
     5
100
AcDbLine
 10
-275.4744702567561
 20
294.5447014748245
 30
0.0
 11
-55.97447025675152
 21
514.0447014748287
 31
0.0
  0
LINE
  5
1A4
330
1F
100
AcDbEntity
  8
0-0
  6
JWW_DASHED1
 62
   120
370
     5
100
AcDbLine
 10
-275.4744702567684
 20
304.444196409974
 30
0.0
 11
-55.97447025676431
 21
523.9441964099781
 31
0.0
  0
LINE
  5
1A5
330
1F
100
AcDbEntity
  8
0-0
  6
JWW_DASHED1
 62
   120
370
     5
100
AcDbLine
 10
-275.4744702567548
 20
314.343691345204
 30
0.0
 11
-55.974470256769
 21
533.8436913451893
 31
0.0
  0
LINE
  5
1A6
330
1F
100
AcDbEntity
  8
0-0
  6
JWW_DASHED1
 62
   120
370
     5
100
AcDbLine
 10
-275.4744702567535
 20
324.2431862804211
 30
0.0
 11
-55.97447025674896
 21
543.7431862804258
 31
0.0
  0
LINE
  5
1A7
330
1F
100
AcDbEntity
  8
0-0
  6
JWW_DASHED1
 62
   120
370
     5
100
AcDbLine
 10
-275.4744702567659
 20
334.142681215571
 30
0.0
 11
-55.97447025676175
 21
553.6426812155747
 31
0.0
  0
LINE
  5
1A8
330
1F
100
AcDbEntity
  8
0-0
  6
JWW_DASHED1
 62
   120
370
     5
100
AcDbLine
 10
-275.4744702567527
 20
344.0421761508006
 30
0.0
 11
-55.97447025676686
 21
563.5421761507864
 31
0.0
  0
LINE
  5
1A9
330
1F
100
AcDbEntity
  8
0-0
  6
JWW_DASHED1
 62
   120
370
     5
100
AcDbLine
 10
-275.4744702567608
 20
353.9416710860084
 30
0.0
 11
-55.97447025675919
 21
573.4416710860104
 31
0.0
  0
LINE
  5
1AA
330
1F
100
AcDbEntity
  8
0-0
  6
JWW_DASHED1
 62
   120
370
     5
100
AcDbLine
 10
-275.4744702567633
 20
363.8411660211681
 30
0.0
 11
-55.97447025675919
 21
583.3411660211722
 31
0.0
  0
LINE
  5
1AB
330
1F
100
AcDbEntity
  8
0-0
  6
JWW_DASHED1
 62
   120
370
     5
100
AcDbLine
 10
-275.4744702567506
 20
373.7406609563972
 30
0.0
 11
-55.97447025676473
 21
593.240660956383
 31
0.0
  0
LINE
  5
1AC
330
1F
100
AcDbEntity
  8
0-0
  6
JWW_DASHED1
 62
   120
370
     5
100
AcDbLine
 10
-275.4744702567591
 20
383.640155891605
 30
0.0
 11
-55.97447025675748
 21
603.1401558916066
 31
0.0
  0
LINE
  5
1AD
330
1F
100
AcDbEntity
  8
0-0
  6
JWW_DASHED1
 62
   120
370
     5
100
AcDbLine
 10
-275.4744702567608
 20
393.5396508267647
 30
0.0
 11
-55.97447025675663
 21
613.0396508267693
 31
0.0
  0
LINE
  5
1AE
330
1F
100
AcDbEntity
  8
0-0
  6
JWW_DASHED1
 62
   120
370
     5
100
AcDbLine
 10
-275.4744702567693
 20
403.4391457619729
 30
0.0
 11
-55.97447025676516
 21
622.9391457619771
 31
0.0
  0
LINE
  5
1AF
330
1F
100
AcDbEntity
  8
0-0
  6
JWW_DASHED1
 62
   120
370
     5
100
AcDbLine
 10
-275.4744702567561
 20
413.3386406972021
 30
0.0
 11
-55.9744702567707
 21
632.8386406971874
 31
0.0
  0
LINE
  5
1B0
330
1F
100
AcDbEntity
  8
0-0
  6
JWW_DASHED1
 62
   120
370
     5
100
AcDbLine
 10
-275.4744702567587
 20
423.2381356323622
 30
0.0
 11
-55.97447025675407
 21
642.7381356323663
 31
0.0
  0
LINE
  5
1B1
330
1F
100
AcDbEntity
  8
0-0
  6
JWW_DASHED1
 62
   120
370
     5
100
AcDbLine
 10
-275.4744702567667
 20
433.1376305675695
 30
0.0
 11
-55.9744702567626
 21
652.6376305675738
 31
0.0
  0
LINE
  5
1B2
330
1F
100
AcDbEntity
  8
0-0
  6
JWW_DASHED1
 62
   120
370
     5
100
AcDbLine
 10
-275.4744702567544
 20
443.0371255027987
 30
0.0
 11
-55.97447025676857
 21
662.5371255027836
 31
0.0
  0
LINE
  5
1B3
330
1F
100
AcDbEntity
  8
0-0
  6
JWW_DASHED1
 62
   120
370
     5
100
AcDbLine
 10
-275.4744702567561
 20
452.9366204379588
 30
0.0
 11
-55.97447025675152
 21
672.4366204379634
 31
0.0
  0
LINE
  5
1B4
330
1F
100
AcDbEntity
  8
0-0
  6
JWW_DASHED1
 62
   120
370
     5
100
AcDbLine
 10
-275.4744702567642
 20
462.836115373167
 30
0.0
 11
-55.97447025676004
 21
682.3361153731712
 31
0.0
  0
LINE
  5
1B5
330
1F
100
AcDbEntity
  8
0-0
  6
JWW_DASHED1
 62
   120
370
     5
100
AcDbLine
 10
-275.4744702567523
 20
472.7356103083953
 30
0.0
 11
-55.97447025676644
 21
692.2356103083812
 31
0.0
  0
LINE
  5
1B6
330
1F
100
AcDbEntity
  8
0-0
  6
JWW_DASHED1
 62
   120
370
     5
100
AcDbLine
 10
-275.4744702567535
 20
482.6351052435554
 30
0.0
 11
-55.97447025674896
 21
702.13510524356
 31
0.0
  0
LINE
  5
1B7
330
1F
100
AcDbEntity
  8
0-0
  6
JWW_DASHED1
 62
   120
370
     5
100
AcDbLine
 10
-275.4744702567616
 20
492.5346001787641
 30
0.0
 11
-55.97447025675748
 21
712.0346001787682
 31
0.0
  0
LINE
  5
1B8
330
1F
100
AcDbEntity
  8
0-0
  6
JWW_DASHED1
 62
   120
370
     5
100
AcDbLine
 10
-275.474470256754
 20
502.4340951139881
 30
0.0
 11
-55.97447025676516
 21
721.9340951139765
 31
0.0
  0
LINE
  5
1B9
330
1F
100
AcDbEntity
  8
0-0
  6
JWW_DASHED1
 62
   120
370
     5
100
AcDbLine
 10
-275.4744702567629
 20
512.3335900491409
 30
0.0
 11
-55.97447025676132
 21
731.8335900491425
 31
0.0
  0
LINE
  5
1BA
330
1F
100
AcDbEntity
  8
0-0
  6
JWW_DASHED1
 62
   120
370
     5
100
AcDbLine
 10
-275.4744702567591
 20
522.2330849843611
 30
0.0
 11
-55.97447025675493
 21
741.7330849843648
 31
0.0
  0
LINE
  5
1BB
330
1F
100
AcDbEntity
  8
0-0
  6
JWW_DASHED1
 62
   120
370
     5
100
AcDbLine
 10
-275.4744702567672
 20
532.1325799195689
 30
0.0
 11
-55.97447025676303
 21
751.6325799195736
 31
0.0
  0
LINE
  5
1BC
330
1F
100
AcDbEntity
  8
0-0
  6
JWW_DASHED1
 62
   120
370
     5
100
AcDbLine
 10
-275.4744702567608
 20
542.0320748547372
 30
0.0
 11
-55.97447025675919
 21
761.5320748547391
 31
0.0
  0
LINE
  5
1BD
330
1F
100
AcDbEntity
  8
0-0
  6
JWW_DASHED1
 62
   120
370
     5
100
AcDbLine
 10
-275.4744702567561
 20
551.9315697899582
 30
0.0
 11
-55.97447025675237
 21
771.4315697899623
 31
0.0
  0
LINE
  5
1BE
330
1F
100
AcDbEntity
  8
0-0
  6
JWW_DASHED1
 62
   120
370
     5
100
AcDbLine
 10
-275.474470256765
 20
561.831064725166
 30
0.0
 11
-55.97447025676047
 21
781.3310647251706
 31
0.0
  0
LINE
  5
1BF
330
1F
100
AcDbEntity
  8
0-0
  6
JWW_DASHED1
 62
   120
370
     5
100
AcDbLine
 10
-275.4744702567587
 20
571.7305596603342
 30
0.0
 11
-55.97447025677283
 21
791.23055966032
 31
0.0
  0
LINE
  5
1C0
330
1F
100
AcDbEntity
  8
0-0
  6
JWW_DASHED1
 62
   120
370
     5
100
AcDbLine
 10
-275.474470256754
 20
581.6300545955548
 30
0.0
 11
-55.97447025674981
 21
801.1300545955594
 31
0.0
  0
LINE
  5
1C1
330
1F
100
AcDbEntity
  8
0-0
  6
JWW_DASHED1
 62
   120
370
     5
100
AcDbLine
 10
-275.4744702567625
 20
591.529549530763
 30
0.0
 11
-55.97447025675791
 21
811.0295495307676
 31
0.0
  0
LINE
  5
1C2
330
1F
100
AcDbEntity
  8
0-0
  6
JWW_DASHED1
 62
   120
370
     5
100
AcDbLine
 10
-275.4744702567561
 20
601.4290444659308
 30
0.0
 11
-63.64828538890805
 21
813.2552293337792
 31
0.0
  0
LINE
  5
1C3
330
1F
100
AcDbEntity
  8
0-0
  6
JWW_DASHED1
 62
   120
370
     5
100
AcDbLine
 10
-275.4744702567514
 20
611.3285394011523
 30
0.0
 11
-73.547780324147
 21
813.2552293337567
 31
0.0
  0
LINE
  5
1C4
330
1F
100
AcDbEntity
  8
0-0
  6
JWW_DASHED1
 62
   120
370
     5
100
AcDbLine
 10
-275.4744702567599
 20
621.2280343363597
 30
0.0
 11
-83.44727525935483
 21
813.2552293337652
 31
0.0
  0
LINE
  5
1C5
330
1F
100
AcDbEntity
  8
0-0
  6
JWW_DASHED1
 62
   120
370
     5
100
AcDbLine
 10
-275.4744702567544
 20
631.1275292715275
 30
0.0
 11
-93.34677019450638
 21
813.255229333775
 31
0.0
  0
LINE
  5
1C6
330
1F
100
AcDbEntity
  8
0-0
  6
JWW_DASHED1
 62
   120
370
     5
100
AcDbLine
 10
-275.4744702567625
 20
641.0270242067352
 30
0.0
 11
-103.2462651297274
 21
813.2552293337708
 31
0.0
  0
LINE
  5
1C7
330
1F
100
AcDbEntity
  8
0-0
  6
JWW_DASHED1
 62
   120
370
     5
100
AcDbLine
 10
-275.4744702567574
 20
650.9265191419571
 30
0.0
 11
-113.145760064951
 21
813.2552293337635
 31
0.0
  0
LINE
  5
1C8
330
1F
100
AcDbEntity
  8
0-0
  6
JWW_DASHED1
 62
   120
370
     5
100
AcDbLine
 10
-275.474470256754
 20
660.826014077122
 30
0.0
 11
-123.0452550001043
 21
813.2552293337716
 31
0.0
  0
LINE
  5
1C9
330
1F
100
AcDbEntity
  8
0-0
  6
JWW_DASHED1
 62
   120
370
     5
100
AcDbLine
 10
-275.4744702567604
 20
670.7255090123315
 30
0.0
 11
-132.944749935313
 21
813.2552293337792
 31
0.0
  0
LINE
  5
1CA
330
1F
100
AcDbEntity
  8
0-0
  6
JWW_DASHED1
 62
   120
370
     5
100
AcDbLine
 10
-275.4744702567548
 20
680.6250039475542
 30
0.0
 11
-142.8442448705472
 21
813.2552293337613
 31
0.0
  0
LINE
  5
1CB
330
1F
100
AcDbEntity
  8
0-0
  6
JWW_DASHED1
 62
   120
370
     5
100
AcDbLine
 10
-275.4744702567676
 20
690.5244988827031
 30
0.0
 11
-152.7437398056962
 21
813.2552293337745
 31
0.0
  0
LINE
  5
1CC
330
1F
100
AcDbEntity
  8
0-0
  6
JWW_DASHED1
 62
   120
370
     5
100
AcDbLine
 10
-275.4744702567582
 20
700.4239938179289
 30
0.0
 11
-162.6432347409117
 21
813.255229333775
 31
0.0
  0
LINE
  5
1CD
330
1F
100
AcDbEntity
  8
0-0
  6
JWW_DASHED1
 62
   120
370
     5
100
AcDbLine
 10
-275.4744702567523
 20
710.3234887531512
 30
0.0
 11
-172.5427296761434
 21
813.2552293337601
 31
0.0
  0
LINE
  5
1CE
330
1F
100
AcDbEntity
  8
0-0
  6
JWW_DASHED1
 62
   120
370
     5
100
AcDbLine
 10
-275.4744702567646
 20
720.2229836883002
 30
0.0
 11
-182.4422246112924
 21
813.2552293337728
 31
0.0
  0
LINE
  5
1CF
330
1F
100
AcDbEntity
  8
0-0
  6
JWW_DASHED1
 62
   120
370
     5
100
AcDbLine
 10
-275.4744702567561
 20
730.1224786235255
 30
0.0
 11
-192.3417195465092
 21
813.255229333772
 31
0.0
  0
LINE
  5
1D0
330
1F
100
AcDbEntity
  8
0-0
  6
JWW_DASHED1
 62
   120
370
     5
100
AcDbLine
 10
-275.474470256754
 20
740.0219735586894
 30
0.0
 11
-202.2412144816808
 21
813.2552293337626
 31
0.0
  0
LINE
  5
1D1
330
1F
100
AcDbEntity
  8
0-0
  6
JWW_DASHED1
 62
   120
370
     5
100
AcDbLine
 10
-275.4744702567625
 20
749.9214684938972
 30
0.0
 11
-212.1407094168886
 21
813.2552293337711
 31
0.0
  0
LINE
  5
1D2
330
1F
100
AcDbEntity
  8
0-0
  6
JWW_DASHED1
 62
   120
370
     5
100
AcDbLine
 10
-275.474470256754
 20
759.8209634291221
 30
0.0
 11
-222.0402043521084
 21
813.2552293337674
 31
0.0
  0
LINE
  5
1D3
330
1F
100
AcDbEntity
  8
0-0
  6
JWW_DASHED1
 62
   120
370
     5
100
AcDbLine
 10
-275.4744702567514
 20
769.7204583642865
 30
0.0
 11
-231.939699287277
 21
813.2552293337609
 31
0.0
  0
LINE
  5
1D4
330
1F
100
AcDbEntity
  8
0-0
  6
JWW_DASHED1
 62
   120
370
     5
100
AcDbLine
 10
-275.4744702567599
 20
779.6199532994939
 30
0.0
 11
-241.8391942224848
 21
813.2552293337694
 31
0.0
  0
LINE
  5
1D5
330
1F
100
AcDbEntity
  8
0-0
  6
JWW_DASHED1
 62
   120
370
     5
100
AcDbLine
 10
-275.4744702567523
 20
789.5194482347183
 30
0.0
 11
-251.7386891577063
 21
813.2552293337643
 31
0.0
  0
LINE
  5
1D6
330
1F
100
AcDbEntity
  8
0-0
  6
JWW_DASHED1
 62
   120
370
     5
100
AcDbLine
 10
-275.4744702567646
 20
799.4189431698678
 30
0.0
 11
-261.6381840928569
 21
813.255229333775
 31
0.0
  0
LINE
  5
1D7
330
1F
100
AcDbEntity
  8
0-0
  6
JWW_DASHED1
 62
   120
370
     5
100
AcDbLine
 10
-275.4744702567574
 20
809.3184381050913
 30
0.0
 11
-271.537679028081
 21
813.2552293337674
 31
0.0
  0
LINE
  5
1D8
330
1F
100
AcDbEntity
  8
0-0
  6
JWW_DASHED1
 62
   120
370
     5
100
AcDbLine
 10
320.1880764459838
 20
-431.7447706662297
 30
0.0
 11
325.5255297432251
 21
-426.4073173689884
 31
0.0
  0
LINE
  5
1D9
330
1F
100
AcDbEntity
  8
0-0
  6
JWW_DASHED1
 62
   120
370
     5
100
AcDbLine
 10
310.2885815107607
 20
-431.7447706662365
 30
0.0
 11
325.5255297432332
 21
-416.5078224337644
 31
0.0
  0
LINE
  5
1DA
330
1F
100
AcDbEntity
  8
0-0
  6
JWW_DASHED1
 62
   120
370
     5
100
AcDbLine
 10
300.3890865755537
 20
-431.744770666228
 30
0.0
 11
325.5255297432246
 21
-406.608327498557
 31
0.0
  0
LINE
  5
1DB
330
1F
100
AcDbEntity
  8
0-0
  6
JWW_DASHED1
 62
   120
370
     5
100
AcDbLine
 10
290.4895916403855
 20
-431.7447706662335
 30
0.0
 11
325.5255297432273
 21
-396.7088325633922
 31
0.0
  0
LINE
  5
1DC
330
1F
100
AcDbEntity
  8
0-0
  6
JWW_DASHED1
 62
   120
370
     5
100
AcDbLine
 10
280.5900967051649
 20
-431.7447706662382
 30
0.0
 11
325.5255297432349
 21
-386.8093376281682
 31
0.0
  0
LINE
  5
1DD
330
1F
100
AcDbEntity
  8
0-0
  6
JWW_DASHED1
 62
   120
370
     5
100
AcDbLine
 10
270.6906017700159
 20
-431.7447706662255
 30
0.0
 11
325.5255297432229
 21
-376.9098426930184
 31
0.0
  0
LINE
  5
1DE
330
1F
100
AcDbEntity
  8
0-0
  6
JWW_DASHED1
 62
   120
370
     5
100
AcDbLine
 10
260.7911068347872
 20
-431.7447706662378
 30
0.0
 11
325.5255297432298
 21
-367.0103477577952
 31
0.0
  0
LINE
  5
1DF
330
1F
100
AcDbEntity
  8
0-0
  6
JWW_DASHED1
 62
   120
370
     5
100
AcDbLine
 10
250.8916118995683
 20
-431.7447706662399
 30
0.0
 11
325.525529743237
 21
-357.1108528225716
 31
0.0
  0
LINE
  5
1E0
330
1F
100
AcDbEntity
  8
0-0
  6
JWW_DASHED1
 62
   120
370
     5
100
AcDbLine
 10
240.9921169644197
 20
-431.7447706662272
 30
0.0
 11
325.5255297432255
 21
-347.2113578874213
 31
0.0
  0
LINE
  5
1E1
330
1F
100
AcDbEntity
  8
0-0
  6
JWW_DASHED1
 62
   120
370
     5
100
AcDbLine
 10
231.0926220292119
 20
-431.744770666219
 30
0.0
 11
325.525529743217
 21
-337.3118629522131
 31
0.0
  0
LINE
  5
1E2
330
1F
100
AcDbEntity
  8
0-0
  6
JWW_DASHED1
 62
   120
370
     5
100
AcDbLine
 10
221.1931270939806
 20
-431.7447706662335
 30
0.0
 11
325.5255297432234
 21
-327.4123680169907
 31
0.0
  0
LINE
  5
1E3
330
1F
100
AcDbEntity
  8
0-0
  6
JWW_DASHED1
 62
   120
370
     5
100
AcDbLine
 10
211.2936321588235
 20
-431.7447706662289
 30
0.0
 11
325.525529743228
 21
-317.5128730818243
 31
0.0
  0
LINE
  5
1E4
330
1F
100
AcDbEntity
  8
0-0
  6
JWW_DASHED1
 62
   120
370
     5
100
AcDbLine
 10
201.3941372236157
 20
-431.7447706662203
 30
0.0
 11
325.5255297432195
 21
-307.6133781466165
 31
0.0
  0
LINE
  5
1E5
330
1F
100
AcDbEntity
  8
0-0
  6
JWW_DASHED1
 62
   120
370
     5
100
AcDbLine
 10
191.4946422883823
 20
-431.7447706662374
 30
0.0
 11
325.5255297432255
 21
-297.7138832113941
 31
0.0
  0
LINE
  5
1E6
330
1F
100
AcDbEntity
  8
0-0
  6
JWW_DASHED1
 62
   120
370
     5
100
AcDbLine
 10
181.5951473532269
 20
-431.7447706662306
 30
0.0
 11
325.5255297432307
 21
-287.8143882762272
 31
0.0
  0
LINE
  5
1E7
330
1F
100
AcDbEntity
  8
0-0
  6
JWW_DASHED1
 62
   120
370
     5
100
AcDbLine
 10
171.6956524180195
 20
-431.7447706662221
 30
0.0
 11
325.5255297432221
 21
-277.9148933410194
 31
0.0
  0
LINE
  5
1E8
330
1F
100
AcDbEntity
  8
0-0
  6
JWW_DASHED1
 62
   120
370
     5
100
AcDbLine
 10
161.7961574827839
 20
-431.7447706662412
 30
0.0
 11
325.5255297432277
 21
-268.0153984057975
 31
0.0
  0
LINE
  5
1E9
330
1F
100
AcDbEntity
  8
0-0
  6
JWW_DASHED1
 62
   120
370
     5
100
AcDbLine
 10
151.8966625476311
 20
-431.7447706662327
 30
0.0
 11
325.5255297432332
 21
-258.1159034706302
 31
0.0
  0
LINE
  5
1EA
330
1F
100
AcDbEntity
  8
0-0
  6
JWW_DASHED1
 62
   120
370
     5
100
AcDbLine
 10
141.9971676124233
 20
-431.7447706662238
 30
0.0
 11
325.5255297432246
 21
-248.2164085354223
 31
0.0
  0
LINE
  5
1EB
330
1F
100
AcDbEntity
  8
0-0
  6
JWW_DASHED1
 62
   120
370
     5
100
AcDbLine
 10
132.0976726772014
 20
-431.7447706662293
 30
0.0
 11
325.5255297432166
 21
-238.3169136002141
 31
0.0
  0
LINE
  5
1EC
330
1F
100
AcDbEntity
  8
0-0
  6
JWW_DASHED1
 62
   120
370
     5
100
AcDbLine
 10
122.1981777420349
 20
-431.744770666234
 30
0.0
 11
325.5255297432332
 21
-228.4174186650357
 31
0.0
  0
LINE
  5
1ED
330
1F
100
AcDbEntity
  8
0-0
  6
JWW_DASHED1
 62
   120
370
     5
100
AcDbLine
 10
112.2986828068271
 20
-431.7447706662255
 30
0.0
 11
325.5255297432273
 21
-218.5179237298249
 31
0.0
  0
LINE
  5
1EE
330
1F
100
AcDbEntity
  8
0-0
  6
JWW_DASHED1
 62
   120
370
     5
100
AcDbLine
 10
106.0255297432145
 20
-428.1184287946212
 30
0.0
 11
325.5255297432191
 21
-208.618428794617
 31
0.0
  0
LINE
  5
1EF
330
1F
100
AcDbEntity
  8
0-0
  6
JWW_DASHED1
 62
   120
370
     5
100
AcDbLine
 10
106.0255297432333
 20
-418.2189338594411
 30
0.0
 11
325.5255297432349
 21
-198.7189338594391
 31
0.0
  0
LINE
  5
1F0
330
1F
100
AcDbEntity
  8
0-0
  6
JWW_DASHED1
 62
   120
370
     5
100
AcDbLine
 10
106.0255297432256
 20
-408.3194389242324
 30
0.0
 11
325.5255297432298
 21
-188.8194389242283
 31
0.0
  0
LINE
  5
1F1
330
1F
100
AcDbEntity
  8
0-0
  6
JWW_DASHED1
 62
   120
370
     5
100
AcDbLine
 10
106.025529743229
 20
-398.4199439890672
 30
0.0
 11
325.5255297432174
 21
-178.9199439890788
 31
0.0
  0
LINE
  5
1F2
330
1F
100
AcDbEntity
  8
0-0
  6
JWW_DASHED1
 62
   120
370
     5
100
AcDbLine
 10
106.0255297432354
 20
-388.520449053844
 30
0.0
 11
325.5255297432212
 21
-169.0204490538582
 31
0.0
  0
LINE
  5
1F3
330
1F
100
AcDbEntity
  8
0-0
  6
JWW_DASHED1
 62
   120
370
     5
100
AcDbLine
 10
106.0255297432282
 20
-378.6209541186354
 30
0.0
 11
325.5255297432324
 21
-159.1209541186312
 31
0.0
  0
LINE
  5
1F4
330
1F
100
AcDbEntity
  8
0-0
  6
JWW_DASHED1
 62
   120
370
     5
100
AcDbLine
 10
106.0255297432154
 20
-368.7214591834863
 30
0.0
 11
325.5255297432195
 21
-149.2214591834822
 31
0.0
  0
LINE
  5
1F5
330
1F
100
AcDbEntity
  8
0-0
  6
JWW_DASHED1
 62
   120
370
     5
100
AcDbLine
 10
106.025529743238
 20
-358.8219642482474
 30
0.0
 11
325.5255297432238
 21
-139.3219642482616
 31
0.0
  0
LINE
  5
1F6
330
1F
100
AcDbEntity
  8
0-0
  6
JWW_DASHED1
 62
   120
370
     5
100
AcDbLine
 10
106.0255297432312
 20
-348.9224693130383
 30
0.0
 11
325.5255297432349
 21
-129.4224693130342
 31
0.0
  0
LINE
  5
1F7
330
1F
100
AcDbEntity
  8
0-0
  6
JWW_DASHED1
 62
   120
370
     5
100
AcDbLine
 10
106.025529743218
 20
-339.0229743778893
 30
0.0
 11
325.5255297432221
 21
-119.5229743778847
 31
0.0
  0
LINE
  5
1F8
330
1F
100
AcDbEntity
  8
0-0
  6
JWW_DASHED1
 62
   120
370
     5
100
AcDbLine
 10
106.0255297432401
 20
-329.1234794426512
 30
0.0
 11
325.5255297432255
 21
-109.623479442665
 31
0.0
  0
LINE
  5
1F9
330
1F
100
AcDbEntity
  8
0-0
  6
JWW_DASHED1
 62
   120
370
     5
100
AcDbLine
 10
106.0255297432316
 20
-319.223984507443
 30
0.0
 11
325.5255297432332
 21
-99.72398450744137
 31
0.0
  0
LINE
  5
1FA
330
1F
100
AcDbEntity
  8
0-0
  6
JWW_DASHED1
 62
   120
370
     5
100
AcDbLine
 10
106.0255297432205
 20
-309.3244895722922
 30
0.0
 11
325.5255297432246
 21
-89.82448957228812
 31
0.0
  0
LINE
  5
1FB
330
1F
100
AcDbEntity
  8
0-0
  6
JWW_DASHED1
 62
   120
370
     5
100
AcDbLine
 10
106.0255297432282
 20
-299.4249946370683
 30
0.0
 11
325.5255297432166
 21
-79.92499463707986
 31
0.0
  0
LINE
  5
1FC
330
1F
100
AcDbEntity
  8
0-0
  6
JWW_DASHED1
 62
   120
370
     5
100
AcDbLine
 10
106.0255297432337
 20
-289.5254997018468
 30
0.0
 11
325.5255297432358
 21
-70.02549970184475
 31
0.0
  0
LINE
  5
1FD
330
1F
100
AcDbEntity
  8
0-0
  6
JWW_DASHED1
 62
   120
370
     5
100
AcDbLine
 10
106.0255297432231
 20
-279.6260047666952
 30
0.0
 11
325.5255297432273
 21
-60.12600476669107
 31
0.0
  0
LINE
  5
1FE
330
1F
100
AcDbEntity
  8
0-0
  6
JWW_DASHED1
 62
   120
370
     5
100
AcDbLine
 10
106.0255297432145
 20
-269.726509831487
 30
0.0
 11
325.5255297432191
 21
-50.22650983148282
 31
0.0
  0
LINE
  5
1FF
330
1F
100
AcDbEntity
  8
0-0
  6
JWW_DASHED1
 62
   120
370
     5
100
AcDbLine
 10
106.0255297432359
 20
-259.8270148962497
 30
0.0
 11
325.5255297432221
 21
-40.3270148962639
 31
0.0
  0
LINE
  5
200
330
1F
100
AcDbEntity
  8
0-0
  6
JWW_DASHED1
 62
   120
370
     5
100
AcDbLine
 10
106.0255297432256
 20
-249.9275199610982
 30
0.0
 11
325.5255297432298
 21
-30.42751996109359
 31
0.0
  0
LINE
  5
201
330
1F
100
AcDbEntity
  8
0-0
  6
JWW_DASHED1
 62
   120
370
     5
100
AcDbLine
 10
106.0255297432175
 20
-240.0280250258903
 30
0.0
 11
325.5255297432221
 21
-20.52802502588577
 31
0.0
  0
LINE
  5
202
330
1F
100
AcDbEntity
  8
0-0
  6
JWW_DASHED1
 62
   120
370
     5
100
AcDbLine
 10
106.025529743238
 20
-230.1285300906527
 30
0.0
 11
325.5255297432238
 21
-10.62853009066728
 31
0.0
  0
LINE
  5
203
330
1F
100
AcDbEntity
  8
0-0
  6
JWW_DASHED1
 62
   120
370
     5
100
AcDbLine
 10
106.0255297432282
 20
-220.2290351555011
 30
0.0
 11
325.5255297432324
 21
-0.7290351554969732
 31
0.0
  0
LINE
  5
204
330
1F
100
AcDbEntity
  8
0-0
  6
JWW_DASHED1
 62
   120
370
     5
100
AcDbLine
 10
106.0255297432197
 20
-210.3295402202933
 30
0.0
 11
325.5255297432242
 21
9.17045977971128
 31
0.0
  0
LINE
  5
205
330
1F
100
AcDbEntity
  8
0-0
  6
JWW_DASHED1
 62
   120
370
     5
100
AcDbLine
 10
106.0255297432401
 20
-200.4300452850569
 30
0.0
 11
325.5255297432259
 21
19.06995471492934
 31
0.0
  0
LINE
  5
206
330
1F
100
AcDbEntity
  8
0-0
  6
JWW_DASHED1
 62
   120
370
     5
100
AcDbLine
 10
106.0255297432312
 20
-190.5305503499041
 30
0.0
 11
325.5255297432349
 21
28.96944965010007
 31
0.0
  0
LINE
  5
207
330
1F
100
AcDbEntity
  8
0-0
  6
JWW_DASHED1
 62
   120
370
     5
100
AcDbLine
 10
106.0255297432222
 20
-180.6310554146958
 30
0.0
 11
325.5255297432268
 21
38.86894458530833
 31
0.0
  0
LINE
  5
208
330
1F
100
AcDbEntity
  8
0-0
  6
JWW_DASHED1
 62
   120
370
     5
100
AcDbLine
 10
106.0255297432299
 20
-170.7315604794722
 30
0.0
 11
325.5255297432183
 21
48.76843952051658
 31
0.0
  0
LINE
  5
209
330
1F
100
AcDbEntity
  8
0-0
  6
JWW_DASHED1
 62
   120
370
     5
100
AcDbLine
 10
106.0255297432299
 20
-160.8320655443104
 30
0.0
 11
325.5255297432315
 21
58.66793445569115
 31
0.0
  0
LINE
  5
20A
330
1F
100
AcDbEntity
  8
0-0
  6
JWW_DASHED1
 62
   120
370
     5
100
AcDbLine
 10
106.0255297432248
 20
-150.9325706090988
 30
0.0
 11
325.5255297432294
 21
68.56742939090537
 31
0.0
  0
LINE
  5
20B
330
1F
100
AcDbEntity
  8
0-0
  6
JWW_DASHED1
 62
   120
370
     5
100
AcDbLine
 10
106.0255297432171
 20
-141.0330756738909
 30
0.0
 11
325.5255297432212
 21
78.46692432611363
 31
0.0
  0
LINE
  5
20C
330
1F
100
AcDbEntity
  8
0-0
  6
JWW_DASHED1
 62
   120
370
     5
100
AcDbLine
 10
106.0255297432316
 20
-131.1335807387138
 30
0.0
 11
325.5255297432332
 21
88.36641926128735
 31
0.0
  0
LINE
  5
20D
330
1F
100
AcDbEntity
  8
0-0
  6
JWW_DASHED1
 62
   120
370
     5
100
AcDbLine
 10
106.0255297432273
 20
-121.2340858035022
 30
0.0
 11
325.5255297432319
 21
98.265914196502
 31
0.0
  0
LINE
  5
20E
330
1F
100
AcDbEntity
  8
0-0
  6
JWW_DASHED1
 62
   120
370
     5
100
AcDbLine
 10
106.0255297432192
 20
-111.3345908682939
 30
0.0
 11
325.5255297432238
 21
108.1654091317107
 31
0.0
  0
LINE
  5
20F
330
1F
100
AcDbEntity
  8
0-0
  6
JWW_DASHED1
 62
   120
370
     5
100
AcDbLine
 10
106.0255297432342
 20
-101.4350959331172
 30
0.0
 11
325.5255297432195
 21
118.0649040668686
 31
0.0
  0
LINE
  5
210
330
1F
100
AcDbEntity
  8
0-0
  6
JWW_DASHED1
 62
   120
370
     5
100
AcDbLine
 10
106.0255297432299
 20
-91.5356009979051
 30
0.0
 11
325.5255297432341
 21
127.9643990020995
 31
0.0
  0
LINE
  5
211
330
1F
100
AcDbEntity
  8
0-0
  6
JWW_DASHED1
 62
   120
370
     5
100
AcDbLine
 10
106.0255297432218
 20
-81.63610606269685
 30
0.0
 11
325.5255297432259
 21
137.8638939373077
 31
0.0
  0
LINE
  5
212
330
1F
100
AcDbEntity
  8
0-0
  6
JWW_DASHED1
 62
   120
370
     5
100
AcDbLine
 10
106.0255297432359
 20
-71.73661112752058
 30
0.0
 11
325.5255297432221
 21
147.7633888724652
 31
0.0
  0
LINE
  5
213
330
1F
100
AcDbEntity
  8
0-0
  6
JWW_DASHED1
 62
   120
370
     5
100
AcDbLine
 10
106.0255297432278
 20
-61.83711619231275
 30
0.0
 11
325.5255297432294
 21
157.6628838076888
 31
0.0
  0
LINE
  5
214
330
1F
100
AcDbEntity
  8
0-0
  6
JWW_DASHED1
 62
   120
370
     5
100
AcDbLine
 10
106.0255297432244
 20
-51.93762125709981
 30
0.0
 11
325.525529743229
 21
167.5623787429043
 31
0.0
  0
LINE
  5
215
330
1F
100
AcDbEntity
  8
0-0
  6
JWW_DASHED1
 62
   120
370
     5
100
AcDbLine
 10
106.0255297432384
 20
-42.03812632192395
 30
0.0
 11
325.5255297432238
 21
177.4618736780619
 31
0.0
  0
LINE
  5
216
330
1F
100
AcDbEntity
  8
0-0
  6
JWW_DASHED1
 62
   120
370
     5
100
AcDbLine
 10
106.0255297432299
 20
-32.13863138671613
 30
0.0
 11
325.5255297432315
 21
187.3613686132855
 31
0.0
  0
LINE
  5
217
330
1F
100
AcDbEntity
  8
0-0
  6
JWW_DASHED1
 62
   120
370
     5
100
AcDbLine
 10
106.0255297432265
 20
-22.23913645150361
 30
0.0
 11
325.5255297432311
 21
197.2608635485014
 31
0.0
  0
LINE
  5
218
330
1F
100
AcDbEntity
  8
0-0
  6
JWW_DASHED1
 62
   120
370
     5
100
AcDbLine
 10
106.0255297432299
 20
-12.33964151633799
 30
0.0
 11
325.5255297432183
 21
207.1603584836508
 31
0.0
  0
LINE
  5
219
330
1F
100
AcDbEntity
  8
0-0
  6
JWW_DASHED1
 62
   120
370
     5
100
AcDbLine
 10
106.025529743232
 20
-2.440146581119507
 30
0.0
 11
325.5255297432178
 21
217.0598534188663
 31
0.0
  0
LINE
  5
21A
330
1F
100
AcDbEntity
  8
0-0
  6
JWW_DASHED1
 62
   120
370
     5
100
AcDbLine
 10
106.025529743229
 20
7.459348354093862
 30
0.0
 11
325.5255297432336
 21
226.9593483540984
 31
0.0
  0
LINE
  5
21B
330
1F
100
AcDbEntity
  8
0-0
  6
JWW_DASHED1
 62
   120
370
     5
100
AcDbLine
 10
106.0255297432171
 20
17.35884328924328
 30
0.0
 11
325.5255297432212
 21
236.8588432892479
 31
0.0
  0
LINE
  5
21C
330
1F
100
AcDbEntity
  8
0-0
  6
JWW_DASHED1
 62
   120
370
     5
100
AcDbLine
 10
106.0255297432342
 20
27.25833822447711
 30
0.0
 11
325.52552974322
 21
246.7583382244629
 31
0.0
  0
LINE
  5
21D
330
1F
100
AcDbEntity
  8
0-0
  6
JWW_DASHED1
 62
   120
370
     5
100
AcDbLine
 10
106.0255297432316
 20
37.15783315969091
 30
0.0
 11
325.5255297432362
 21
256.6578331596955
 31
0.0
  0
LINE
  5
21E
330
1F
100
AcDbEntity
  8
0-0
  6
JWW_DASHED1
 62
   120
370
     5
100
AcDbLine
 10
106.0255297432192
 20
47.05732809484033
 30
0.0
 11
325.5255297432238
 21
266.5573280948449
 31
0.0
  0
LINE
  5
21F
330
1F
100
AcDbEntity
  8
0-0
  6
JWW_DASHED1
 62
   120
370
     5
100
AcDbLine
 10
106.0255297432363
 20
56.95682303007374
 30
0.0
 11
325.5255297432221
 21
276.4568230300596
 31
0.0
  0
LINE
  5
220
330
1F
100
AcDbEntity
  8
0-0
  6
JWW_DASHED1
 62
   120
370
     5
100
AcDbLine
 10
106.0255297432278
 20
66.85631796528199
 30
0.0
 11
325.5255297432294
 21
286.3563179652836
 31
0.0
  0
LINE
  5
221
330
1F
100
AcDbEntity
  8
0-0
  6
JWW_DASHED1
 62
   120
370
     5
100
AcDbLine
 10
106.0255297432218
 20
76.75581290043738
 30
0.0
 11
325.5255297432263
 21
296.2558129004419
 31
0.0
  0
LINE
  5
222
330
1F
100
AcDbEntity
  8
0-0
  6
JWW_DASHED1
 62
   120
370
     5
100
AcDbLine
 10
106.0255297432384
 20
86.65530783567036
 30
0.0
 11
325.5255297432242
 21
306.1553078356562
 31
0.0
  0
LINE
  5
223
330
1F
100
AcDbEntity
  8
0-0
  6
JWW_DASHED1
 62
   120
370
     5
100
AcDbLine
 10
106.0255297432282
 20
96.5548027708492
 30
0.0
 11
325.5255297432298
 21
316.0548027708508
 31
0.0
  0
LINE
  5
224
330
1F
100
AcDbEntity
  8
0-0
  6
JWW_DASHED1
 62
   120
370
     5
100
AcDbLine
 10
106.0255297432244
 20
106.4542977060344
 30
0.0
 11
325.5255297432294
 21
325.9542977060386
 31
0.0
  0
LINE
  5
225
330
1F
100
AcDbEntity
  8
0-0
  6
JWW_DASHED1
 62
   120
370
     5
100
AcDbLine
 10
106.0255297432316
 20
116.3537926412585
 30
0.0
 11
325.5255297432204
 21
335.8537926412469
 31
0.0
  0
LINE
  5
226
330
1F
100
AcDbEntity
  8
0-0
  6
JWW_DASHED1
 62
   120
370
     5
100
AcDbLine
 10
106.0255297432299
 20
126.2532875764458
 30
0.0
 11
325.5255297432319
 21
345.753287576447
 31
0.0
  0
LINE
  5
227
330
1F
100
AcDbEntity
  8
0-0
  6
JWW_DASHED1
 62
   120
370
     5
100
AcDbLine
 10
106.0255297432269
 20
136.152782511631
 30
0.0
 11
325.5255297432311
 21
355.6527825116356
 31
0.0
  0
LINE
  5
228
330
1F
100
AcDbEntity
  8
0-0
  6
JWW_DASHED1
 62
   120
370
     5
100
AcDbLine
 10
106.0255297432184
 20
146.0522774468397
 30
0.0
 11
325.5255297432229
 21
365.5522774468438
 31
0.0
  0
LINE
  5
229
330
1F
100
AcDbEntity
  8
0-0
  6
JWW_DASHED1
 62
   120
370
     5
100
AcDbLine
 10
106.0255297432299
 20
155.951772382013
 30
0.0
 11
325.5255297432315
 21
375.4517723820142
 31
0.0
  0
LINE
  5
22A
330
1F
100
AcDbEntity
  8
0-0
  6
JWW_DASHED1
 62
   120
370
     5
100
AcDbLine
 10
106.0255297432295
 20
165.8512673172285
 30
0.0
 11
325.5255297432336
 21
385.3512673172327
 31
0.0
  0
LINE
  5
22B
330
1F
100
AcDbEntity
  8
0-0
  6
JWW_DASHED1
 62
   120
370
     5
100
AcDbLine
 10
106.0255297432214
 20
175.7507622524368
 30
0.0
 11
325.5255297432255
 21
395.2507622524409
 31
0.0
  0
LINE
  5
22C
330
1F
100
AcDbEntity
  8
0-0
  6
JWW_DASHED1
 62
   120
370
     5
100
AcDbLine
 10
106.025529743232
 20
185.6502571876096
 30
0.0
 11
325.5255297432178
 21
405.150257187595
 31
0.0
  0
LINE
  5
22D
330
1F
100
AcDbEntity
  8
0-0
  6
JWW_DASHED1
 62
   120
370
     5
100
AcDbLine
 10
106.0255297432316
 20
195.5497521228256
 30
0.0
 11
325.5255297432362
 21
415.0497521228297
 31
0.0
  0
LINE
  5
22E
330
1F
100
AcDbEntity
  8
0-0
  6
JWW_DASHED1
 62
   120
370
     5
100
AcDbLine
 10
106.0255297432239
 20
205.4492470580334
 30
0.0
 11
325.525529743228
 21
424.9492470580379
 31
0.0
  0
LINE
  5
22F
330
1F
100
AcDbEntity
  8
0-0
  6
JWW_DASHED1
 62
   120
370
     5
100
AcDbLine
 10
106.0255297432346
 20
215.3487419932063
 30
0.0
 11
325.5255297432204
 21
434.8487419931917
 31
0.0
  0
LINE
  5
230
330
1F
100
AcDbEntity
  8
0-0
  6
JWW_DASHED1
 62
   120
370
     5
100
AcDbLine
 10
106.0255297432261
 20
225.2482369284141
 30
0.0
 11
325.5255297432277
 21
444.7482369284157
 31
0.0
  0
LINE
  5
231
330
1F
100
AcDbEntity
  8
0-0
  6
JWW_DASHED1
 62
   120
370
     5
100
AcDbLine
 10
106.0255297432261
 20
235.1477318636304
 30
0.0
 11
325.5255297432307
 21
454.647731863635
 31
0.0
  0
LINE
  5
232
330
1F
100
AcDbEntity
  8
0-0
  6
JWW_DASHED1
 62
   120
370
     5
100
AcDbLine
 10
106.0255297432367
 20
245.0472267988029
 30
0.0
 11
325.5255297432221
 21
464.5472267987883
 31
0.0
  0
LINE
  5
233
330
1F
100
AcDbEntity
  8
0-0
  6
JWW_DASHED1
 62
   120
370
     5
100
AcDbLine
 10
106.0255297432282
 20
254.9467217340107
 30
0.0
 11
325.5255297432298
 21
474.4467217340123
 31
0.0
  0
LINE
  5
234
330
1F
100
AcDbEntity
  8
0-0
  6
JWW_DASHED1
 62
   120
370
     5
100
AcDbLine
 10
106.0255297432286
 20
264.8462166692275
 30
0.0
 11
325.5255297432332
 21
484.346216669232
 31
0.0
  0
LINE
  5
235
330
1F
100
AcDbEntity
  8
0-0
  6
JWW_DASHED1
 62
   120
370
     5
100
AcDbLine
 10
106.025529743232
 20
274.7457116043927
 30
0.0
 11
325.5255297432204
 21
494.2457116043811
 31
0.0
  0
LINE
  5
236
330
1F
100
AcDbEntity
  8
0-0
  6
JWW_DASHED1
 62
   120
370
     5
100
AcDbLine
 10
106.0255297432307
 20
284.6452065396073
 30
0.0
 11
325.5255297432161
 21
504.1452065395931
 31
0.0
  0
LINE
  5
237
330
1F
100
AcDbEntity
  8
0-0
  6
JWW_DASHED1
 62
   120
370
     5
100
AcDbLine
 10
106.0255297432312
 20
294.5447014748245
 30
0.0
 11
325.5255297432358
 21
514.0447014748287
 31
0.0
  0
LINE
  5
238
330
1F
100
AcDbEntity
  8
0-0
  6
JWW_DASHED1
 62
   120
370
     5
100
AcDbLine
 10
106.0255297432188
 20
304.444196409974
 30
0.0
 11
325.5255297432229
 21
523.9441964099781
 31
0.0
  0
LINE
  5
239
330
1F
100
AcDbEntity
  8
0-0
  6
JWW_DASHED1
 62
   120
370
     5
100
AcDbLine
 10
106.0255297432325
 20
314.343691345204
 30
0.0
 11
325.5255297432183
 21
533.8436913451893
 31
0.0
  0
LINE
  5
23A
330
1F
100
AcDbEntity
  8
0-0
  6
JWW_DASHED1
 62
   120
370
     5
100
AcDbLine
 10
106.0255297432337
 20
324.2431862804211
 30
0.0
 11
325.5255297432383
 21
543.7431862804258
 31
0.0
  0
LINE
  5
23B
330
1F
100
AcDbEntity
  8
0-0
  6
JWW_DASHED1
 62
   120
370
     5
100
AcDbLine
 10
106.0255297432214
 20
334.142681215571
 30
0.0
 11
325.5255297432255
 21
553.6426812155747
 31
0.0
  0
LINE
  5
23C
330
1F
100
AcDbEntity
  8
0-0
  6
JWW_DASHED1
 62
   120
370
     5
100
AcDbLine
 10
106.0255297432346
 20
344.0421761508006
 30
0.0
 11
325.5255297432204
 21
563.5421761507864
 31
0.0
  0
LINE
  5
23D
330
1F
100
AcDbEntity
  8
0-0
  6
JWW_DASHED1
 62
   120
370
     5
100
AcDbLine
 10
106.0255297432265
 20
353.9416710860084
 30
0.0
 11
325.525529743228
 21
573.4416710860104
 31
0.0
  0
LINE
  5
23E
330
1F
100
AcDbEntity
  8
0-0
  6
JWW_DASHED1
 62
   120
370
     5
100
AcDbLine
 10
106.0255297432239
 20
363.8411660211681
 30
0.0
 11
325.525529743228
 21
583.3411660211722
 31
0.0
  0
LINE
  5
23F
330
1F
100
AcDbEntity
  8
0-0
  6
JWW_DASHED1
 62
   120
370
     5
100
AcDbLine
 10
106.0255297432367
 20
373.7406609563972
 30
0.0
 11
325.5255297432225
 21
593.240660956383
 31
0.0
  0
LINE
  5
240
330
1F
100
AcDbEntity
  8
0-0
  6
JWW_DASHED1
 62
   120
370
     5
100
AcDbLine
 10
106.0255297432282
 20
383.640155891605
 30
0.0
 11
325.5255297432298
 21
603.1401558916066
 31
0.0
  0
LINE
  5
241
330
1F
100
AcDbEntity
  8
0-0
  6
JWW_DASHED1
 62
   120
370
     5
100
AcDbLine
 10
106.0255297432265
 20
393.5396508267647
 30
0.0
 11
325.5255297432307
 21
613.0396508267693
 31
0.0
  0
LINE
  5
242
330
1F
100
AcDbEntity
  8
0-0
  6
JWW_DASHED1
 62
   120
370
     5
100
AcDbLine
 10
106.025529743218
 20
403.4391457619729
 30
0.0
 11
325.5255297432221
 21
622.9391457619771
 31
0.0
  0
LINE
  5
243
330
1F
100
AcDbEntity
  8
0-0
  6
JWW_DASHED1
 62
   120
370
     5
100
AcDbLine
 10
106.0255297432312
 20
413.3386406972021
 30
0.0
 11
325.5255297432166
 21
632.8386406971874
 31
0.0
  0
LINE
  5
244
330
1F
100
AcDbEntity
  8
0-0
  6
JWW_DASHED1
 62
   120
370
     5
100
AcDbLine
 10
106.0255297432286
 20
423.2381356323622
 30
0.0
 11
325.5255297432332
 21
642.7381356323663
 31
0.0
  0
LINE
  5
245
330
1F
100
AcDbEntity
  8
0-0
  6
JWW_DASHED1
 62
   120
370
     5
100
AcDbLine
 10
106.0255297432205
 20
433.1376305675695
 30
0.0
 11
325.5255297432246
 21
652.6376305675738
 31
0.0
  0
LINE
  5
246
330
1F
100
AcDbEntity
  8
0-0
  6
JWW_DASHED1
 62
   120
370
     5
100
AcDbLine
 10
106.0255297432329
 20
443.0371255027987
 30
0.0
 11
325.5255297432187
 21
662.5371255027836
 31
0.0
  0
LINE
  5
247
330
1F
100
AcDbEntity
  8
0-0
  6
JWW_DASHED1
 62
   120
370
     5
100
AcDbLine
 10
106.0255297432312
 20
452.9366204379588
 30
0.0
 11
325.5255297432358
 21
672.4366204379634
 31
0.0
  0
LINE
  5
248
330
1F
100
AcDbEntity
  8
0-0
  6
JWW_DASHED1
 62
   120
370
     5
100
AcDbLine
 10
106.0255297432231
 20
462.836115373167
 30
0.0
 11
325.5255297432273
 21
682.3361153731712
 31
0.0
  0
LINE
  5
249
330
1F
100
AcDbEntity
  8
0-0
  6
JWW_DASHED1
 62
   120
370
     5
100
AcDbLine
 10
106.025529743235
 20
472.7356103083953
 30
0.0
 11
325.5255297432208
 21
692.2356103083812
 31
0.0
  0
LINE
  5
24A
330
1F
100
AcDbEntity
  8
0-0
  6
JWW_DASHED1
 62
   120
370
     5
100
AcDbLine
 10
106.0255297432337
 20
482.6351052435554
 30
0.0
 11
325.5255297432383
 21
702.13510524356
 31
0.0
  0
LINE
  5
24B
330
1F
100
AcDbEntity
  8
0-0
  6
JWW_DASHED1
 62
   120
370
     5
100
AcDbLine
 10
106.0255297432256
 20
492.5346001787641
 30
0.0
 11
325.5255297432298
 21
712.0346001787682
 31
0.0
  0
LINE
  5
24C
330
1F
100
AcDbEntity
  8
0-0
  6
JWW_DASHED1
 62
   120
370
     5
100
AcDbLine
 10
106.0255297432333
 20
502.4340951139881
 30
0.0
 11
325.5255297432221
 21
721.9340951139765
 31
0.0
  0
LINE
  5
24D
330
1F
100
AcDbEntity
  8
0-0
  6
JWW_DASHED1
 62
   120
370
     5
100
AcDbLine
 10
106.0255297432244
 20
512.3335900491409
 30
0.0
 11
325.5255297432259
 21
731.8335900491425
 31
0.0
  0
LINE
  5
24E
330
1F
100
AcDbEntity
  8
0-0
  6
JWW_DASHED1
 62
   120
370
     5
100
AcDbLine
 10
106.0255297432282
 20
522.2330849843611
 30
0.0
 11
325.5255297432324
 21
741.7330849843648
 31
0.0
  0
LINE
  5
24F
330
1F
100
AcDbEntity
  8
0-0
  6
JWW_DASHED1
 62
   120
370
     5
100
AcDbLine
 10
106.0255297432201
 20
532.1325799195689
 30
0.0
 11
325.5255297432242
 21
751.6325799195736
 31
0.0
  0
LINE
  5
250
330
1F
100
AcDbEntity
  8
0-0
  6
JWW_DASHED1
 62
   120
370
     5
100
AcDbLine
 10
106.0255297432265
 20
542.0320748547372
 30
0.0
 11
325.525529743228
 21
761.5320748547391
 31
0.0
  0
LINE
  5
251
330
1F
100
AcDbEntity
  8
0-0
  6
JWW_DASHED1
 62
   120
370
     5
100
AcDbLine
 10
106.0255297432312
 20
551.9315697899582
 30
0.0
 11
325.5255297432349
 21
771.4315697899623
 31
0.0
  0
LINE
  5
252
330
1F
100
AcDbEntity
  8
0-0
  6
JWW_DASHED1
 62
   120
370
     5
100
AcDbLine
 10
106.0255297432222
 20
561.831064725166
 30
0.0
 11
325.5255297432268
 21
781.3310647251706
 31
0.0
  0
LINE
  5
253
330
1F
100
AcDbEntity
  8
0-0
  6
JWW_DASHED1
 62
   120
370
     5
100
AcDbLine
 10
106.0255297432286
 20
571.7305596603342
 30
0.0
 11
325.5255297432144
 21
791.23055966032
 31
0.0
  0
LINE
  5
254
330
1F
100
AcDbEntity
  8
0-0
  6
JWW_DASHED1
 62
   120
370
     5
100
AcDbLine
 10
106.0255297432333
 20
581.6300545955548
 30
0.0
 11
325.5255297432375
 21
801.1300545955594
 31
0.0
  0
LINE
  5
255
330
1F
100
AcDbEntity
  8
0-0
  6
JWW_DASHED1
 62
   120
370
     5
100
AcDbLine
 10
106.0255297432248
 20
591.529549530763
 30
0.0
 11
325.5255297432294
 21
811.0295495307676
 31
0.0
  0
LINE
  5
256
330
1F
100
AcDbEntity
  8
0-0
  6
JWW_DASHED1
 62
   120
370
     5
100
AcDbLine
 10
106.0255297432312
 20
601.4290444659308
 30
0.0
 11
317.8517146110792
 21
813.2552293337792
 31
0.0
  0
LINE
  5
257
330
1F
100
AcDbEntity
  8
0-0
  6
JWW_DASHED1
 62
   120
370
     5
100
AcDbLine
 10
106.0255297432359
 20
611.3285394011523
 30
0.0
 11
307.9522196758403
 21
813.2552293337567
 31
0.0
  0
LINE
  5
258
330
1F
100
AcDbEntity
  8
0-0
  6
JWW_DASHED1
 62
   120
370
     5
100
AcDbLine
 10
106.0255297432273
 20
621.2280343363597
 30
0.0
 11
298.0527247406325
 21
813.2552293337652
 31
0.0
  0
LINE
  5
259
330
1F
100
AcDbEntity
  8
0-0
  6
JWW_DASHED1
 62
   120
370
     5
100
AcDbLine
 10
106.0255297432329
 20
631.1275292715275
 30
0.0
 11
288.1532298054809
 21
813.255229333775
 31
0.0
  0
LINE
  5
25A
330
1F
100
AcDbEntity
  8
0-0
  6
JWW_DASHED1
 62
   120
370
     5
100
AcDbLine
 10
106.0255297432248
 20
641.0270242067352
 30
0.0
 11
278.2537348702598
 21
813.2552293337708
 31
0.0
  0
LINE
  5
25B
330
1F
100
AcDbEntity
  8
0-0
  6
JWW_DASHED1
 62
   120
370
     5
100
AcDbLine
 10
106.0255297432299
 20
650.9265191419571
 30
0.0
 11
268.3542399350363
 21
813.2552293337635
 31
0.0
  0
LINE
  5
25C
330
1F
100
AcDbEntity
  8
0-0
  6
JWW_DASHED1
 62
   120
370
     5
100
AcDbLine
 10
106.0255297432333
 20
660.826014077122
 30
0.0
 11
258.454744999883
 21
813.2552293337716
 31
0.0
  0
LINE
  5
25D
330
1F
100
AcDbEntity
  8
0-0
  6
JWW_DASHED1
 62
   120
370
     5
100
AcDbLine
 10
106.0255297432269
 20
670.7255090123315
 30
0.0
 11
248.5552500646743
 21
813.2552293337792
 31
0.0
  0
LINE
  5
25E
330
1F
100
AcDbEntity
  8
0-0
  6
JWW_DASHED1
 62
   120
370
     5
100
AcDbLine
 10
106.0255297432325
 20
680.6250039475542
 30
0.0
 11
238.6557551294401
 21
813.2552293337613
 31
0.0
  0
LINE
  5
25F
330
1F
100
AcDbEntity
  8
0-0
  6
JWW_DASHED1
 62
   120
370
     5
100
AcDbLine
 10
106.0255297432197
 20
690.5244988827031
 30
0.0
 11
228.7562601942911
 21
813.2552293337745
 31
0.0
  0
LINE
  5
260
330
1F
100
AcDbEntity
  8
0-0
  6
JWW_DASHED1
 62
   120
370
     5
100
AcDbLine
 10
106.025529743229
 20
700.4239938179289
 30
0.0
 11
218.8567652590756
 21
813.255229333775
 31
0.0
  0
LINE
  5
261
330
1F
100
AcDbEntity
  8
0-0
  6
JWW_DASHED1
 62
   120
370
     5
100
AcDbLine
 10
106.025529743235
 20
710.3234887531512
 30
0.0
 11
208.9572703238439
 21
813.2552293337601
 31
0.0
  0
LINE
  5
262
330
1F
100
AcDbEntity
  8
0-0
  6
JWW_DASHED1
 62
   120
370
     5
100
AcDbLine
 10
106.0255297432226
 20
720.2229836883002
 30
0.0
 11
199.0577753886949
 21
813.2552293337728
 31
0.0
  0
LINE
  5
263
330
1F
100
AcDbEntity
  8
0-0
  6
JWW_DASHED1
 62
   120
370
     5
100
AcDbLine
 10
106.0255297432312
 20
730.1224786235255
 30
0.0
 11
189.1582804534781
 21
813.255229333772
 31
0.0
  0
LINE
  5
264
330
1F
100
AcDbEntity
  8
0-0
  6
JWW_DASHED1
 62
   120
370
     5
100
AcDbLine
 10
106.0255297432333
 20
740.0219735586894
 30
0.0
 11
179.2587855183065
 21
813.2552293337626
 31
0.0
  0
LINE
  5
265
330
1F
100
AcDbEntity
  8
0-0
  6
JWW_DASHED1
 62
   120
370
     5
100
AcDbLine
 10
106.0255297432248
 20
749.9214684938972
 30
0.0
 11
169.3592905830987
 21
813.2552293337711
 31
0.0
  0
LINE
  5
266
330
1F
100
AcDbEntity
  8
0-0
  6
JWW_DASHED1
 62
   120
370
     5
100
AcDbLine
 10
106.0255297432333
 20
759.8209634291221
 30
0.0
 11
159.4597956478789
 21
813.2552293337674
 31
0.0
  0
LINE
  5
267
330
1F
100
AcDbEntity
  8
0-0
  6
JWW_DASHED1
 62
   120
370
     5
100
AcDbLine
 10
106.0255297432359
 20
769.7204583642865
 30
0.0
 11
149.5603007127103
 21
813.2552293337609
 31
0.0
  0
LINE
  5
268
330
1F
100
AcDbEntity
  8
0-0
  6
JWW_DASHED1
 62
   120
370
     5
100
AcDbLine
 10
106.0255297432273
 20
779.6199532994939
 30
0.0
 11
139.6608057775025
 21
813.2552293337694
 31
0.0
  0
LINE
  5
269
330
1F
100
AcDbEntity
  8
0-0
  6
JWW_DASHED1
 62
   120
370
     5
100
AcDbLine
 10
106.025529743235
 20
789.5194482347183
 30
0.0
 11
129.761310842281
 21
813.2552293337643
 31
0.0
  0
LINE
  5
26A
330
1F
100
AcDbEntity
  8
0-0
  6
JWW_DASHED1
 62
   120
370
     5
100
AcDbLine
 10
106.0255297432226
 20
799.4189431698678
 30
0.0
 11
119.8618159071303
 21
813.255229333775
 31
0.0
  0
LINE
  5
26B
330
1F
100
AcDbEntity
  8
0-0
  6
JWW_DASHED1
 62
   120
370
     5
100
AcDbLine
 10
106.0255297432299
 20
809.3184381050913
 30
0.0
 11
109.9623209719063
 21
813.2552293337674
 31
0.0
  0
LINE
  5
26C
330
1F
100
AcDbEntity
  8
0-0
  6
JWW_DASHED1
 62
   120
370
     5
100
AcDbLine
 10
729.6880764460004
 20
-431.7447706662297
 30
0.0
 11
735.0255297432415
 21
-426.4073173689884
 31
0.0
  0
LINE
  5
26D
330
1F
100
AcDbEntity
  8
0-0
  6
JWW_DASHED1
 62
   120
370
     5
100
AcDbLine
 10
719.7885815107772
 20
-431.7447706662365
 30
0.0
 11
735.0255297432495
 21
-416.5078224337644
 31
0.0
  0
LINE
  5
26E
330
1F
100
AcDbEntity
  8
0-0
  6
JWW_DASHED1
 62
   120
370
     5
100
AcDbLine
 10
709.8890865755696
 20
-431.744770666228
 30
0.0
 11
735.025529743241
 21
-406.608327498557
 31
0.0
  0
LINE
  5
26F
330
1F
100
AcDbEntity
  8
0-0
  6
JWW_DASHED1
 62
   120
370
     5
100
AcDbLine
 10
699.9895916404018
 20
-431.7447706662335
 30
0.0
 11
735.0255297432439
 21
-396.7088325633922
 31
0.0
  0
LINE
  5
270
330
1F
100
AcDbEntity
  8
0-0
  6
JWW_DASHED1
 62
   120
370
     5
100
AcDbLine
 10
690.0900967051813
 20
-431.7447706662382
 30
0.0
 11
735.0255297432512
 21
-386.8093376281682
 31
0.0
  0
LINE
  5
271
330
1F
100
AcDbEntity
  8
0-0
  6
JWW_DASHED1
 62
   120
370
     5
100
AcDbLine
 10
680.1906017700322
 20
-431.7447706662255
 30
0.0
 11
735.0255297432393
 21
-376.9098426930184
 31
0.0
  0
LINE
  5
272
330
1F
100
AcDbEntity
  8
0-0
  6
JWW_DASHED1
 62
   120
370
     5
100
AcDbLine
 10
670.2911068348035
 20
-431.7447706662378
 30
0.0
 11
735.0255297432461
 21
-367.0103477577952
 31
0.0
  0
LINE
  5
273
330
1F
100
AcDbEntity
  8
0-0
  6
JWW_DASHED1
 62
   120
370
     5
100
AcDbLine
 10
660.3916118995849
 20
-431.7447706662399
 30
0.0
 11
735.0255297432536
 21
-357.1108528225716
 31
0.0
  0
LINE
  5
274
330
1F
100
AcDbEntity
  8
0-0
  6
JWW_DASHED1
 62
   120
370
     5
100
AcDbLine
 10
650.492116964436
 20
-431.7447706662272
 30
0.0
 11
735.0255297432419
 21
-347.2113578874213
 31
0.0
  0
LINE
  5
275
330
1F
100
AcDbEntity
  8
0-0
  6
JWW_DASHED1
 62
   120
370
     5
100
AcDbLine
 10
640.5926220292282
 20
-431.744770666219
 30
0.0
 11
735.0255297432334
 21
-337.3118629522131
 31
0.0
  0
LINE
  5
276
330
1F
100
AcDbEntity
  8
0-0
  6
JWW_DASHED1
 62
   120
370
     5
100
AcDbLine
 10
630.693127093997
 20
-431.7447706662335
 30
0.0
 11
735.02552974324
 21
-327.4123680169907
 31
0.0
  0
LINE
  5
277
330
1F
100
AcDbEntity
  8
0-0
  6
JWW_DASHED1
 62
   120
370
     5
100
AcDbLine
 10
620.7936321588398
 20
-431.7447706662289
 30
0.0
 11
735.0255297432444
 21
-317.5128730818243
 31
0.0
  0
LINE
  5
278
330
1F
100
AcDbEntity
  8
0-0
  6
JWW_DASHED1
 62
   120
370
     5
100
AcDbLine
 10
610.894137223632
 20
-431.7447706662203
 30
0.0
 11
735.0255297432359
 21
-307.6133781466165
 31
0.0
  0
LINE
  5
279
330
1F
100
AcDbEntity
  8
0-0
  6
JWW_DASHED1
 62
   120
370
     5
100
AcDbLine
 10
600.9946422883986
 20
-431.7447706662374
 30
0.0
 11
735.0255297432419
 21
-297.7138832113941
 31
0.0
  0
LINE
  5
27A
330
1F
100
AcDbEntity
  8
0-0
  6
JWW_DASHED1
 62
   120
370
     5
100
AcDbLine
 10
591.0951473532432
 20
-431.7447706662306
 30
0.0
 11
735.025529743247
 21
-287.8143882762272
 31
0.0
  0
LINE
  5
27B
330
1F
100
AcDbEntity
  8
0-0
  6
JWW_DASHED1
 62
   120
370
     5
100
AcDbLine
 10
581.1956524180358
 20
-431.7447706662221
 30
0.0
 11
735.0255297432385
 21
-277.9148933410194
 31
0.0
  0
LINE
  5
27C
330
1F
100
AcDbEntity
  8
0-0
  6
JWW_DASHED1
 62
   120
370
     5
100
AcDbLine
 10
571.2961574828003
 20
-431.7447706662412
 30
0.0
 11
735.0255297432441
 21
-268.0153984057975
 31
0.0
  0
LINE
  5
27D
330
1F
100
AcDbEntity
  8
0-0
  6
JWW_DASHED1
 62
   120
370
     5
100
AcDbLine
 10
561.3966625476475
 20
-431.7447706662327
 30
0.0
 11
735.0255297432495
 21
-258.1159034706302
 31
0.0
  0
LINE
  5
27E
330
1F
100
AcDbEntity
  8
0-0
  6
JWW_DASHED1
 62
   120
370
     5
100
AcDbLine
 10
551.4971676124396
 20
-431.7447706662238
 30
0.0
 11
735.025529743241
 21
-248.2164085354223
 31
0.0
  0
LINE
  5
27F
330
1F
100
AcDbEntity
  8
0-0
  6
JWW_DASHED1
 62
   120
370
     5
100
AcDbLine
 10
541.5976726772178
 20
-431.7447706662293
 30
0.0
 11
735.0255297432332
 21
-238.3169136002141
 31
0.0
  0
LINE
  5
280
330
1F
100
AcDbEntity
  8
0-0
  6
JWW_DASHED1
 62
   120
370
     5
100
AcDbLine
 10
531.6981777420513
 20
-431.744770666234
 30
0.0
 11
735.0255297432495
 21
-228.4174186650357
 31
0.0
  0
LINE
  5
281
330
1F
100
AcDbEntity
  8
0-0
  6
JWW_DASHED1
 62
   120
370
     5
100
AcDbLine
 10
521.7986828068434
 20
-431.7447706662255
 30
0.0
 11
735.0255297432439
 21
-218.5179237298249
 31
0.0
  0
LINE
  5
282
330
1F
100
AcDbEntity
  8
0-0
  6
JWW_DASHED1
 62
   120
370
     5
100
AcDbLine
 10
515.5255297432309
 20
-428.1184287946212
 30
0.0
 11
735.0255297432354
 21
-208.618428794617
 31
0.0
  0
LINE
  5
283
330
1F
100
AcDbEntity
  8
0-0
  6
JWW_DASHED1
 62
   120
370
     5
100
AcDbLine
 10
515.5255297432496
 20
-418.2189338594411
 30
0.0
 11
735.0255297432512
 21
-198.7189338594391
 31
0.0
  0
LINE
  5
284
330
1F
100
AcDbEntity
  8
0-0
  6
JWW_DASHED1
 62
   120
370
     5
100
AcDbLine
 10
515.525529743242
 20
-408.3194389242324
 30
0.0
 11
735.0255297432461
 21
-188.8194389242283
 31
0.0
  0
LINE
  5
285
330
1F
100
AcDbEntity
  8
0-0
  6
JWW_DASHED1
 62
   120
370
     5
100
AcDbLine
 10
515.5255297432454
 20
-398.4199439890672
 30
0.0
 11
735.0255297432338
 21
-178.9199439890788
 31
0.0
  0
LINE
  5
286
330
1F
100
AcDbEntity
  8
0-0
  6
JWW_DASHED1
 62
   120
370
     5
100
AcDbLine
 10
515.5255297432518
 20
-388.520449053844
 30
0.0
 11
735.0255297432376
 21
-169.0204490538582
 31
0.0
  0
LINE
  5
287
330
1F
100
AcDbEntity
  8
0-0
  6
JWW_DASHED1
 62
   120
370
     5
100
AcDbLine
 10
515.5255297432445
 20
-378.6209541186354
 30
0.0
 11
735.0255297432487
 21
-159.1209541186312
 31
0.0
  0
LINE
  5
288
330
1F
100
AcDbEntity
  8
0-0
  6
JWW_DASHED1
 62
   120
370
     5
100
AcDbLine
 10
515.5255297432318
 20
-368.7214591834863
 30
0.0
 11
735.0255297432359
 21
-149.2214591834822
 31
0.0
  0
LINE
  5
289
330
1F
100
AcDbEntity
  8
0-0
  6
JWW_DASHED1
 62
   120
370
     5
100
AcDbLine
 10
515.5255297432543
 20
-358.8219642482474
 30
0.0
 11
735.0255297432402
 21
-139.3219642482616
 31
0.0
  0
LINE
  5
28A
330
1F
100
AcDbEntity
  8
0-0
  6
JWW_DASHED1
 62
   120
370
     5
100
AcDbLine
 10
515.5255297432475
 20
-348.9224693130383
 30
0.0
 11
735.0255297432512
 21
-129.4224693130342
 31
0.0
  0
LINE
  5
28B
330
1F
100
AcDbEntity
  8
0-0
  6
JWW_DASHED1
 62
   120
370
     5
100
AcDbLine
 10
515.5255297432343
 20
-339.0229743778893
 30
0.0
 11
735.0255297432385
 21
-119.5229743778847
 31
0.0
  0
LINE
  5
28C
330
1F
100
AcDbEntity
  8
0-0
  6
JWW_DASHED1
 62
   120
370
     5
100
AcDbLine
 10
515.5255297432565
 20
-329.1234794426512
 30
0.0
 11
735.0255297432419
 21
-109.623479442665
 31
0.0
  0
LINE
  5
28D
330
1F
100
AcDbEntity
  8
0-0
  6
JWW_DASHED1
 62
   120
370
     5
100
AcDbLine
 10
515.525529743248
 20
-319.223984507443
 30
0.0
 11
735.0255297432495
 21
-99.72398450744137
 31
0.0
  0
LINE
  5
28E
330
1F
100
AcDbEntity
  8
0-0
  6
JWW_DASHED1
 62
   120
370
     5
100
AcDbLine
 10
515.5255297432369
 20
-309.3244895722922
 30
0.0
 11
735.025529743241
 21
-89.82448957228812
 31
0.0
  0
LINE
  5
28F
330
1F
100
AcDbEntity
  8
0-0
  6
JWW_DASHED1
 62
   120
370
     5
100
AcDbLine
 10
515.5255297432445
 20
-299.4249946370683
 30
0.0
 11
735.0255297432332
 21
-79.92499463707986
 31
0.0
  0
LINE
  5
290
330
1F
100
AcDbEntity
  8
0-0
  6
JWW_DASHED1
 62
   120
370
     5
100
AcDbLine
 10
515.5255297432501
 20
-289.5254997018468
 30
0.0
 11
735.0255297432517
 21
-70.02549970184475
 31
0.0
  0
LINE
  5
291
330
1F
100
AcDbEntity
  8
0-0
  6
JWW_DASHED1
 62
   120
370
     5
100
AcDbLine
 10
515.5255297432394
 20
-279.6260047666952
 30
0.0
 11
735.0255297432439
 21
-60.12600476669107
 31
0.0
  0
LINE
  5
292
330
1F
100
AcDbEntity
  8
0-0
  6
JWW_DASHED1
 62
   120
370
     5
100
AcDbLine
 10
515.5255297432309
 20
-269.726509831487
 30
0.0
 11
735.0255297432354
 21
-50.22650983148282
 31
0.0
  0
LINE
  5
293
330
1F
100
AcDbEntity
  8
0-0
  6
JWW_DASHED1
 62
   120
370
     5
100
AcDbLine
 10
515.5255297432523
 20
-259.8270148962497
 30
0.0
 11
735.025529743238
 21
-40.3270148962639
 31
0.0
  0
LINE
  5
294
330
1F
100
AcDbEntity
  8
0-0
  6
JWW_DASHED1
 62
   120
370
     5
100
AcDbLine
 10
515.525529743242
 20
-249.9275199610982
 30
0.0
 11
735.0255297432461
 21
-30.42751996109359
 31
0.0
  0
LINE
  5
295
330
1F
100
AcDbEntity
  8
0-0
  6
JWW_DASHED1
 62
   120
370
     5
100
AcDbLine
 10
515.5255297432338
 20
-240.0280250258903
 30
0.0
 11
735.025529743238
 21
-20.52802502588577
 31
0.0
  0
LINE
  5
296
330
1F
100
AcDbEntity
  8
0-0
  6
JWW_DASHED1
 62
   120
370
     5
100
AcDbLine
 10
515.5255297432543
 20
-230.1285300906527
 30
0.0
 11
735.0255297432402
 21
-10.62853009066728
 31
0.0
  0
LINE
  5
297
330
1F
100
AcDbEntity
  8
0-0
  6
JWW_DASHED1
 62
   120
370
     5
100
AcDbLine
 10
515.5255297432445
 20
-220.2290351555011
 30
0.0
 11
735.0255297432487
 21
-0.7290351554969732
 31
0.0
  0
LINE
  5
298
330
1F
100
AcDbEntity
  8
0-0
  6
JWW_DASHED1
 62
   120
370
     5
100
AcDbLine
 10
515.525529743236
 20
-210.3295402202933
 30
0.0
 11
735.0255297432407
 21
9.17045977971128
 31
0.0
  0
LINE
  5
299
330
1F
100
AcDbEntity
  8
0-0
  6
JWW_DASHED1
 62
   120
370
     5
100
AcDbLine
 10
515.5255297432565
 20
-200.4300452850569
 30
0.0
 11
735.0255297432423
 21
19.06995471492934
 31
0.0
  0
LINE
  5
29A
330
1F
100
AcDbEntity
  8
0-0
  6
JWW_DASHED1
 62
   120
370
     5
100
AcDbLine
 10
515.5255297432475
 20
-190.5305503499041
 30
0.0
 11
735.0255297432512
 21
28.96944965010007
 31
0.0
  0
LINE
  5
29B
330
1F
100
AcDbEntity
  8
0-0
  6
JWW_DASHED1
 62
   120
370
     5
100
AcDbLine
 10
515.5255297432386
 20
-180.6310554146958
 30
0.0
 11
735.0255297432434
 21
38.86894458530833
 31
0.0
  0
LINE
  5
29C
330
1F
100
AcDbEntity
  8
0-0
  6
JWW_DASHED1
 62
   120
370
     5
100
AcDbLine
 10
515.5255297432462
 20
-170.7315604794722
 30
0.0
 11
735.0255297432346
 21
48.76843952051658
 31
0.0
  0
LINE
  5
29D
330
1F
100
AcDbEntity
  8
0-0
  6
JWW_DASHED1
 62
   120
370
     5
100
AcDbLine
 10
515.5255297432462
 20
-160.8320655443104
 30
0.0
 11
735.0255297432478
 21
58.66793445569115
 31
0.0
  0
LINE
  5
29E
330
1F
100
AcDbEntity
  8
0-0
  6
JWW_DASHED1
 62
   120
370
     5
100
AcDbLine
 10
515.5255297432411
 20
-150.9325706090988
 30
0.0
 11
735.0255297432457
 21
68.56742939090537
 31
0.0
  0
LINE
  5
29F
330
1F
100
AcDbEntity
  8
0-0
  6
JWW_DASHED1
 62
   120
370
     5
100
AcDbLine
 10
515.5255297432335
 20
-141.0330756738909
 30
0.0
 11
735.0255297432376
 21
78.46692432611363
 31
0.0
  0
LINE
  5
2A0
330
1F
100
AcDbEntity
  8
0-0
  6
JWW_DASHED1
 62
   120
370
     5
100
AcDbLine
 10
515.525529743248
 20
-131.1335807387138
 30
0.0
 11
735.0255297432495
 21
88.36641926128735
 31
0.0
  0
LINE
  5
2A1
330
1F
100
AcDbEntity
  8
0-0
  6
JWW_DASHED1
 62
   120
370
     5
100
AcDbLine
 10
515.5255297432437
 20
-121.2340858035022
 30
0.0
 11
735.0255297432483
 21
98.265914196502
 31
0.0
  0
LINE
  5
2A2
330
1F
100
AcDbEntity
  8
0-0
  6
JWW_DASHED1
 62
   120
370
     5
100
AcDbLine
 10
515.5255297432357
 20
-111.3345908682939
 30
0.0
 11
735.0255297432402
 21
108.1654091317107
 31
0.0
  0
LINE
  5
2A3
330
1F
100
AcDbEntity
  8
0-0
  6
JWW_DASHED1
 62
   120
370
     5
100
AcDbLine
 10
515.5255297432506
 20
-101.4350959331172
 30
0.0
 11
735.0255297432359
 21
118.0649040668686
 31
0.0
  0
LINE
  5
2A4
330
1F
100
AcDbEntity
  8
0-0
  6
JWW_DASHED1
 62
   120
370
     5
100
AcDbLine
 10
515.5255297432462
 20
-91.5356009979051
 30
0.0
 11
735.0255297432507
 21
127.9643990020995
 31
0.0
  0
LINE
  5
2A5
330
1F
100
AcDbEntity
  8
0-0
  6
JWW_DASHED1
 62
   120
370
     5
100
AcDbLine
 10
515.5255297432382
 20
-81.63610606269685
 30
0.0
 11
735.0255297432423
 21
137.8638939373077
 31
0.0
  0
LINE
  5
2A6
330
1F
100
AcDbEntity
  8
0-0
  6
JWW_DASHED1
 62
   120
370
     5
100
AcDbLine
 10
515.5255297432523
 20
-71.73661112752058
 30
0.0
 11
735.025529743238
 21
147.7633888724652
 31
0.0
  0
LINE
  5
2A7
330
1F
100
AcDbEntity
  8
0-0
  6
JWW_DASHED1
 62
   120
370
     5
100
AcDbLine
 10
515.5255297432441
 20
-61.83711619231275
 30
0.0
 11
735.0255297432457
 21
157.6628838076888
 31
0.0
  0
LINE
  5
2A8
330
1F
100
AcDbEntity
  8
0-0
  6
JWW_DASHED1
 62
   120
370
     5
100
AcDbLine
 10
515.5255297432407
 20
-51.93762125709981
 30
0.0
 11
735.0255297432449
 21
167.5623787429043
 31
0.0
  0
LINE
  5
2A9
330
1F
100
AcDbEntity
  8
0-0
  6
JWW_DASHED1
 62
   120
370
     5
100
AcDbLine
 10
515.5255297432548
 20
-42.03812632192395
 30
0.0
 11
735.0255297432402
 21
177.4618736780619
 31
0.0
  0
LINE
  5
2AA
330
1F
100
AcDbEntity
  8
0-0
  6
JWW_DASHED1
 62
   120
370
     5
100
AcDbLine
 10
515.5255297432462
 20
-32.13863138671613
 30
0.0
 11
735.0255297432478
 21
187.3613686132855
 31
0.0
  0
LINE
  5
2AB
330
1F
100
AcDbEntity
  8
0-0
  6
JWW_DASHED1
 62
   120
370
     5
100
AcDbLine
 10
515.5255297432428
 20
-22.23913645150361
 30
0.0
 11
735.0255297432475
 21
197.2608635485014
 31
0.0
  0
LINE
  5
2AC
330
1F
100
AcDbEntity
  8
0-0
  6
JWW_DASHED1
 62
   120
370
     5
100
AcDbLine
 10
515.5255297432462
 20
-12.33964151633799
 30
0.0
 11
735.0255297432346
 21
207.1603584836508
 31
0.0
  0
LINE
  5
2AD
330
1F
100
AcDbEntity
  8
0-0
  6
JWW_DASHED1
 62
   120
370
     5
100
AcDbLine
 10
515.5255297432484
 20
-2.440146581119507
 30
0.0
 11
735.0255297432342
 21
217.0598534188663
 31
0.0
  0
LINE
  5
2AE
330
1F
100
AcDbEntity
  8
0-0
  6
JWW_DASHED1
 62
   120
370
     5
100
AcDbLine
 10
515.5255297432454
 20
7.459348354093862
 30
0.0
 11
735.0255297432502
 21
226.9593483540984
 31
0.0
  0
LINE
  5
2AF
330
1F
100
AcDbEntity
  8
0-0
  6
JWW_DASHED1
 62
   120
370
     5
100
AcDbLine
 10
515.5255297432335
 20
17.35884328924328
 30
0.0
 11
735.0255297432376
 21
236.8588432892479
 31
0.0
  0
LINE
  5
2B0
330
1F
100
AcDbEntity
  8
0-0
  6
JWW_DASHED1
 62
   120
370
     5
100
AcDbLine
 10
515.5255297432506
 20
27.25833822447711
 30
0.0
 11
735.0255297432366
 21
246.7583382244629
 31
0.0
  0
LINE
  5
2B1
330
1F
100
AcDbEntity
  8
0-0
  6
JWW_DASHED1
 62
   120
370
     5
100
AcDbLine
 10
515.525529743248
 20
37.15783315969091
 30
0.0
 11
735.0255297432525
 21
256.6578331596955
 31
0.0
  0
LINE
  5
2B2
330
1F
100
AcDbEntity
  8
0-0
  6
JWW_DASHED1
 62
   120
370
     5
100
AcDbLine
 10
515.5255297432357
 20
47.05732809484033
 30
0.0
 11
735.0255297432402
 21
266.5573280948449
 31
0.0
  0
LINE
  5
2B3
330
1F
100
AcDbEntity
  8
0-0
  6
JWW_DASHED1
 62
   120
370
     5
100
AcDbLine
 10
515.5255297432527
 20
56.95682303007374
 30
0.0
 11
735.0255297432385
 21
276.4568230300596
 31
0.0
  0
LINE
  5
2B4
330
1F
100
AcDbEntity
  8
0-0
  6
JWW_DASHED1
 62
   120
370
     5
100
AcDbLine
 10
515.5255297432441
 20
66.85631796528199
 30
0.0
 11
735.0255297432457
 21
286.3563179652836
 31
0.0
  0
LINE
  5
2B5
330
1F
100
AcDbEntity
  8
0-0
  6
JWW_DASHED1
 62
   120
370
     5
100
AcDbLine
 10
515.5255297432382
 20
76.75581290043738
 30
0.0
 11
735.0255297432427
 21
296.2558129004419
 31
0.0
  0
LINE
  5
2B6
330
1F
100
AcDbEntity
  8
0-0
  6
JWW_DASHED1
 62
   120
370
     5
100
AcDbLine
 10
515.5255297432548
 20
86.65530783567036
 30
0.0
 11
735.0255297432407
 21
306.1553078356562
 31
0.0
  0
LINE
  5
2B7
330
1F
100
AcDbEntity
  8
0-0
  6
JWW_DASHED1
 62
   120
370
     5
100
AcDbLine
 10
515.5255297432445
 20
96.5548027708492
 30
0.0
 11
735.0255297432461
 21
316.0548027708508
 31
0.0
  0
LINE
  5
2B8
330
1F
100
AcDbEntity
  8
0-0
  6
JWW_DASHED1
 62
   120
370
     5
100
AcDbLine
 10
515.5255297432407
 20
106.4542977060344
 30
0.0
 11
735.0255297432453
 21
325.9542977060386
 31
0.0
  0
LINE
  5
2B9
330
1F
100
AcDbEntity
  8
0-0
  6
JWW_DASHED1
 62
   120
370
     5
100
AcDbLine
 10
515.525529743248
 20
116.3537926412585
 30
0.0
 11
735.025529743237
 21
335.8537926412469
 31
0.0
  0
LINE
  5
2BA
330
1F
100
AcDbEntity
  8
0-0
  6
JWW_DASHED1
 62
   120
370
     5
100
AcDbLine
 10
515.5255297432462
 20
126.2532875764458
 30
0.0
 11
735.0255297432483
 21
345.753287576447
 31
0.0
  0
LINE
  5
2BB
330
1F
100
AcDbEntity
  8
0-0
  6
JWW_DASHED1
 62
   120
370
     5
100
AcDbLine
 10
515.5255297432433
 20
136.152782511631
 30
0.0
 11
735.0255297432475
 21
355.6527825116356
 31
0.0
  0
LINE
  5
2BC
330
1F
100
AcDbEntity
  8
0-0
  6
JWW_DASHED1
 62
   120
370
     5
100
AcDbLine
 10
515.5255297432348
 20
146.0522774468397
 30
0.0
 11
735.0255297432393
 21
365.5522774468438
 31
0.0
  0
LINE
  5
2BD
330
1F
100
AcDbEntity
  8
0-0
  6
JWW_DASHED1
 62
   120
370
     5
100
AcDbLine
 10
515.5255297432462
 20
155.951772382013
 30
0.0
 11
735.0255297432478
 21
375.4517723820142
 31
0.0
  0
LINE
  5
2BE
330
1F
100
AcDbEntity
  8
0-0
  6
JWW_DASHED1
 62
   120
370
     5
100
AcDbLine
 10
515.5255297432459
 20
165.8512673172285
 30
0.0
 11
735.0255297432502
 21
385.3512673172327
 31
0.0
  0
LINE
  5
2BF
330
1F
100
AcDbEntity
  8
0-0
  6
JWW_DASHED1
 62
   120
370
     5
100
AcDbLine
 10
515.5255297432377
 20
175.7507622524368
 30
0.0
 11
735.0255297432419
 21
395.2507622524409
 31
0.0
  0
LINE
  5
2C0
330
1F
100
AcDbEntity
  8
0-0
  6
JWW_DASHED1
 62
   120
370
     5
100
AcDbLine
 10
515.5255297432484
 20
185.6502571876096
 30
0.0
 11
735.0255297432342
 21
405.150257187595
 31
0.0
  0
LINE
  5
2C1
330
1F
100
AcDbEntity
  8
0-0
  6
JWW_DASHED1
 62
   120
370
     5
100
AcDbLine
 10
515.525529743248
 20
195.5497521228256
 30
0.0
 11
735.0255297432525
 21
415.0497521228297
 31
0.0
  0
LINE
  5
2C2
330
1F
100
AcDbEntity
  8
0-0
  6
JWW_DASHED1
 62
   120
370
     5
100
AcDbLine
 10
515.5255297432403
 20
205.4492470580334
 30
0.0
 11
735.0255297432444
 21
424.9492470580379
 31
0.0
  0
LINE
  5
2C3
330
1F
100
AcDbEntity
  8
0-0
  6
JWW_DASHED1
 62
   120
370
     5
100
AcDbLine
 10
515.5255297432509
 20
215.3487419932063
 30
0.0
 11
735.025529743237
 21
434.8487419931917
 31
0.0
  0
LINE
  5
2C4
330
1F
100
AcDbEntity
  8
0-0
  6
JWW_DASHED1
 62
   120
370
     5
100
AcDbLine
 10
515.5255297432425
 20
225.2482369284141
 30
0.0
 11
735.0255297432441
 21
444.7482369284157
 31
0.0
  0
LINE
  5
2C5
330
1F
100
AcDbEntity
  8
0-0
  6
JWW_DASHED1
 62
   120
370
     5
100
AcDbLine
 10
515.5255297432425
 20
235.1477318636304
 30
0.0
 11
735.025529743247
 21
454.647731863635
 31
0.0
  0
LINE
  5
2C6
330
1F
100
AcDbEntity
  8
0-0
  6
JWW_DASHED1
 62
   120
370
     5
100
AcDbLine
 10
515.5255297432531
 20
245.0472267988029
 30
0.0
 11
735.0255297432385
 21
464.5472267987883
 31
0.0
  0
LINE
  5
2C7
330
1F
100
AcDbEntity
  8
0-0
  6
JWW_DASHED1
 62
   120
370
     5
100
AcDbLine
 10
515.5255297432445
 20
254.9467217340107
 30
0.0
 11
735.0255297432461
 21
474.4467217340123
 31
0.0
  0
LINE
  5
2C8
330
1F
100
AcDbEntity
  8
0-0
  6
JWW_DASHED1
 62
   120
370
     5
100
AcDbLine
 10
515.525529743245
 20
264.8462166692275
 30
0.0
 11
735.0255297432495
 21
484.346216669232
 31
0.0
  0
LINE
  5
2C9
330
1F
100
AcDbEntity
  8
0-0
  6
JWW_DASHED1
 62
   120
370
     5
100
AcDbLine
 10
515.5255297432484
 20
274.7457116043927
 30
0.0
 11
735.025529743237
 21
494.2457116043811
 31
0.0
  0
LINE
  5
2CA
330
1F
100
AcDbEntity
  8
0-0
  6
JWW_DASHED1
 62
   120
370
     5
100
AcDbLine
 10
515.5255297432471
 20
284.6452065396073
 30
0.0
 11
735.0255297432325
 21
504.1452065395931
 31
0.0
  0
LINE
  5
2CB
330
1F
100
AcDbEntity
  8
0-0
  6
JWW_DASHED1
 62
   120
370
     5
100
AcDbLine
 10
515.5255297432475
 20
294.5447014748245
 30
0.0
 11
735.0255297432522
 21
514.0447014748287
 31
0.0
  0
LINE
  5
2CC
330
1F
100
AcDbEntity
  8
0-0
  6
JWW_DASHED1
 62
   120
370
     5
100
AcDbLine
 10
515.5255297432352
 20
304.444196409974
 30
0.0
 11
735.0255297432393
 21
523.9441964099781
 31
0.0
  0
LINE
  5
2CD
330
1F
100
AcDbEntity
  8
0-0
  6
JWW_DASHED1
 62
   120
370
     5
100
AcDbLine
 10
515.5255297432489
 20
314.343691345204
 30
0.0
 11
735.0255297432346
 21
533.8436913451893
 31
0.0
  0
LINE
  5
2CE
330
1F
100
AcDbEntity
  8
0-0
  6
JWW_DASHED1
 62
   120
370
     5
100
AcDbLine
 10
515.5255297432501
 20
324.2431862804211
 30
0.0
 11
735.0255297432547
 21
543.7431862804258
 31
0.0
  0
LINE
  5
2CF
330
1F
100
AcDbEntity
  8
0-0
  6
JWW_DASHED1
 62
   120
370
     5
100
AcDbLine
 10
515.5255297432377
 20
334.142681215571
 30
0.0
 11
735.0255297432419
 21
553.6426812155747
 31
0.0
  0
LINE
  5
2D0
330
1F
100
AcDbEntity
  8
0-0
  6
JWW_DASHED1
 62
   120
370
     5
100
AcDbLine
 10
515.5255297432509
 20
344.0421761508006
 30
0.0
 11
735.025529743237
 21
563.5421761507864
 31
0.0
  0
LINE
  5
2D1
330
1F
100
AcDbEntity
  8
0-0
  6
JWW_DASHED1
 62
   120
370
     5
100
AcDbLine
 10
515.5255297432428
 20
353.9416710860084
 30
0.0
 11
735.0255297432444
 21
573.4416710860104
 31
0.0
  0
LINE
  5
2D2
330
1F
100
AcDbEntity
  8
0-0
  6
JWW_DASHED1
 62
   120
370
     5
100
AcDbLine
 10
515.5255297432403
 20
363.8411660211681
 30
0.0
 11
735.0255297432444
 21
583.3411660211722
 31
0.0
  0
LINE
  5
2D3
330
1F
100
AcDbEntity
  8
0-0
  6
JWW_DASHED1
 62
   120
370
     5
100
AcDbLine
 10
515.5255297432531
 20
373.7406609563972
 30
0.0
 11
735.0255297432388
 21
593.240660956383
 31
0.0
  0
LINE
  5
2D4
330
1F
100
AcDbEntity
  8
0-0
  6
JWW_DASHED1
 62
   120
370
     5
100
AcDbLine
 10
515.5255297432445
 20
383.640155891605
 30
0.0
 11
735.0255297432461
 21
603.1401558916066
 31
0.0
  0
LINE
  5
2D5
330
1F
100
AcDbEntity
  8
0-0
  6
JWW_DASHED1
 62
   120
370
     5
100
AcDbLine
 10
515.5255297432428
 20
393.5396508267647
 30
0.0
 11
735.025529743247
 21
613.0396508267693
 31
0.0
  0
LINE
  5
2D6
330
1F
100
AcDbEntity
  8
0-0
  6
JWW_DASHED1
 62
   120
370
     5
100
AcDbLine
 10
515.5255297432343
 20
403.4391457619729
 30
0.0
 11
735.0255297432385
 21
622.9391457619771
 31
0.0
  0
LINE
  5
2D7
330
1F
100
AcDbEntity
  8
0-0
  6
JWW_DASHED1
 62
   120
370
     5
100
AcDbLine
 10
515.5255297432475
 20
413.3386406972021
 30
0.0
 11
735.0255297432332
 21
632.8386406971874
 31
0.0
  0
LINE
  5
2D8
330
1F
100
AcDbEntity
  8
0-0
  6
JWW_DASHED1
 62
   120
370
     5
100
AcDbLine
 10
515.525529743245
 20
423.2381356323622
 30
0.0
 11
735.0255297432495
 21
642.7381356323663
 31
0.0
  0
LINE
  5
2D9
330
1F
100
AcDbEntity
  8
0-0
  6
JWW_DASHED1
 62
   120
370
     5
100
AcDbLine
 10
515.5255297432369
 20
433.1376305675695
 30
0.0
 11
735.025529743241
 21
652.6376305675738
 31
0.0
  0
LINE
  5
2DA
330
1F
100
AcDbEntity
  8
0-0
  6
JWW_DASHED1
 62
   120
370
     5
100
AcDbLine
 10
515.5255297432493
 20
443.0371255027987
 30
0.0
 11
735.0255297432351
 21
662.5371255027836
 31
0.0
  0
LINE
  5
2DB
330
1F
100
AcDbEntity
  8
0-0
  6
JWW_DASHED1
 62
   120
370
     5
100
AcDbLine
 10
515.5255297432475
 20
452.9366204379588
 30
0.0
 11
735.0255297432522
 21
672.4366204379634
 31
0.0
  0
LINE
  5
2DC
330
1F
100
AcDbEntity
  8
0-0
  6
JWW_DASHED1
 62
   120
370
     5
100
AcDbLine
 10
515.5255297432394
 20
462.836115373167
 30
0.0
 11
735.0255297432439
 21
682.3361153731712
 31
0.0
  0
LINE
  5
2DD
330
1F
100
AcDbEntity
  8
0-0
  6
JWW_DASHED1
 62
   120
370
     5
100
AcDbLine
 10
515.5255297432514
 20
472.7356103083953
 30
0.0
 11
735.0255297432373
 21
692.2356103083812
 31
0.0
  0
LINE
  5
2DE
330
1F
100
AcDbEntity
  8
0-0
  6
JWW_DASHED1
 62
   120
370
     5
100
AcDbLine
 10
515.5255297432501
 20
482.6351052435554
 30
0.0
 11
735.0255297432547
 21
702.13510524356
 31
0.0
  0
LINE
  5
2DF
330
1F
100
AcDbEntity
  8
0-0
  6
JWW_DASHED1
 62
   120
370
     5
100
AcDbLine
 10
515.525529743242
 20
492.5346001787641
 30
0.0
 11
735.0255297432461
 21
712.0346001787682
 31
0.0
  0
LINE
  5
2E0
330
1F
100
AcDbEntity
  8
0-0
  6
JWW_DASHED1
 62
   120
370
     5
100
AcDbLine
 10
515.5255297432496
 20
502.4340951139881
 30
0.0
 11
735.025529743238
 21
721.9340951139765
 31
0.0
  0
LINE
  5
2E1
330
1F
100
AcDbEntity
  8
0-0
  6
JWW_DASHED1
 62
   120
370
     5
100
AcDbLine
 10
515.5255297432407
 20
512.3335900491409
 30
0.0
 11
735.0255297432423
 21
731.8335900491425
 31
0.0
  0
LINE
  5
2E2
330
1F
100
AcDbEntity
  8
0-0
  6
JWW_DASHED1
 62
   120
370
     5
100
AcDbLine
 10
515.5255297432445
 20
522.2330849843611
 30
0.0
 11
735.0255297432487
 21
741.7330849843648
 31
0.0
  0
LINE
  5
2E3
330
1F
100
AcDbEntity
  8
0-0
  6
JWW_DASHED1
 62
   120
370
     5
100
AcDbLine
 10
515.5255297432365
 20
532.1325799195689
 30
0.0
 11
735.0255297432407
 21
751.6325799195736
 31
0.0
  0
LINE
  5
2E4
330
1F
100
AcDbEntity
  8
0-0
  6
JWW_DASHED1
 62
   120
370
     5
100
AcDbLine
 10
515.5255297432428
 20
542.0320748547372
 30
0.0
 11
735.0255297432444
 21
761.5320748547391
 31
0.0
  0
LINE
  5
2E5
330
1F
100
AcDbEntity
  8
0-0
  6
JWW_DASHED1
 62
   120
370
     5
100
AcDbLine
 10
515.5255297432475
 20
551.9315697899582
 30
0.0
 11
735.0255297432512
 21
771.4315697899623
 31
0.0
  0
LINE
  5
2E6
330
1F
100
AcDbEntity
  8
0-0
  6
JWW_DASHED1
 62
   120
370
     5
100
AcDbLine
 10
515.5255297432386
 20
561.831064725166
 30
0.0
 11
735.0255297432434
 21
781.3310647251706
 31
0.0
  0
LINE
  5
2E7
330
1F
100
AcDbEntity
  8
0-0
  6
JWW_DASHED1
 62
   120
370
     5
100
AcDbLine
 10
515.525529743245
 20
571.7305596603342
 30
0.0
 11
735.0255297432308
 21
791.23055966032
 31
0.0
  0
LINE
  5
2E8
330
1F
100
AcDbEntity
  8
0-0
  6
JWW_DASHED1
 62
   120
370
     5
100
AcDbLine
 10
515.5255297432496
 20
581.6300545955548
 30
0.0
 11
735.0255297432539
 21
801.1300545955594
 31
0.0
  0
LINE
  5
2E9
330
1F
100
AcDbEntity
  8
0-0
  6
JWW_DASHED1
 62
   120
370
     5
100
AcDbLine
 10
515.5255297432411
 20
591.529549530763
 30
0.0
 11
735.0255297432457
 21
811.0295495307676
 31
0.0
  0
LINE
  5
2EA
330
1F
100
AcDbEntity
  8
0-0
  6
JWW_DASHED1
 62
   120
370
     5
100
AcDbLine
 10
515.5255297432475
 20
601.4290444659308
 30
0.0
 11
727.3517146110955
 21
813.2552293337792
 31
0.0
  0
LINE
  5
2EB
330
1F
100
AcDbEntity
  8
0-0
  6
JWW_DASHED1
 62
   120
370
     5
100
AcDbLine
 10
515.5255297432523
 20
611.3285394011523
 30
0.0
 11
717.4522196758569
 21
813.2552293337567
 31
0.0
  0
LINE
  5
2EC
330
1F
100
AcDbEntity
  8
0-0
  6
JWW_DASHED1
 62
   120
370
     5
100
AcDbLine
 10
515.5255297432437
 20
621.2280343363597
 30
0.0
 11
707.5527247406488
 21
813.2552293337652
 31
0.0
  0
LINE
  5
2ED
330
1F
100
AcDbEntity
  8
0-0
  6
JWW_DASHED1
 62
   120
370
     5
100
AcDbLine
 10
515.5255297432493
 20
631.1275292715275
 30
0.0
 11
697.6532298054973
 21
813.255229333775
 31
0.0
  0
LINE
  5
2EE
330
1F
100
AcDbEntity
  8
0-0
  6
JWW_DASHED1
 62
   120
370
     5
100
AcDbLine
 10
515.5255297432411
 20
641.0270242067352
 30
0.0
 11
687.7537348702763
 21
813.2552293337708
 31
0.0
  0
LINE
  5
2EF
330
1F
100
AcDbEntity
  8
0-0
  6
JWW_DASHED1
 62
   120
370
     5
100
AcDbLine
 10
515.5255297432462
 20
650.9265191419571
 30
0.0
 11
677.8542399350529
 21
813.2552293337635
 31
0.0
  0
LINE
  5
2F0
330
1F
100
AcDbEntity
  8
0-0
  6
JWW_DASHED1
 62
   120
370
     5
100
AcDbLine
 10
515.5255297432496
 20
660.826014077122
 30
0.0
 11
667.9547449998989
 21
813.2552293337716
 31
0.0
  0
LINE
  5
2F1
330
1F
100
AcDbEntity
  8
0-0
  6
JWW_DASHED1
 62
   120
370
     5
100
AcDbLine
 10
515.5255297432433
 20
670.7255090123315
 30
0.0
 11
658.0552500646907
 21
813.2552293337792
 31
0.0
  0
LINE
  5
2F2
330
1F
100
AcDbEntity
  8
0-0
  6
JWW_DASHED1
 62
   120
370
     5
100
AcDbLine
 10
515.5255297432489
 20
680.6250039475542
 30
0.0
 11
648.1557551294565
 21
813.2552293337613
 31
0.0
  0
LINE
  5
2F3
330
1F
100
AcDbEntity
  8
0-0
  6
JWW_DASHED1
 62
   120
370
     5
100
AcDbLine
 10
515.525529743236
 20
690.5244988827031
 30
0.0
 11
638.2562601943074
 21
813.2552293337745
 31
0.0
  0
LINE
  5
2F4
330
1F
100
AcDbEntity
  8
0-0
  6
JWW_DASHED1
 62
   120
370
     5
100
AcDbLine
 10
515.5255297432454
 20
700.4239938179289
 30
0.0
 11
628.356765259092
 21
813.255229333775
 31
0.0
  0
LINE
  5
2F5
330
1F
100
AcDbEntity
  8
0-0
  6
JWW_DASHED1
 62
   120
370
     5
100
AcDbLine
 10
515.5255297432514
 20
710.3234887531512
 30
0.0
 11
618.4572703238603
 21
813.2552293337601
 31
0.0
  0
LINE
  5
2F6
330
1F
100
AcDbEntity
  8
0-0
  6
JWW_DASHED1
 62
   120
370
     5
100
AcDbLine
 10
515.5255297432391
 20
720.2229836883002
 30
0.0
 11
608.5577753887112
 21
813.2552293337728
 31
0.0
  0
LINE
  5
2F7
330
1F
100
AcDbEntity
  8
0-0
  6
JWW_DASHED1
 62
   120
370
     5
100
AcDbLine
 10
515.5255297432475
 20
730.1224786235255
 30
0.0
 11
598.6582804534941
 21
813.255229333772
 31
0.0
  0
LINE
  5
2F8
330
1F
100
AcDbEntity
  8
0-0
  6
JWW_DASHED1
 62
   120
370
     5
100
AcDbLine
 10
515.5255297432496
 20
740.0219735586894
 30
0.0
 11
588.7587855183228
 21
813.2552293337626
 31
0.0
  0
LINE
  5
2F9
330
1F
100
AcDbEntity
  8
0-0
  6
JWW_DASHED1
 62
   120
370
     5
100
AcDbLine
 10
515.5255297432411
 20
749.9214684938972
 30
0.0
 11
578.859290583115
 21
813.2552293337711
 31
0.0
  0
LINE
  5
2FA
330
1F
100
AcDbEntity
  8
0-0
  6
JWW_DASHED1
 62
   120
370
     5
100
AcDbLine
 10
515.5255297432496
 20
759.8209634291221
 30
0.0
 11
568.9597956478952
 21
813.2552293337674
 31
0.0
  0
LINE
  5
2FB
330
1F
100
AcDbEntity
  8
0-0
  6
JWW_DASHED1
 62
   120
370
     5
100
AcDbLine
 10
515.5255297432523
 20
769.7204583642865
 30
0.0
 11
559.0603007127266
 21
813.2552293337609
 31
0.0
  0
LINE
  5
2FC
330
1F
100
AcDbEntity
  8
0-0
  6
JWW_DASHED1
 62
   120
370
     5
100
AcDbLine
 10
515.5255297432437
 20
779.6199532994939
 30
0.0
 11
549.1608057775188
 21
813.2552293337694
 31
0.0
  0
LINE
  5
2FD
330
1F
100
AcDbEntity
  8
0-0
  6
JWW_DASHED1
 62
   120
370
     5
100
AcDbLine
 10
515.5255297432514
 20
789.5194482347183
 30
0.0
 11
539.2613108422973
 21
813.2552293337643
 31
0.0
  0
LINE
  5
2FE
330
1F
100
AcDbEntity
  8
0-0
  6
JWW_DASHED1
 62
   120
370
     5
100
AcDbLine
 10
515.5255297432391
 20
799.4189431698678
 30
0.0
 11
529.3618159071467
 21
813.255229333775
 31
0.0
  0
LINE
  5
2FF
330
1F
100
AcDbEntity
  8
0-0
  6
JWW_DASHED1
 62
   120
370
     5
100
AcDbLine
 10
515.5255297432462
 20
809.3184381050913
 30
0.0
 11
519.4623209719226
 21
813.2552293337674
 31
0.0
  0
LINE
  5
300
330
1F
100
AcDbEntity
  8
0-0
  6
Continuous
 62
     7
370
     9
100
AcDbLine
 10
511.5255297432218
 20
817.2552293337687
 30
0.0
 11
739.0255297432402
 21
817.2552293337687
 31
0.0
  0
LINE
  5
301
330
1F
100
AcDbEntity
  8
0-0
  6
Continuous
 62
    92
370
    13
100
AcDbLine
 10
515.5255297432454
 20
813.255229333769
 30
0.0
 11
735.0255297432439
 21
813.255229333769
 31
0.0
  0
LINE
  5
302
330
1F
100
AcDbEntity
  8
0-0
  6
Continuous
 62
     7
370
     9
100
AcDbLine
 10
739.0255297432402
 20
-1314.744770666231
 30
0.0
 11
511.5255297432218
 21
-1314.744770666231
 31
0.0
  0
LINE
  5
303
330
1F
100
AcDbEntity
  8
0-0
  6
Continuous
 62
    92
370
    13
100
AcDbLine
 10
735.0255297432439
 20
-1310.744770666231
 30
0.0
 11
515.5255297432454
 21
-1310.744770666231
 31
0.0
  0
LINE
  5
304
330
1F
100
AcDbEntity
  8
0-0
  6
Continuous
 62
     7
370
     9
100
AcDbLine
 10
-279.4744702567546
 20
817.2552293337687
 30
0.0
 11
-51.97447025676368
 21
817.2552293337687
 31
0.0
  0
LINE
  5
305
330
1F
100
AcDbEntity
  8
0-0
  6
Continuous
 62
    92
370
    13
100
AcDbLine
 10
-275.4744702567582
 20
813.255229333769
 30
0.0
 11
-55.97447025676004
 21
813.255229333769
 31
0.0
  0
LINE
  5
306
330
1F
100
AcDbEntity
  8
0-0
  6
Continuous
 62
    92
370
    13
100
AcDbLine
 10
-688.9744702567906
 20
-474.7447706662315
 30
0.0
 11
-461.4744702567527
 21
-474.7447706662315
 31
0.0
  0
LINE
  5
307
330
1F
100
AcDbEntity
  8
0-0
  6
Continuous
 62
    92
370
    13
100
AcDbLine
 10
-688.9744702567633
 20
-500.7447706662317
 30
0.0
 11
-461.4744702567527
 21
-500.7447706662317
 31
0.0
  0
LINE
  5
308
330
1F
100
AcDbEntity
  8
0-0
  6
Continuous
 62
     7
370
     9
100
AcDbLine
 10
-461.4744702567442
 20
-474.7447706662319
 30
0.0
 11
-461.4744702567442
 21
-500.7447706662317
 31
0.0
  0
LINE
  5
309
330
1F
100
AcDbEntity
  8
0-0
  6
Continuous
 62
     7
370
     9
100
AcDbLine
 10
-688.9744702567906
 20
-474.7447706662315
 30
0.0
 11
-688.9744702567906
 21
-500.7447706662317
 31
0.0
  0
LINE
  5
30A
330
1F
100
AcDbEntity
  8
0-0
  6
Continuous
 62
    92
370
    13
100
AcDbLine
 10
-279.4744702567742
 20
-474.7447706662315
 30
0.0
 11
-51.9744702567364
 21
-474.7447706662315
 31
0.0
  0
LINE
  5
30B
330
1F
100
AcDbEntity
  8
0-0
  6
Continuous
 62
    92
370
    13
100
AcDbLine
 10
-279.4744702567469
 20
-500.7447706662317
 30
0.0
 11
-51.9744702567364
 21
-500.7447706662317
 31
0.0
  0
LINE
  5
30C
330
1F
100
AcDbEntity
  8
0-0
  6
Continuous
 62
     7
370
     9
100
AcDbLine
 10
-51.97447025672787
 20
-474.7447706662319
 30
0.0
 11
-51.97447025672787
 21
-500.7447706662317
 31
0.0
  0
LINE
  5
30D
330
1F
100
AcDbEntity
  8
0-0
  6
Continuous
 62
     7
370
     9
100
AcDbLine
 10
-279.4744702567742
 20
-474.7447706662315
 30
0.0
 11
-279.4744702567742
 21
-500.7447706662317
 31
0.0
  0
LINE
  5
30E
330
1F
100
AcDbEntity
  8
0-0
  6
Continuous
 62
    92
370
    13
100
AcDbLine
 10
102.0255297432131
 20
-474.7447706662315
 30
0.0
 11
329.5255297432509
 21
-474.7447706662315
 31
0.0
  0
LINE
  5
30F
330
1F
100
AcDbEntity
  8
0-0
  6
Continuous
 62
    92
370
    13
100
AcDbLine
 10
102.0255297432404
 20
-500.7447706662317
 30
0.0
 11
329.5255297432509
 21
-500.7447706662317
 31
0.0
  0
LINE
  5
310
330
1F
100
AcDbEntity
  8
0-0
  6
Continuous
 62
     7
370
     9
100
AcDbLine
 10
329.5255297432594
 20
-474.7447706662319
 30
0.0
 11
329.5255297432594
 21
-500.7447706662317
 31
0.0
  0
LINE
  5
311
330
1F
100
AcDbEntity
  8
0-0
  6
Continuous
 62
     7
370
     9
100
AcDbLine
 10
102.0255297432131
 20
-474.7447706662315
 30
0.0
 11
102.0255297432131
 21
-500.7447706662317
 31
0.0
  0
LINE
  5
312
330
1F
100
AcDbEntity
  8
0-0
  6
Continuous
 62
    92
370
    13
100
AcDbLine
 10
511.5255297432021
 20
-474.7447706662315
 30
0.0
 11
739.02552974324
 21
-474.7447706662315
 31
0.0
  0
LINE
  5
313
330
1F
100
AcDbEntity
  8
0-0
  6
Continuous
 62
    92
370
    13
100
AcDbLine
 10
511.5255297432294
 20
-500.7447706662317
 30
0.0
 11
739.02552974324
 21
-500.7447706662317
 31
0.0
  0
LINE
  5
314
330
1F
100
AcDbEntity
  8
0-0
  6
Continuous
 62
     7
370
     9
100
AcDbLine
 10
739.0255297432485
 20
-474.7447706662319
 30
0.0
 11
739.0255297432485
 21
-500.7447706662317
 31
0.0
  0
LINE
  5
315
330
1F
100
AcDbEntity
  8
0-0
  6
Continuous
 62
     7
370
     9
100
AcDbLine
 10
511.5255297432021
 20
-474.7447706662315
 30
0.0
 11
511.5255297432021
 21
-500.7447706662317
 31
0.0
  0
LINE
  5
316
330
1F
100
AcDbEntity
  8
寸法
  6
Continuous
 62
   120
370
     5
100
AcDbLine
 10
-1297.474470256758
 20
-1410.744770666231
 30
0.0
 11
-847.4744702567581
 21
-1410.744770666231
 31
0.0
  0
LINE
  5
317
330
1F
100
AcDbEntity
  8
寸法
  6
Continuous
 62
   120
370
     5
100
AcDbLine
 10
-797.4744702567558
 20
-2110.744770666232
 30
0.0
 11
-797.4744702567558
 21
-1460.744770666232
 31
0.0
  0
LINE
  5
318
330
1F
100
AcDbEntity
  8
寸法
  6
Continuous
 62
   120
370
     5
100
AcDbLine
 10
-764.9744702567564
 20
-1910.744770666231
 30
0.0
 11
-764.9744702567564
 21
-1460.744770666232
 31
0.0
  0
LINE
  5
319
330
1F
100
AcDbEntity
  8
寸法
  6
Continuous
 62
   120
370
     5
100
AcDbLine
 10
-1297.474470256758
 20
936.7552293337689
 30
0.0
 11
-1297.474470256758
 21
-1410.744770666231
 31
0.0
  0
LINE
  5
31A
330
1F
100
AcDbEntity
  8
寸法
  6
Continuous
 62
   120
370
     5
100
AcDbLine
 10
-1297.474470256758
 20
936.7552293337689
 30
0.0
 11
-847.4744702567581
 21
936.7552293337689
 31
0.0
  0
LINE
  5
31B
330
1F
100
AcDbEntity
  8
寸法
  6
Continuous
 62
   120
370
     5
100
AcDbLine
 10
-1097.474470256756
 20
893.2552293337687
 30
0.0
 11
-847.4744702567581
 21
893.2552293337687
 31
0.0
  0
LINE
  5
31C
330
1F
100
AcDbEntity
  8
寸法
  6
Continuous
 62
   120
370
     5
100
AcDbLine
 10
-1097.474470256756
 20
-1390.744770666231
 30
0.0
 11
-847.4744702567581
 21
-1390.744770666231
 31
0.0
  0
LINE
  5
31D
330
1F
100
AcDbEntity
  8
寸法
  6
Continuous
 62
   120
370
     5
100
AcDbLine
 10
-1097.474470256756
 20
893.2552293337687
 30
0.0
 11
-1097.474470256756
 21
-1390.744770666231
 31
0.0
  0
LWPOLYLINE
  5
31E
330
1F
100
AcDbEntity
  8
寸法
  6
Continuous
 62
     7
370
     9
100
AcDbPolyline
 90
        4
 70
     1
 43
3.0
 10
-1295.974470256758
 20
-1410.744770666231
 42
0.4142135623731
 10
-1297.474470256758
 20
-1409.244770666231
 42
0.4142135623731
 10
-1298.974470256758
 20
-1410.744770666231
 42
0.4142135623731
 10
-1297.474470256758
 20
-1412.244770666231
 42
0.4142135623731
  0
LWPOLYLINE
  5
31F
330
1F
100
AcDbEntity
  8
寸法
  6
Continuous
 62
     7
370
     9
100
AcDbPolyline
 90
        4
 70
     1
 43
3.0
 10
-795.9744702567558
 20
-2110.744770666232
 42
0.4142135623731
 10
-797.4744702567558
 20
-2109.244770666232
 42
0.4142135623731
 10
-798.9744702567558
 20
-2110.744770666232
 42
0.4142135623731
 10
-797.4744702567558
 20
-2112.244770666232
 42
0.4142135623731
  0
LWPOLYLINE
  5
320
330
1F
100
AcDbEntity
  8
寸法
  6
Continuous
 62
     7
370
     9
100
AcDbPolyline
 90
        4
 70
     1
 43
3.0
 10
-763.4744702567564
 20
-1710.744770666231
 42
0.4142135623731
 10
-764.9744702567564
 20
-1709.244770666231
 42
0.4142135623731
 10
-766.4744702567564
 20
-1710.744770666231
 42
0.4142135623731
 10
-764.9744702567564
 20
-1712.244770666231
 42
0.4142135623731
  0
LWPOLYLINE
  5
321
330
1F
100
AcDbEntity
  8
寸法
  6
Continuous
 62
     7
370
     9
100
AcDbPolyline
 90
        4
 70
     1
 43
3.0
 10
-1295.974470256758
 20
936.7552293337689
 42
0.4142135623731
 10
-1297.474470256758
 20
938.2552293337689
 42
0.4142135623731
 10
-1298.974470256758
 20
936.7552293337689
 42
0.4142135623731
 10
-1297.474470256758
 20
935.2552293337689
 42
0.4142135623731
  0
LWPOLYLINE
  5
322
330
1F
100
AcDbEntity
  8
寸法
  6
Continuous
 62
     7
370
     9
100
AcDbPolyline
 90
        4
 70
     1
 43
3.0
 10
-1095.974470256756
 20
893.2552293337687
 42
0.4142135623731
 10
-1097.474470256756
 20
894.7552293337687
 42
0.4142135623731
 10
-1098.974470256756
 20
893.2552293337687
 42
0.4142135623731
 10
-1097.474470256756
 20
891.7552293337687
 42
0.4142135623731
  0
LWPOLYLINE
  5
323
330
1F
100
AcDbEntity
  8
寸法
  6
Continuous
 62
     7
370
     9
100
AcDbPolyline
 90
        4
 70
     1
 43
3.0
 10
-1095.974470256756
 20
-1390.744770666231
 42
0.4142135623731
 10
-1097.474470256756
 20
-1389.244770666231
 42
0.4142135623731
 10
-1098.974470256756
 20
-1390.744770666231
 42
0.4142135623731
 10
-1097.474470256756
 20
-1392.244770666231
 42
0.4142135623731
  0
LINE
  5
324
330
1F
100
AcDbEntity
  8
寸法
  6
Continuous
 62
   120
370
     5
100
AcDbLine
 10
-764.9744702567564
 20
-1710.744770666231
 30
0.0
 11
-370.9744702567566
 21
-1710.744770666231
 31
0.0
  0
LINE
  5
325
330
1F
100
AcDbEntity
  8
寸法
  6
Continuous
 62
   120
370
     5
100
AcDbLine
 10
-370.9744702567566
 20
-1710.744770666231
 30
0.0
 11
-370.9744702567566
 21
-1460.744770666232
 31
0.0
  0
LINE
  5
326
330
1F
100
AcDbEntity
  8
寸法
  6
Continuous
 62
   120
370
     5
100
AcDbLine
 10
-370.9744702567566
 20
-1710.744770666231
 30
0.0
 11
-369.9744702567558
 21
-1710.744770666231
 31
0.0
  0
LINE
  5
327
330
1F
100
AcDbEntity
  8
寸法
  6
Continuous
 62
   120
370
     5
100
AcDbLine
 10
-369.9744702567558
 20
-1710.744770666231
 30
0.0
 11
-369.9744702567558
 21
-1460.744770666232
 31
0.0
  0
LINE
  5
328
330
1F
100
AcDbEntity
  8
寸法
  6
Continuous
 62
   120
370
     5
100
AcDbLine
 10
-370.4744702567571
 20
-1710.744770666231
 30
0.0
 11
-335.6144886223531
 21
-1580.645548055717
 31
0.0
  0
LINE
  5
329
330
1F
100
AcDbEntity
  8
寸法
  6
Continuous
 62
   120
370
     5
100
AcDbLine
 10
-335.6144886223531
 20
-1580.645548055717
 30
0.0
 11
-287.7442275400206
 21
-1580.645548055717
 31
0.0
  0
LWPOLYLINE
  5
32A
330
1F
100
AcDbEntity
  8
寸法
  6
Continuous
 62
     7
370
     9
100
AcDbPolyline
 90
        4
 70
     1
 43
3.0
 10
-369.4744702567565
 20
-1710.744770666231
 42
0.4142135623731
 10
-370.9744702567566
 20
-1709.244770666231
 42
0.4142135623731
 10
-372.4744702567566
 20
-1710.744770666231
 42
0.4142135623731
 10
-370.9744702567566
 20
-1712.244770666231
 42
0.4142135623731
  0
LWPOLYLINE
  5
32B
330
1F
100
AcDbEntity
  8
寸法
  6
Continuous
 62
     7
370
     9
100
AcDbPolyline
 90
        4
 70
     1
 43
3.0
 10
-368.4744702567558
 20
-1710.744770666231
 42
0.4142135623731
 10
-369.9744702567558
 20
-1709.244770666231
 42
0.4142135623731
 10
-371.4744702567558
 20
-1710.744770666231
 42
0.4142135623731
 10
-369.9744702567558
 20
-1712.244770666231
 42
0.4142135623731
  0
LINE
  5
32C
330
1F
100
AcDbEntity
  8
寸法
  6
Continuous
 62
   120
370
     5
100
AcDbLine
 10
24.02552974324394
 20
-1910.744770666231
 30
0.0
 11
24.02552974324394
 21
-1460.744770666232
 31
0.0
  0
LINE
  5
32D
330
1F
100
AcDbEntity
  8
寸法
  6
Continuous
 62
   120
370
     5
100
AcDbLine
 10
-369.9744702567558
 20
-1710.744770666231
 30
0.0
 11
24.02552974324394
 21
-1710.744770666231
 31
0.0
  0
LINE
  5
32E
330
1F
100
AcDbEntity
  8
寸法
  6
Continuous
 62
   120
370
     5
100
AcDbLine
 10
24.02552974324394
 20
-1910.744770666231
 30
0.0
 11
26.02552974324212
 21
-1910.744770666231
 31
0.0
  0
LINE
  5
32F
330
1F
100
AcDbEntity
  8
寸法
  6
Continuous
 62
   120
370
     5
100
AcDbLine
 10
26.02552974324212
 20
-1910.744770666231
 30
0.0
 11
26.02552974324212
 21
-1460.744770666232
 31
0.0
  0
LINE
  5
330
330
1F
100
AcDbEntity
  8
寸法
  6
Continuous
 62
   120
370
     5
100
AcDbLine
 10
25.02552974324303
 20
-1910.744770666231
 30
0.0
 11
59.88551137764702
 21
-1780.645548055718
 31
0.0
  0
LINE
  5
331
330
1F
100
AcDbEntity
  8
寸法
  6
Continuous
 62
   120
370
     5
100
AcDbLine
 10
59.88551137764702
 20
-1780.645548055718
 30
0.0
 11
107.7557724599799
 21
-1780.645548055718
 31
0.0
  0
LWPOLYLINE
  5
332
330
1F
100
AcDbEntity
  8
寸法
  6
Continuous
 62
     7
370
     9
100
AcDbPolyline
 90
        4
 70
     1
 43
3.0
 10
25.52552974324394
 20
-1910.744770666231
 42
0.4142135623731
 10
24.02552974324394
 20
-1909.244770666231
 42
0.4142135623731
 10
22.52552974324394
 20
-1910.744770666231
 42
0.4142135623731
 10
24.02552974324394
 20
-1912.244770666231
 42
0.4142135623731
  0
LWPOLYLINE
  5
333
330
1F
100
AcDbEntity
  8
寸法
  6
Continuous
 62
     7
370
     9
100
AcDbPolyline
 90
        4
 70
     1
 43
3.0
 10
25.52552974324394
 20
-1710.744770666231
 42
0.4142135623731
 10
24.02552974324394
 20
-1709.244770666231
 42
0.4142135623731
 10
22.52552974324394
 20
-1710.744770666231
 42
0.4142135623731
 10
24.02552974324394
 20
-1712.244770666231
 42
0.4142135623731
  0
LWPOLYLINE
  5
334
330
1F
100
AcDbEntity
  8
寸法
  6
Continuous
 62
     7
370
     9
100
AcDbPolyline
 90
        4
 70
     1
 43
3.0
 10
27.52552974324212
 20
-1910.744770666231
 42
0.4142135623731
 10
26.02552974324212
 20
-1909.244770666231
 42
0.4142135623731
 10
24.52552974324212
 20
-1910.744770666231
 42
0.4142135623731
 10
26.02552974324212
 20
-1912.244770666231
 42
0.4142135623731
  0
LINE
  5
335
330
1F
100
AcDbEntity
  8
寸法
  6
Continuous
 62
   120
370
     5
100
AcDbLine
 10
-797.4744702567558
 20
-2110.744770666232
 30
0.0
 11
847.5255297432419
 21
-2110.744770666231
 31
0.0
  0
LINE
  5
336
330
1F
100
AcDbEntity
  8
寸法
  6
Continuous
 62
   120
370
     5
100
AcDbLine
 10
847.5255297432419
 20
-2110.744770666231
 30
0.0
 11
847.5255297432419
 21
-1460.744770666231
 31
0.0
  0
LINE
  5
337
330
1F
100
AcDbEntity
  8
寸法
  6
Continuous
 62
   120
370
     5
100
AcDbLine
 10
26.02552974324212
 20
-1910.744770666231
 30
0.0
 11
815.0255297432425
 21
-1910.744770666231
 31
0.0
  0
LINE
  5
338
330
1F
100
AcDbEntity
  8
寸法
  6
Continuous
 62
   120
370
     5
100
AcDbLine
 10
815.0255297432425
 20
-1910.744770666231
 30
0.0
 11
815.0255297432425
 21
-1460.744770666232
 31
0.0
  0
LWPOLYLINE
  5
339
330
1F
100
AcDbEntity
  8
寸法
  6
Continuous
 62
     7
370
     9
100
AcDbPolyline
 90
        4
 70
     1
 43
3.0
 10
849.0255297432419
 20
-2110.744770666231
 42
0.4142135623731
 10
847.5255297432419
 20
-2109.244770666231
 42
0.4142135623731
 10
846.0255297432419
 20
-2110.744770666231
 42
0.4142135623731
 10
847.5255297432419
 20
-2112.244770666231
 42
0.4142135623731
  0
LWPOLYLINE
  5
33A
330
1F
100
AcDbEntity
  8
寸法
  6
Continuous
 62
     7
370
     9
100
AcDbPolyline
 90
        4
 70
     1
 43
3.0
 10
816.5255297432425
 20
-1910.744770666231
 42
0.4142135623731
 10
815.0255297432425
 20
-1909.244770666231
 42
0.4142135623731
 10
813.5255297432425
 20
-1910.744770666231
 42
0.4142135623731
 10
815.0255297432425
 20
-1912.244770666231
 42
0.4142135623731
  0
LWPOLYLINE
  5
33B
330
1F
100
AcDbEntity
  8
寸法
  6
Continuous
 62
     7
370
     9
100
AcDbPolyline
 90
        4
 70
     1
 43
3.0
 10
-763.4744702567564
 20
-1910.744770666231
 42
0.4142135623731
 10
-764.9744702567564
 20
-1909.244770666231
 42
0.4142135623731
 10
-766.4744702567564
 20
-1910.744770666231
 42
0.4142135623731
 10
-764.9744702567564
 20
-1912.244770666231
 42
0.4142135623731
  0
LINE
  5
33C
330
1F
100
AcDbEntity
  8
寸法
  6
Continuous
 62
   120
370
     5
100
AcDbLine
 10
-764.9744702567564
 20
-1910.744770666231
 30
0.0
 11
24.02552974324394
 21
-1910.744770666231
 31
0.0
  0
MTEXT
  5
33D
330
1F
100
AcDbEntity
  8
寸法
  6
Continuous
 62
     7
370
    70
100
AcDbMText
 10
-1112.474470256756
 20
-463.9197706662312
 30
0.0
 40
57.14999999999999
 41
412.5
 46
0.0
 71
     7
 72
     1
  1
{\fＭＳ ゴシック|b0|i0|c128|p49;ＤＨ＝2,284}
 11
6.123031769111886E-17
 21
1.0
 31
0.0
 73
     1
 44
1.0
  0
MTEXT
  5
33E
330
1F
100
AcDbEntity
  8
寸法
  6
Continuous
 62
     7
370
    70
100
AcDbMText
 10
-1312.474470256758
 20
-489.6697706662316
 30
0.0
 40
57.15000000000001
 41
487.5
 46
0.0
 71
     7
 72
     1
  1
{\fＭＳ ゴシック|b0|i0|c128|p49;枠外＝2,347.5}
 11
6.123031769111886E-17
 21
1.0
 31
0.0
 73
     1
 44
1.0
  0
MTEXT
  5
33F
330
1F
100
AcDbEntity
  8
寸法
  6
Continuous
 62
     7
370
   211
100
AcDbMText
 10
-335.6144886223531
 20
-1589.570548055717
 30
0.0
 40
57.15
 41
37.5
 46
0.0
 71
     7
 72
     1
  1
{\fＭＳ ゴシック|b0|i0|c128|p49;1}
 73
     1
 44
1.0
  0
MTEXT
  5
340
330
1F
100
AcDbEntity
  8
寸法
  6
Continuous
 62
     7
370
   211
100
AcDbMText
 10
-613.2244702567563
 20
-1704.669770666231
 30
0.0
 40
57.15
 41
112.5
 46
0.0
 71
     7
 72
     1
  1
{\fＭＳ ゴシック|b0|i0|c128|p49;394}
 73
     1
 44
1.0
  0
MTEXT
  5
341
330
1F
100
AcDbEntity
  8
寸法
  6
Continuous
 62
     7
370
   211
100
AcDbMText
 10
-218.224470256757
 20
-1704.669770666231
 30
0.0
 40
57.15
 41
112.5
 46
0.0
 71
     7
 72
     1
  1
{\fＭＳ ゴシック|b0|i0|c128|p49;394}
 73
     1
 44
1.0
  0
MTEXT
  5
342
330
1F
100
AcDbEntity
  8
寸法
  6
Continuous
 62
     7
370
   211
100
AcDbMText
 10
59.88551137764702
 20
-1789.570548055718
 30
0.0
 40
57.15
 41
37.5
 46
0.0
 71
     7
 72
     1
  1
{\fＭＳ ゴシック|b0|i0|c128|p49;2}
 73
     1
 44
1.0
  0
MTEXT
  5
343
330
1F
100
AcDbEntity
  8
寸法
  6
Continuous
 62
     7
370
   211
100
AcDbMText
 10
-541.9744702567563
 20
-1904.669770666231
 30
0.0
 40
57.15000000000001
 41
337.5000000000001
 46
0.0
 71
     7
 72
     1
  1
{\fＭＳ ゴシック|b0|i0|c128|p49;ＤＷ＝789}
 73
     1
 44
1.0
  0
MTEXT
  5
344
330
1F
100
AcDbEntity
  8
寸法
  6
Continuous
 62
     7
370
   211
100
AcDbMText
 10
251.7755297432431
 20
-1904.669770666231
 30
0.0
 40
57.15
 41
337.5
 46
0.0
 71
     7
 72
     1
  1
{\fＭＳ ゴシック|b0|i0|c128|p49;ＤＷ＝789}
 73
     1
 44
1.0
  0
MTEXT
  5
345
330
1F
100
AcDbEntity
  8
寸法
  6
Continuous
 62
     7
370
   211
100
AcDbMText
 10
-256.2244702567569
 20
-2104.669770666232
 30
0.0
 40
57.15000000000001
 41
562.5
 46
0.0
 71
     7
 72
     1
  1
{\fＭＳ ゴシック|b0|i0|c128|p49;枠外寸法＝1,645}
 73
     1
 44
1.0
  0
ENDSEC
  0
SECTION
  2
OBJECTS
  0
DICTIONARY
  5
C
330
0
100
AcDbDictionary
281
     1
  3
ACAD_GROUP
350
D
  3
ACAD_LAYOUT
350
1A
  3
ACAD_MATERIAL
350
3B
  3
ACAD_MLEADERSTYLE
350
347
  3
ACAD_MLINESTYLE
350
17
  3
ACAD_PLOTSETTINGS
350
19
  3
ACAD_PLOTSTYLENAME
350
E
  3
ACAD_TABLESTYLE
350
346
  3
ACAD_VISUALSTYLE
350
2A
  0
DICTIONARY
  5
D
102
{ACAD_REACTORS
330
C
102
}
330
C
100
AcDbDictionary
281
     1
  0
DICTIONARY
  5
1A
102
{ACAD_REACTORS
330
C
102
}
330
C
100
AcDbDictionary
281
     1
  3
Layout1
350
1E
  3
Layout2
350
26
  3
Model
350
22
  0
DICTIONARY
  5
3B
102
{ACAD_REACTORS
330
C
102
}
330
C
100
AcDbDictionary
281
     1
  3
ByBlock
350
3D
  3
ByLayer
350
3C
  3
Global
350
3E
  0
DICTIONARY
  5
347
102
{ACAD_REACTORS
330
C
102
}
330
C
100
AcDbDictionary
281
     1
  0
DICTIONARY
  5
17
102
{ACAD_REACTORS
330
C
102
}
330
C
100
AcDbDictionary
281
     1
  3
Standard
350
18
  0
DICTIONARY
  5
19
102
{ACAD_REACTORS
330
C
102
}
330
C
100
AcDbDictionary
281
     1
  0
ACDBDICTIONARYWDFLT
  5
E
102
{ACAD_REACTORS
330
C
102
}
330
C
100
AcDbDictionary
281
     1
  3
Normal
350
F
100
AcDbDictionaryWithDefault
340
F
  0
DICTIONARY
  5
346
102
{ACAD_REACTORS
330
C
102
}
330
C
100
AcDbDictionary
281
     1
  0
DICTIONARY
  5
2A
102
{ACAD_REACTORS
330
C
102
}
330
C
100
AcDbDictionary
281
     1
  3
2dWireframe
350
2F
  3
3D Hidden
350
31
  3
3dWireframe
350
30
  3
Basic
350
32
  3
Brighten
350
36
  3
ColorChange
350
3A
  3
Conceptual
350
34
  3
Dim
350
35
  3
Facepattern
350
39
  3
Flat
350
2B
  3
FlatWithEdges
350
2C
  3
Gouraud
350
2D
  3
GouraudWithEdges
350
2E
  3
Linepattern
350
38
  3
Realistic
350
33
  3
Thicken
350
37
  0
LAYOUT
  5
1E
102
{ACAD_REACTORS
330
1A
102
}
330
1A
100
AcDbPlotSettings
  1

  2
none_device
  4

  6

 40
0.0
 41
0.0
 42
0.0
 43
0.0
 44
0.0
 45
0.0
 46
0.0
 47
0.0
 48
0.0
 49
0.0
140
0.0
141
0.0
142
1.0
143
1.0
 70
   688
 72
     0
 73
     0
 74
     5
  7

 75
    16
 76
     0
 77
     5
 78
   300
147
1.0
148
0.0
149
0.0
100
AcDbLayout
  1
Layout1
 70
     1
 71
     1
 10
0.0
 20
0.0
 11
420.0
 21
297.0
 12
0.0
 22
0.0
 32
0.0
 14
1.000000000000000E+20
 24
1.000000000000000E+20
 34
1.000000000000000E+20
 15
-1.000000000000000E+20
 25
-1.000000000000000E+20
 35
-1.000000000000000E+20
146
0.0
 13
0.0
 23
0.0
 33
0.0
 16
1.0
 26
0.0
 36
0.0
 17
0.0
 27
1.0
 37
0.0
 76
     0
330
1B
  0
LAYOUT
  5
26
102
{ACAD_REACTORS
330
1A
102
}
330
1A
100
AcDbPlotSettings
  1

  2
none_device
  4

  6

 40
0.0
 41
0.0
 42
0.0
 43
0.0
 44
0.0
 45
0.0
 46
0.0
 47
0.0
 48
0.0
 49
0.0
140
0.0
141
0.0
142
1.0
143
1.0
 70
   688
 72
     0
 73
     0
 74
     5
  7

 75
    16
 76
     0
 77
     5
 78
   300
147
1.0
148
0.0
149
0.0
100
AcDbLayout
  1
Layout2
 70
     1
 71
     2
 10
0.0
 20
0.0
 11
0.0
 21
0.0
 12
0.0
 22
0.0
 32
0.0
 14
0.0
 24
0.0
 34
0.0
 15
0.0
 25
0.0
 35
0.0
146
0.0
 13
0.0
 23
0.0
 33
0.0
 16
1.0
 26
0.0
 36
0.0
 17
0.0
 27
1.0
 37
0.0
 76
     0
330
23
  0
LAYOUT
  5
22
102
{ACAD_REACTORS
330
1A
102
}
330
1A
100
AcDbPlotSettings
  1

  2
none_device
  4

  6

 40
0.0
 41
0.0
 42
0.0
 43
0.0
 44
0.0
 45
0.0
 46
0.0
 47
0.0
 48
0.0
 49
0.0
140
0.0
141
0.0
142
1.0
143
1.0
 70
  1712
 72
     0
 73
     0
 74
     0
  7

 75
     0
 76
     0
 77
     5
 78
   300
147
1.0
148
0.0
149
0.0
100
AcDbLayout
  1
Model
 70
     1
 71
     0
 10
-4455.0
 20
-3150.0
 11
4455.0
 21
3150.0
 12
0.0
 22
0.0
 32
0.0
 14
-4455.0
 24
-3150.0
 34
0.0
 15
4455.0
 25
3150.0
 35
0.0
146
0.0
 13
0.0
 23
0.0
 33
0.0
 16
1.0
 26
0.0
 36
0.0
 17
0.0
 27
1.0
 37
0.0
 76
     0
330
1F
331
29
  0
MATERIAL
  5
3D
102
{ACAD_REACTORS
330
3B
102
}
330
3B
100
AcDbMaterial
  1
ByBlock
 72
     1
 94
      127
  0
MATERIAL
  5
3C
102
{ACAD_REACTORS
330
3B
102
}
330
3B
100
AcDbMaterial
  1
ByLayer
 72
     1
 94
      127
  0
MATERIAL
  5
3E
102
{ACAD_REACTORS
330
3B
102
}
330
3B
100
AcDbMaterial
  1
Global
 72
     1
 94
      127
  0
MLINESTYLE
  5
18
102
{ACAD_REACTORS
330
17
102
}
330
17
100
AcDbMlineStyle
  2
Standard
 70
     0
  3

 62
   256
 51
90.0
 52
90.0
 71
     2
 49
0.5
 62
   256
  6
BYLAYER
 49
-0.5
 62
   256
  6
BYLAYER
  0
ACDBPLACEHOLDER
  5
F
102
{ACAD_REACTORS
330
E
102
}
330
E
  0
VISUALSTYLE
  5
2F
102
{ACAD_REACTORS
330
2A
102
}
330
2A
100
AcDbVisualStyle
  2
2dWireframe
 70
     4
177
     2
291
     0
 71
     0
176
     1
 72
     2
176
     1
 73
     0
176
     1
 90
        0
176
     1
 40
-0.6
176
     1
 41
-30.0
176
     1
 62
     5
 63
     7
421
 16777215
176
     1
 74
     1
176
     1
 91
        4
176
     1
 64
     7
176
     1
 65
   257
176
     1
 75
     1
176
     1
175
     1
176
     1
 42
1.0
176
     1
 92
        0
176
     1
 66
   257
176
     1
 43
1.0
176
     1
 76
     1
176
     1
 77
     6
176
     1
 78
     2
176
     1
 67
     7
176
     1
 79
     5
176
     1
170
     0
176
     1
171
     0
176
     1
290
     0
176
     1
 93
        1
176
     1
 44
0.0
176
     1
173
     0
176
     1
  0
VISUALSTYLE
  5
31
102
{ACAD_REACTORS
330
2A
102
}
330
2A
100
AcDbVisualStyle
  2
3D Hidden
 70
     6
177
     2
291
     0
 71
     1
176
     1
 72
     2
176
     1
 73
     2
176
     1
 90
        0
176
     1
 40
-0.6
176
     1
 41
-30.0
176
     1
 62
     5
 63
     7
421
 16777215
176
     1
 74
     2
176
     1
 91
        2
176
     1
 64
     7
176
     1
 65
   257
176
     1
 75
     2
176
     1
175
     1
176
     1
 42
40.0
176
     1
 92
        0
176
     1
 66
   257
176
     1
 43
1.0
176
     1
 76
     1
176
     1
 77
     6
176
     1
 78
     2
176
     1
 67
     7
176
     1
 79
     3
176
     1
170
     0
176
     1
171
     0
176
     1
290
     0
176
     1
 93
        1
176
     1
 44
0.0
176
     1
173
     0
176
     1
  0
VISUALSTYLE
  5
30
102
{ACAD_REACTORS
330
2A
102
}
330
2A
100
AcDbVisualStyle
  2
3dWireframe
 70
     5
177
     2
291
     0
 71
     0
176
     1
 72
     2
176
     1
 73
     0
176
     1
 90
        0
176
     1
 40
-0.6
176
     1
 41
-30.0
176
     1
 62
     5
 63
     7
421
 16777215
176
     1
 74
     1
176
     1
 91
        4
176
     1
 64
     7
176
     1
 65
   257
176
     1
 75
     1
176
     1
175
     1
176
     1
 42
1.0
176
     1
 92
        0
176
     1
 66
   257
176
     1
 43
1.0
176
     1
 76
     1
176
     1
 77
     6
176
     1
 78
     2
176
     1
 67
     7
176
     1
 79
     5
176
     1
170
     0
176
     1
171
     0
176
     1
290
     0
176
     1
 93
        1
176
     1
 44
0.0
176
     1
173
     0
176
     1
  0
VISUALSTYLE
  5
32
102
{ACAD_REACTORS
330
2A
102
}
330
2A
100
AcDbVisualStyle
  2
Basic
 70
     7
177
     2
291
     1
 71
     1
176
     1
 72
     0
176
     1
 73
     1
176
     1
 90
        0
176
     1
 40
-0.6
176
     1
 41
-30.0
176
     1
 62
     5
 63
     7
421
 16777215
176
     1
 74
     0
176
     1
 91
        4
176
     1
 64
     7
176
     1
 65
   257
176
     1
 75
     1
176
     1
175
     1
176
     1
 42
1.0
176
     1
 92
        8
176
     1
 66
     7
176
     1
 43
1.0
176
     1
 76
     1
176
     1
 77
     6
176
     1
 78
     2
176
     1
 67
     7
176
     1
 79
     5
176
     1
170
     0
176
     1
171
     0
176
     1
290
     0
176
     1
 93
        1
176
     1
 44
0.0
176
     1
173
     0
176
     1
  0
VISUALSTYLE
  5
36
102
{ACAD_REACTORS
330
2A
102
}
330
2A
100
AcDbVisualStyle
  2
Brighten
 70
    12
177
     2
291
     1
 71
     2
176
     1
 72
     2
176
     1
 73
     0
176
     1
 90
        0
176
     1
 40
-0.6
176
     1
 41
-30.0
176
     1
 62
     5
 63
     7
421
 16777215
176
     1
 74
     1
176
     1
 91
        4
176
     1
 64
     7
176
     1
 65
   257
176
     1
 75
     1
176
     1
175
     1
176
     1
 42
1.0
176
     1
 92
        8
176
     1
 66
     7
176
     1
 43
1.0
176
     1
 76
     1
176
     1
 77
     6
176
     1
 78
     2
176
     1
 67
     7
176
     1
 79
     5
176
     1
170
     0
176
     1
171
     0
176
     1
290
     0
176
     1
 93
        1
176
     1
 44
50.0
176
     1
173
     0
176
     1
  0
VISUALSTYLE
  5
3A
102
{ACAD_REACTORS
330
2A
102
}
330
2A
100
AcDbVisualStyle
  2
ColorChange
 70
    16
177
     2
291
     1
 71
     2
176
     1
 72
     2
176
     1
 73
     3
176
     1
 90
        0
176
     1
 40
-0.6
176
     1
 41
-30.0
176
     1
 62
     5
 63
     8
421
  8421504
176
     1
 74
     1
176
     1
 91
        4
176
     1
 64
     7
176
     1
 65
   257
176
     1
 75
     1
176
     1
175
     1
176
     1
 42
1.0
176
     1
 92
        8
176
     1
 66
     8
424
  8421504
176
     1
 43
1.0
176
     1
 76
     1
176
     1
 77
     6
176
     1
 78
     2
176
     1
 67
     7
176
     1
 79
     5
176
     1
170
     0
176
     1
171
     0
176
     1
290
     0
176
     1
 93
        1
176
     1
 44
0.0
176
     1
173
     0
176
     1
  0
VISUALSTYLE
  5
34
102
{ACAD_REACTORS
330
2A
102
}
330
2A
100
AcDbVisualStyle
  2
Conceptual
 70
     9
177
     2
291
     0
 71
     3
176
     1
 72
     2
176
     1
 73
     0
176
     1
 90
        0
176
     1
 40
-0.6
176
     1
 41
-30.0
176
     1
 62
     5
 63
     7
421
 16777215
176
     1
 74
     2
176
     1
 91
        2
176
     1
 64
     7
176
     1
 65
   257
176
     1
 75
     1
176
     1
175
     1
176
     1
 42
40.0
176
     1
 92
        8
176
     1
 66
     7
176
     1
 43
1.0
176
     1
 76
     1
176
     1
 77
     6
176
     1
 78
     2
176
     1
 67
     7
176
     1
 79
     3
176
     1
170
     0
176
     1
171
     0
176
     1
290
     0
176
     1
 93
        1
176
     1
 44
0.0
176
     1
173
     0
176
     1
  0
VISUALSTYLE
  5
35
102
{ACAD_REACTORS
330
2A
102
}
330
2A
100
AcDbVisualStyle
  2
Dim
 70
    11
177
     2
291
     1
 71
     2
176
     1
 72
     2
176
     1
 73
     0
176
     1
 90
        0
176
     1
 40
-0.6
176
     1
 41
-30.0
176
     1
 62
     5
 63
     7
421
 16777215
176
     1
 74
     1
176
     1
 91
        4
176
     1
 64
     7
176
     1
 65
   257
176
     1
 75
     1
176
     1
175
     1
176
     1
 42
1.0
176
     1
 92
        8
176
     1
 66
     7
176
     1
 43
1.0
176
     1
 76
     1
176
     1
 77
     6
176
     1
 78
     2
176
     1
 67
     7
176
     1
 79
     5
176
     1
170
     0
176
     1
171
     0
176
     1
290
     0
176
     1
 93
        1
176
     1
 44
-50.0
176
     1
173
     0
176
     1
  0
VISUALSTYLE
  5
39
102
{ACAD_REACTORS
330
2A
102
}
330
2A
100
AcDbVisualStyle
  2
Facepattern
 70
    15
177
     2
291
     1
 71
     2
176
     1
 72
     2
176
     1
 73
     0
176
     1
 90
        0
176
     1
 40
-0.6
176
     1
 41
-30.0
176
     1
 62
     5
 63
     7
421
 16777215
176
     1
 74
     1
176
     1
 91
        4
176
     1
 64
     7
176
     1
 65
   257
176
     1
 75
     1
176
     1
175
     1
176
     1
 42
1.0
176
     1
 92
        8
176
     1
 66
     7
176
     1
 43
1.0
176
     1
 76
     1
176
     1
 77
     6
176
     1
 78
     2
176
     1
 67
     7
176
     1
 79
     5
176
     1
170
     0
176
     1
171
     0
176
     1
290
     0
176
     1
 93
        1
176
     1
 44
0.0
176
     1
173
     0
176
     1
  0
VISUALSTYLE
  5
2B
102
{ACAD_REACTORS
330
2A
102
}
330
2A
100
AcDbVisualStyle
  2
Flat
 70
     0
177
     2
291
     1
 71
     2
176
     1
 72
     1
176
     1
 73
     1
176
     1
 90
        2
176
     1
 40
-0.6
176
     1
 41
30.0
176
     1
 62
     5
 63
     7
421
 16777215
176
     1
 74
     0
176
     1
 91
        4
176
     1
 64
     7
176
     1
 65
   257
176
     1
 75
     1
176
     1
175
     1
176
     1
 42
1.0
176
     1
 92
        8
176
     1
 66
     7
176
     1
 43
1.0
176
     1
 76
     1
176
     1
 77
     6
176
     1
 78
     2
176
     1
 67
     7
176
     1
 79
     5
176
     1
170
     0
176
     1
171
     0
176
     1
290
     0
176
     1
 93
       13
176
     1
 44
0.0
176
     1
173
     0
176
     1
  0
VISUALSTYLE
  5
2C
102
{ACAD_REACTORS
330
2A
102
}
330
2A
100
AcDbVisualStyle
  2
FlatWithEdges
 70
     1
177
     2
291
     1
 71
     2
176
     1
 72
     1
176
     1
 73
     1
176
     1
 90
        2
176
     1
 40
-0.6
176
     1
 41
30.0
176
     1
 62
     5
 63
     7
421
 16777215
176
     1
 74
     1
176
     1
 91
        4
176
     1
 64
     7
176
     1
 65
   257
176
     1
 75
     1
176
     1
175
     1
176
     1
 42
1.0
176
     1
 92
        0
176
     1
 66
   257
176
     1
 43
1.0
176
     1
 76
     1
176
     1
 77
     6
176
     1
 78
     2
176
     1
 67
     7
176
     1
 79
     5
176
     1
170
     0
176
     1
171
     0
176
     1
290
     0
176
     1
 93
       13
176
     1
 44
0.0
176
     1
173
     0
176
     1
  0
VISUALSTYLE
  5
2D
102
{ACAD_REACTORS
330
2A
102
}
330
2A
100
AcDbVisualStyle
  2
Gouraud
 70
     2
177
     2
291
     1
 71
     2
176
     1
 72
     2
176
     1
 73
     1
176
     1
 90
        2
176
     1
 40
-0.6
176
     1
 41
30.0
176
     1
 62
     5
 63
     7
421
 16777215
176
     1
 74
     0
176
     1
 91
        4
176
     1
 64
     7
176
     1
 65
   257
176
     1
 75
     1
176
     1
175
     1
176
     1
 42
1.0
176
     1
 92
        0
176
     1
 66
     7
176
     1
 43
1.0
176
     1
 76
     1
176
     1
 77
     6
176
     1
 78
     2
176
     1
 67
     7
176
     1
 79
     5
176
     1
170
     0
176
     1
171
     0
176
     1
290
     0
176
     1
 93
       13
176
     1
 44
0.0
176
     1
173
     0
176
     1
  0
VISUALSTYLE
  5
2E
102
{ACAD_REACTORS
330
2A
102
}
330
2A
100
AcDbVisualStyle
  2
GouraudWithEdges
 70
     3
177
     2
291
     1
 71
     2
176
     1
 72
     2
176
     1
 73
     1
176
     1
 90
        2
176
     1
 40
-0.6
176
     1
 41
30.0
176
     1
 62
     5
 63
     7
421
 16777215
176
     1
 74
     1
176
     1
 91
        4
176
     1
 64
     7
176
     1
 65
   257
176
     1
 75
     1
176
     1
175
     1
176
     1
 42
1.0
176
     1
 92
        0
176
     1
 66
   257
176
     1
 43
1.0
176
     1
 76
     1
176
     1
 77
     6
176
     1
 78
     2
176
     1
 67
     7
176
     1
 79
     5
176
     1
170
     0
176
     1
171
     0
176
     1
290
     0
176
     1
 93
       13
176
     1
 44
0.0
176
     1
173
     0
176
     1
  0
VISUALSTYLE
  5
38
102
{ACAD_REACTORS
330
2A
102
}
330
2A
100
AcDbVisualStyle
  2
Linepattern
 70
    14
177
     2
291
     1
 71
     2
176
     1
 72
     2
176
     1
 73
     0
176
     1
 90
        0
176
     1
 40
-0.6
176
     1
 41
-30.0
176
     1
 62
     5
 63
     7
421
 16777215
176
     1
 74
     1
176
     1
 91
        4
176
     1
 64
     7
176
     1
 65
   257
176
     1
 75
     7
176
     1
175
     7
176
     1
 42
1.0
176
     1
 92
        8
176
     1
 66
     7
176
     1
 43
1.0
176
     1
 76
     1
176
     1
 77
     6
176
     1
 78
     2
176
     1
 67
     7
176
     1
 79
     5
176
     1
170
     0
176
     1
171
     0
176
     1
290
     0
176
     1
 93
        1
176
     1
 44
0.0
176
     1
173
     0
176
     1
  0
VISUALSTYLE
  5
33
102
{ACAD_REACTORS
330
2A
102
}
330
2A
100
AcDbVisualStyle
  2
Realistic
 70
     8
177
     2
291
     0
 71
     2
176
     1
 72
     2
176
     1
 73
     0
176
     1
 90
        0
176
     1
 40
-0.6
176
     1
 41
-30.0
176
     1
 62
     5
 63
     7
421
 16777215
176
     1
 74
     1
176
     1
 91
        0
176
     1
 64
     7
176
     1
 65
   257
176
     1
 75
     1
176
     1
175
     1
176
     1
 42
1.0
176
     1
 92
        8
176
     1
 66
     8
424
  7895160
176
     1
 43
1.0
176
     1
 76
     1
176
     1
 77
     6
176
     1
 78
     2
176
     1
 67
     7
176
     1
 79
     5
176
     1
170
     0
176
     1
171
     0
176
     1
290
     0
176
     1
 93
       13
176
     1
 44
0.0
176
     1
173
     0
176
     1
  0
VISUALSTYLE
  5
37
102
{ACAD_REACTORS
330
2A
102
}
330
2A
100
AcDbVisualStyle
  2
Thicken
 70
    13
177
     2
291
     1
 71
     2
176
     1
 72
     2
176
     1
 73
     0
176
     1
 90
        0
176
     1
 40
-0.6
176
     1
 41
-30.0
176
     1
 62
     5
 63
     7
421
 16777215
176
     1
 74
     1
176
     1
 91
        4
176
     1
 64
     7
176
     1
 65
   257
176
     1
 75
     1
176
     1
175
     1
176
     1
 42
1.0
176
     1
 92
       12
176
     1
 66
     7
176
     1
 43
1.0
176
     1
 76
     1
176
     1
 77
     6
176
     1
 78
     2
176
     1
 67
     7
176
     1
 79
     5
176
     1
170
     0
176
     1
171
     0
176
     1
290
     0
176
     1
 93
        1
176
     1
 44
0.0
176
     1
173
     0
176
     1
  0
ENDSEC
  0
EOF
