  0
SECTION
  2
HEADER
  9
$ACADVER
  1
AC1024
  9
$ACADMAINTVER
 70
     6
  9
$DWGCODEPAGE
  3
ANSI_932
  9
$INSBASE
 10
0.0
 20
0.0
 30
0.0
  9
$EXTMIN
 10
-6300.0
 20
-4455.0
 30
0.0
  9
$EXTMAX
 10
6300.0
 20
4455.0
 30
0.0
  9
$LIMMIN
 10
-6300.0
 20
-4455.0
  9
$LIMMAX
 10
6300.0
 20
4455.0
  9
$ORTHOMODE
 70
     0
  9
$REGENMODE
 70
     1
  9
$FILLMODE
 70
     1
  9
$QTEXTMODE
 70
     0
  9
$MIRRTEXT
 70
     1
  9
$LTSCALE
 40
30.0
  9
$ATTMODE
 70
     1
  9
$TEXTSIZE
 40
2.5
  9
$TRACEWID
 40
1.0
  9
$TEXTSTYLE
  7
Standard
  9
$CLAYER
  8
0
  9
$CELTYPE
  6
ByLayer
  9
$CECOLOR
 62
   256
  9
$CELTSCALE
 40
1.0
  9
$DISPSILH
 70
     0
  9
$DIMSCALE
 40
1.0
  9
$DIMASZ
 40
2.5
  9
$DIMEXO
 40
0.625
  9
$DIMDLI
 40
3.75
  9
$DIMRND
 40
0.0
  9
$DIMDLE
 40
0.0
  9
$DIMEXE
 40
1.25
  9
$DIMTP
 40
0.0
  9
$DIMTM
 40
0.0
  9
$DIMTXT
 40
2.5
  9
$DIMCEN
 40
2.5
  9
$DIMTSZ
 40
0.0
  9
$DIMTOL
 70
     0
  9
$DIMLIM
 70
     0
  9
$DIMTIH
 70
     0
  9
$DIMTOH
 70
     0
  9
$DIMSE1
 70
     0
  9
$DIMSE2
 70
     0
  9
$DIMTAD
 70
     1
  9
$DIMZIN
 70
     8
  9
$DIMBLK
  1

  9
$DIMASO
 70
     1
  9
$DIMSHO
 70
     1
  9
$DIMPOST
  1

  9
$DIMAPOST
  1

  9
$DIMALT
 70
     0
  9
$DIMALTD
 70
     3
  9
$DIMALTF
 40
0.03937007874016
  9
$DIMLFAC
 40
1.0
  9
$DIMTOFL
 70
     1
  9
$DIMTVP
 40
0.0
  9
$DIMTIX
 70
     0
  9
$DIMSOXD
 70
     0
  9
$DIMSAH
 70
     0
  9
$DIMBLK1
  1

  9
$DIMBLK2
  1

  9
$DIMSTYLE
  2
ISO-25
  9
$DIMCLRD
 70
     0
  9
$DIMCLRE
 70
     0
  9
$DIMCLRT
 70
     0
  9
$DIMTFAC
 40
1.0
  9
$DIMGAP
 40
0.625
  9
$DIMJUST
 70
     0
  9
$DIMSD1
 70
     0
  9
$DIMSD2
 70
     0
  9
$DIMTOLJ
 70
     0
  9
$DIMTZIN
 70
     8
  9
$DIMALTZ
 70
     0
  9
$DIMALTTZ
 70
     0
  9
$DIMUPT
 70
     0
  9
$DIMDEC
 70
     2
  9
$DIMTDEC
 70
     2
  9
$DIMALTU
 70
     2
  9
$DIMALTTD
 70
     3
  9
$DIMTXSTY
  7
Standard
  9
$DIMAUNIT
 70
     0
  9
$DIMADEC
 70
     0
  9
$DIMALTRND
 40
0.0
  9
$DIMAZIN
 70
     0
  9
$DIMDSEP
 70
    44
  9
$DIMATFIT
 70
     3
  9
$DIMFRAC
 70
     0
  9
$DIMLDRBLK
  1

  9
$DIMLUNIT
 70
     2
  9
$DIMLWD
 70
    -2
  9
$DIMLWE
 70
    -2
  9
$DIMTMOVE
 70
     0
  9
$DIMFXL
 40
1.0
  9
$DIMFXLON
 70
     0
  9
$DIMJOGANG
 40
0.7853981633974483
  9
$DIMTFILL
 70
     0
  9
$DIMTFILLCLR
 70
     0
  9
$DIMARCSYM
 70
     0
  9
$DIMLTYPE
  6

  9
$DIMLTEX1
  6

  9
$DIMLTEX2
  6

  9
$DIMTXTDIRECTION
 70
     0
  9
$LUNITS
 70
     2
  9
$LUPREC
 70
     4
  9
$SKETCHINC
 40
1.0
  9
$FILLETRAD
 40
10.0
  9
$AUNITS
 70
     0
  9
$AUPREC
 70
     0
  9
$MENU
  1
.
  9
$ELEVATION
 40
0.0
  9
$PELEVATION
 40
0.0
  9
$THICKNESS
 40
0.0
  9
$LIMCHECK
 70
     0
  9
$CHAMFERA
 40
0.0
  9
$CHAMFERB
 40
0.0
  9
$CHAMFERC
 40
0.0
  9
$CHAMFERD
 40
0.0
  9
$SKPOLY
 70
     0
  9
$TDCREATE
 40
2458513.612156644
  9
$TDUCREATE
 40
2458513.237156644
  9
$TDUPDATE
 40
2458513.612157187
  9
$TDUUPDATE
 40
2458513.237157187
  9
$TDINDWG
 40
0.0000000116
  9
$TDUSRTIMER
 40
0.0000000116
  9
$USRTIMER
 70
     1
  9
$ANGBASE
 50
0.0
  9
$ANGDIR
 70
     0
  9
$PDMODE
 70
     0
  9
$PDSIZE
 40
0.0
  9
$PLINEWID
 40
0.0
  9
$SPLFRAME
 70
     0
  9
$SPLINETYPE
 70
     6
  9
$SPLINESEGS
 70
     8
  9
$HANDSEED
  5
4B3
  9
$SURFTAB1
 70
     6
  9
$SURFTAB2
 70
     6
  9
$SURFTYPE
 70
     6
  9
$SURFU
 70
     6
  9
$SURFV
 70
     6
  9
$UCSBASE
  2

  9
$UCSNAME
  2

  9
$UCSORG
 10
0.0
 20
0.0
 30
0.0
  9
$UCSXDIR
 10
1.0
 20
0.0
 30
0.0
  9
$UCSYDIR
 10
0.0
 20
1.0
 30
0.0
  9
$UCSORTHOREF
  2

  9
$UCSORTHOVIEW
 70
     0
  9
$UCSORGTOP
 10
0.0
 20
0.0
 30
0.0
  9
$UCSORGBOTTOM
 10
0.0
 20
0.0
 30
0.0
  9
$UCSORGLEFT
 10
0.0
 20
0.0
 30
0.0
  9
$UCSORGRIGHT
 10
0.0
 20
0.0
 30
0.0
  9
$UCSORGFRONT
 10
0.0
 20
0.0
 30
0.0
  9
$UCSORGBACK
 10
0.0
 20
0.0
 30
0.0
  9
$PUCSBASE
  2

  9
$PUCSNAME
  2

  9
$PUCSORG
 10
0.0
 20
0.0
 30
0.0
  9
$PUCSXDIR
 10
1.0
 20
0.0
 30
0.0
  9
$PUCSYDIR
 10
0.0
 20
1.0
 30
0.0
  9
$PUCSORTHOREF
  2

  9
$PUCSORTHOVIEW
 70
     0
  9
$PUCSORGTOP
 10
0.0
 20
0.0
 30
0.0
  9
$PUCSORGBOTTOM
 10
0.0
 20
0.0
 30
0.0
  9
$PUCSORGLEFT
 10
0.0
 20
0.0
 30
0.0
  9
$PUCSORGRIGHT
 10
0.0
 20
0.0
 30
0.0
  9
$PUCSORGFRONT
 10
0.0
 20
0.0
 30
0.0
  9
$PUCSORGBACK
 10
0.0
 20
0.0
 30
0.0
  9
$USERI1
 70
     0
  9
$USERI2
 70
     0
  9
$USERI3
 70
     0
  9
$USERI4
 70
     0
  9
$USERI5
 70
     0
  9
$USERR1
 40
0.0
  9
$USERR2
 40
0.0
  9
$USERR3
 40
0.0
  9
$USERR4
 40
0.0
  9
$USERR5
 40
0.0
  9
$WORLDVIEW
 70
     1
  9
$SHADEDGE
 70
     3
  9
$SHADEDIF
 70
    70
  9
$TILEMODE
 70
     1
  9
$MAXACTVP
 70
    64
  9
$PINSBASE
 10
0.0
 20
0.0
 30
0.0
  9
$PLIMCHECK
 70
     0
  9
$PEXTMIN
 10
1.000000000000000E+20
 20
1.000000000000000E+20
 30
1.000000000000000E+20
  9
$PEXTMAX
 10
-1.000000000000000E+20
 20
-1.000000000000000E+20
 30
-1.000000000000000E+20
  9
$PLIMMIN
 10
0.0
 20
0.0
  9
$PLIMMAX
 10
420.0
 20
297.0
  9
$UNITMODE
 70
     0
  9
$VISRETAIN
 70
     1
  9
$PLINEGEN
 70
     0
  9
$PSLTSCALE
 70
     1
  9
$TREEDEPTH
 70
  3020
  9
$CMLSTYLE
  2
Standard
  9
$CMLJUST
 70
     0
  9
$CMLSCALE
 40
20.0
  9
$PROXYGRAPHICS
 70
     1
  9
$MEASUREMENT
 70
     1
  9
$CELWEIGHT
370
    -1
  9
$ENDCAPS
280
     0
  9
$JOINSTYLE
280
     0
  9
$LWDISPLAY
290
     0
  9
$INSUNITS
 70
     4
  9
$HYPERLINKBASE
  1

  9
$STYLESHEET
  1

  9
$XEDIT
290
     1
  9
$CEPSNTYPE
380
     0
  9
$PSTYLEMODE
290
     1
  9
$FINGERPRINTGUID
  2
{4FE8F6AC-F3E5-4A81-9FA4-045735D696DC}
  9
$VERSIONGUID
  2
{FAEB1C32-E019-11D5-929B-00C0DF256EC4}
  9
$EXTNAMES
290
     1
  9
$PSVPSCALE
 40
0.0
  9
$OLESTARTUP
290
     0
  9
$SORTENTS
280
   127
  9
$INDEXCTL
280
     0
  9
$HIDETEXT
280
     1
  9
$XCLIPFRAME
280
     2
  9
$HALOGAP
280
     0
  9
$OBSCOLOR
 70
   257
  9
$OBSLTYPE
280
     0
  9
$INTERSECTIONDISPLAY
280
     0
  9
$INTERSECTIONCOLOR
 70
   257
  9
$DIMASSOC
280
     2
  9
$PROJECTNAME
  1

  9
$CAMERADISPLAY
290
     0
  9
$LENSLENGTH
 40
50.0
  9
$CAMERAHEIGHT
 40
0.0
  9
$STEPSPERSEC
 40
2.0
  9
$STEPSIZE
 40
6.0
  9
$3DDWFPREC
 40
2.0
  9
$PSOLWIDTH
 40
5.0
  9
$PSOLHEIGHT
 40
80.0
  9
$LOFTANG1
 40
1.570796326794897
  9
$LOFTANG2
 40
1.570796326794897
  9
$LOFTMAG1
 40
0.0
  9
$LOFTMAG2
 40
0.0
  9
$LOFTPARAM
 70
     7
  9
$LOFTNORMALS
280
     1
  9
$LATITUDE
 40
37.795
  9
$LONGITUDE
 40
-122.394
  9
$NORTHDIRECTION
 40
0.0
  9
$TIMEZONE
 70
 -8000
  9
$LIGHTGLYPHDISPLAY
280
     1
  9
$TILEMODELIGHTSYNCH
280
     1
  9
$CMATERIAL
347
44
  9
$SOLIDHIST
280
     0
  9
$SHOWHIST
280
     1
  9
$DWFFRAME
280
     2
  9
$DGNFRAME
280
     2
  9
$REALWORLDSCALE
290
     1
  9
$INTERFERECOLOR
 62
   256
  9
$CSHADOW
280
     0
  9
$SHADOWPLANELOCATION
 40
0.0
  0
ENDSEC
  0
SECTION
  2
CLASSES
  0
CLASS
  1
ACDBDICTIONARYWDFLT
  2
AcDbDictionaryWithDefault
  3
ObjectDBX Classes
 90
        0
 91
        4
280
     0
281
     0
  0
CLASS
  1
VISUALSTYLE
  2
AcDbVisualStyle
  3
ObjectDBX Classes
 90
     4095
 91
        4
280
     0
281
     0
  0
CLASS
  1
MATERIAL
  2
AcDbMaterial
  3
ObjectDBX Classes
 90
     1153
 91
        4
280
     0
281
     0
  0
CLASS
  1
SCALE
  2
AcDbScale
  3
ObjectDBX Classes
 90
     1153
 91
        4
280
     0
281
     0
  0
CLASS
  1
TABLESTYLE
  2
AcDbTableStyle
  3
ObjectDBX Classes
 90
     4095
 91
        4
280
     0
281
     0
  0
CLASS
  1
MLEADERSTYLE
  2
AcDbMLeaderStyle
  3
ACDB_MLEADERSTYLE_CLASS
 90
     4095
 91
        4
280
     0
281
     0
  0
CLASS
  1
SUN
  2
AcDbSun
  3
SCENEOE
 90
     1153
 91
        4
280
     0
281
     0
  0
CLASS
  1
DICTIONARYVAR
  2
AcDbDictionaryVar
  3
ObjectDBX Classes
 90
        0
 91
        4
280
     0
281
     0
  0
CLASS
  1
CELLSTYLEMAP
  2
AcDbCellStyleMap
  3
ObjectDBX Classes
 90
     1152
 91
        4
280
     0
281
     0
  0
ENDSEC
  0
SECTION
  2
TABLES
  0
TABLE
  2
VPORT
  5
8
330
0
100
AcDbSymbolTable
 70
     1
  0
VPORT
  5
29
330
8
100
AcDbSymbolTableRecord
100
AcDbViewportTableRecord
  2
*Active
 70
     0
 10
0.0
 20
0.0
 11
1.0
 21
1.0
 12
0.0
 22
0.0
 13
0.0
 23
0.0
 14
10.0
 24
10.0
 15
10.0
 25
10.0
 16
0.0
 26
0.0
 36
1.0
 17
0.0
 27
0.0
 37
0.0
 40
9801.0
 41
1.414141414141414
 42
50.0
 43
0.0
 44
0.0
 50
0.0
 51
0.0
 71
     0
 72
 10000
 73
     1
 74
     3
 75
     0
 76
     0
 77
     0
 78
     0
281
     0
 65
     1
110
0.0
120
0.0
130
0.0
111
1.0
121
0.0
131
0.0
112
0.0
122
1.0
132
0.0
 79
     0
146
0.0
348
2F
 60
     3
 61
     5
292
     1
282
     1
141
0.0
142
0.0
 63
   250
361
6D
  0
ENDTAB
  0
TABLE
  2
LTYPE
  5
5
330
0
100
AcDbSymbolTable
 70
     3
  0
LTYPE
  5
14
330
5
100
AcDbSymbolTableRecord
100
AcDbLinetypeTableRecord
  2
ByBlock
 70
     0
  3

 72
    65
 73
     0
 40
0.0
  0
LTYPE
  5
15
330
5
100
AcDbSymbolTableRecord
100
AcDbLinetypeTableRecord
  2
ByLayer
 70
     0
  3

 72
    65
 73
     0
 40
0.0
  0
LTYPE
  5
16
330
5
100
AcDbSymbolTableRecord
100
AcDbLinetypeTableRecord
  2
Continuous
 70
     0
  3
Solid line
 72
    65
 73
     0
 40
0.0
  0
LTYPE
  5
70
330
5
100
AcDbSymbolTableRecord
100
AcDbLinetypeTableRecord
  2
JWW_HOJO
 70
     0
  3
  -   -   -   -   -   -   -   - 
 72
    65
 73
     2
 40
1.693333333333333
 49
-1.27
 74
     0
 49
0.4233333333333333
 74
     0
  0
LTYPE
  5
71
330
5
100
AcDbSymbolTableRecord
100
AcDbLinetypeTableRecord
  2
JWW_CENTER1
 70
     0
  3
-----  --  ----------  --  -----
 72
    65
 73
     4
 40
3.386666666666667
 49
2.116666666666667
 74
     0
 49
-0.4233333333333333
 74
     0
 49
0.4233333333333333
 74
     0
 49
-0.4233333333333333
 74
     0
  0
ENDTAB
  0
TABLE
  2
LAYER
  5
2
330
0
100
AcDbSymbolTable
 70
    13
  0
LAYER
  5
10
330
2
100
AcDbSymbolTableRecord
100
AcDbLayerTableRecord
  2
0
 70
     0
 62
     7
  6
Continuous
370
    -3
390
F
347
46
  0
LAYER
  5
72
330
2
100
AcDbSymbolTableRecord
100
AcDbLayerTableRecord
  2
0-4_枠
 70
     0
 62
     7
  6
Continuous
370
    -3
390
F
347
46
  0
LAYER
  5
73
330
2
100
AcDbSymbolTableRecord
100
AcDbLayerTableRecord
  2
0-B_寸法
 70
     0
 62
     7
  6
Continuous
370
    -3
390
F
347
46
  0
LAYER
  5
74
330
2
100
AcDbSymbolTableRecord
100
AcDbLayerTableRecord
  2
0-0_補助線
 70
     0
 62
     7
  6
Continuous
370
    -3
390
F
347
46
  0
LAYER
  5
75
330
2
100
AcDbSymbolTableRecord
100
AcDbLayerTableRecord
  2
F-0_補助線
 70
     0
 62
     7
  6
Continuous
370
    -3
390
F
347
46
  0
LAYER
  5
76
330
2
100
AcDbSymbolTableRecord
100
AcDbLayerTableRecord
  2
F-1_枠
 70
     0
 62
     7
  6
Continuous
370
    -3
390
F
347
46
  0
LAYER
  5
77
330
2
100
AcDbSymbolTableRecord
100
AcDbLayerTableRecord
  2
0-2_扉
 70
     0
 62
     7
  6
Continuous
370
    -3
390
F
347
46
  0
LAYER
  5
78
330
2
100
AcDbSymbolTableRecord
100
AcDbLayerTableRecord
  2
0-3_仕上げ
 70
     0
 62
     7
  6
Continuous
370
    -3
390
F
347
46
  0
LAYER
  5
79
330
2
100
AcDbSymbolTableRecord
100
AcDbLayerTableRecord
  2
F-A_文字
 70
     0
 62
     7
  6
Continuous
370
    -3
390
F
347
46
  0
LAYER
  5
7A
330
2
100
AcDbSymbolTableRecord
100
AcDbLayerTableRecord
  2
0-1_通り芯
 70
     0
 62
    -7
  6
Continuous
370
    -3
390
F
347
46
  0
LAYER
  5
7B
330
2
100
AcDbSymbolTableRecord
100
AcDbLayerTableRecord
  2
0-8_取手W
 70
     0
 62
    -7
  6
Continuous
370
    -3
390
F
347
46
  0
LAYER
  5
7C
330
2
100
AcDbSymbolTableRecord
100
AcDbLayerTableRecord
  2
0-7_取手GEK
 70
     0
 62
     7
  6
Continuous
370
    -3
390
F
347
46
  0
LAYER
  5
7D
330
2
100
AcDbSymbolTableRecord
100
AcDbLayerTableRecord
  2
0-A_文字
 70
     0
 62
     7
  6
Continuous
370
    -3
390
F
347
46
  0
ENDTAB
  0
TABLE
  2
STYLE
  5
3
330
0
100
AcDbSymbolTable
 70
     3
  0
STYLE
  5
11
330
3
100
AcDbSymbolTableRecord
100
AcDbTextStyleTableRecord
  2
Standard
 70
     0
 40
0.0
 41
1.0
 50
0.0
 71
     0
 42
2.5
  3
txt
  4

  0
STYLE
  5
6E
330
3
100
AcDbSymbolTableRecord
100
AcDbTextStyleTableRecord
  2
ＭＳ ゴシック
 70
     0
 40
1.0
 41
1.0
 50
0.0
 71
     0
 42
2.5
  3

  4

1001
ACAD
1000
MS Gothic
1071
    32817
  0
STYLE
  5
6F
330
3
100
AcDbSymbolTableRecord
100
AcDbTextStyleTableRecord
  2
HG明朝B
 70
     0
 40
1.0
 41
1.0
 50
0.0
 71
     0
 42
2.5
  3

  4

1001
ACAD
1000
HGMinchoB
1071
    32785
  0
ENDTAB
  0
TABLE
  2
VIEW
  5
6
330
0
100
AcDbSymbolTable
 70
     0
  0
ENDTAB
  0
TABLE
  2
UCS
  5
7
330
0
100
AcDbSymbolTable
 70
     0
  0
ENDTAB
  0
TABLE
  2
APPID
  5
9
330
0
100
AcDbSymbolTable
 70
     1
  0
APPID
  5
12
330
9
100
AcDbSymbolTableRecord
100
AcDbRegAppTableRecord
  2
ACAD
 70
     0
  0
ENDTAB
  0
TABLE
  2
DIMSTYLE
  5
A
330
0
100
AcDbSymbolTable
 70
     1
100
AcDbDimStyleTable
  0
DIMSTYLE
105
27
330
A
100
AcDbSymbolTableRecord
100
AcDbDimStyleTableRecord
  2
ISO-25
 70
     0
 41
2.5
 42
0.625
 43
3.75
 44
1.25
 73
     0
 74
     0
 77
     1
 78
     8
140
2.5
141
2.5
143
0.03937007874016
147
0.625
171
     3
172
     1
178
     0
271
     2
272
     2
274
     3
278
    44
283
     0
284
     8
340
11
  0
ENDTAB
  0
TABLE
  2
BLOCK_RECORD
  5
1
330
0
100
AcDbSymbolTable
 70
     1
  0
BLOCK_RECORD
  5
1F
330
1
100
AcDbSymbolTableRecord
100
AcDbBlockTableRecord
  2
*Model_Space
340
22
 70
     0
280
     1
281
     0
  0
BLOCK_RECORD
  5
1B
330
1
100
AcDbSymbolTableRecord
100
AcDbBlockTableRecord
  2
*Paper_Space
340
1E
 70
     0
280
     1
281
     0
  0
BLOCK_RECORD
  5
23
330
1
100
AcDbSymbolTableRecord
100
AcDbBlockTableRecord
  2
*Paper_Space0
340
26
 70
     0
280
     1
281
     0
  0
ENDTAB
  0
ENDSEC
  0
SECTION
  2
BLOCKS
  0
BLOCK
  5
20
330
1F
100
AcDbEntity
  8
0
100
AcDbBlockBegin
  2
*Model_Space
 70
     0
 10
0.0
 20
0.0
 30
0.0
  3
*Model_Space
  1

  0
ENDBLK
  5
21
330
1F
100
AcDbEntity
  8
0
100
AcDbBlockEnd
  0
BLOCK
  5
1C
330
1B
100
AcDbEntity
 67
     1
  8
0
100
AcDbBlockBegin
  2
*Paper_Space
 70
     0
 10
0.0
 20
0.0
 30
0.0
  3
*Paper_Space
  1

  0
ENDBLK
  5
1D
330
1B
100
AcDbEntity
 67
     1
  8
0
100
AcDbBlockEnd
  0
BLOCK
  5
24
330
23
100
AcDbEntity
  8
0
100
AcDbBlockBegin
  2
*Paper_Space0
 70
     0
 10
0.0
 20
0.0
 30
0.0
  3
*Paper_Space0
  1

  0
ENDBLK
  5
25
330
23
100
AcDbEntity
  8
0
100
AcDbBlockEnd
  0
ENDSEC
  0
SECTION
  2
ENTITIES
  0
LINE
  5
7E
330
1F
100
AcDbEntity
  8
0-4_枠
  6
Continuous
 62
    92
370
    13
100
AcDbLine
 10
-4697.399798419024
 20
1218.000148463894
 30
0.0
 11
-3963.399798419023
 21
1218.000148463894
 31
0.0
  0
LINE
  5
7F
330
1F
100
AcDbEntity
  8
0-4_枠
  6
Continuous
 62
    92
370
    13
100
AcDbLine
 10
-4667.399798419024
 20
1233.000148463894
 30
0.0
 11
-3993.399798419023
 21
1233.000148463894
 31
0.0
  0
LINE
  5
80
330
1F
100
AcDbEntity
  8
0-B_寸法
  6
Continuous
 62
   120
370
     5
100
AcDbLine
 10
-4665.399798419024
 20
918.0001484638937
 30
0.0
 11
-4331.399798419024
 21
918.0001484638937
 31
0.0
  0
LINE
  5
81
330
1F
100
AcDbEntity
  8
0-B_寸法
  6
Continuous
 62
   120
370
     5
100
AcDbLine
 10
-4665.399798419024
 20
918.0001484638937
 30
0.0
 11
-4665.399798419024
 21
1168.000148463894
 31
0.0
  0
LINE
  5
82
330
1F
100
AcDbEntity
  8
0-B_寸法
  6
Continuous
 62
   120
370
     5
100
AcDbLine
 10
-4331.399798419024
 20
918.0001484638937
 30
0.0
 11
-4331.399798419024
 21
1168.000148463894
 31
0.0
  0
LINE
  5
83
330
1F
100
AcDbEntity
  8
0-B_寸法
  6
Continuous
 62
   120
370
     5
100
AcDbLine
 10
-4331.399798419024
 20
918.0001484638937
 30
0.0
 11
-4329.399798419023
 21
918.0001484638937
 31
0.0
  0
LINE
  5
84
330
1F
100
AcDbEntity
  8
0-B_寸法
  6
Continuous
 62
   120
370
     5
100
AcDbLine
 10
-4329.399798419023
 20
918.0001484638937
 30
0.0
 11
-4329.399798419023
 21
1168.000148463894
 31
0.0
  0
LINE
  5
85
330
1F
100
AcDbEntity
  8
0-B_寸法
  6
Continuous
 62
   120
370
     5
100
AcDbLine
 10
-4329.399798419023
 20
918.0001484638937
 30
0.0
 11
-3995.399798419023
 21
918.0001484638937
 31
0.0
  0
LINE
  5
86
330
1F
100
AcDbEntity
  8
0-B_寸法
  6
Continuous
 62
   120
370
     5
100
AcDbLine
 10
-3995.399798419023
 20
918.0001484638937
 30
0.0
 11
-3995.399798419023
 21
1168.000148463894
 31
0.0
  0
LINE
  5
87
330
1F
100
AcDbEntity
  8
0-B_寸法
  6
Continuous
 62
   120
370
     5
100
AcDbLine
 10
-4330.399798419024
 20
918.0001484638937
 30
0.0
 11
-4291.426300679595
 21
1063.451222176111
 31
0.0
  0
LINE
  5
88
330
1F
100
AcDbEntity
  8
0-B_寸法
  6
Continuous
 62
   120
370
     5
100
AcDbLine
 10
-4291.426300679595
 20
1063.451222176111
 30
0.0
 11
-4239.488936942846
 21
1063.451222176111
 31
0.0
  0
LWPOLYLINE
  5
89
330
1F
100
AcDbEntity
  8
0-B_寸法
  6
Continuous
 62
     7
370
     9
100
AcDbPolyline
 90
        4
 70
     1
 43
6.0
 10
-4662.399798419024
 20
918.0001484638937
 42
0.4142135623731
 10
-4665.399798419024
 20
921.0001484638938
 42
0.4142135623731
 10
-4668.399798419024
 20
918.0001484638937
 42
0.4142135623731
 10
-4665.399798419024
 20
915.0001484638937
 42
0.4142135623731
  0
LWPOLYLINE
  5
8A
330
1F
100
AcDbEntity
  8
0-B_寸法
  6
Continuous
 62
     7
370
     9
100
AcDbPolyline
 90
        4
 70
     1
 43
6.0
 10
-4328.399798419024
 20
918.0001484638937
 42
0.4142135623731
 10
-4331.399798419024
 20
921.0001484638938
 42
0.4142135623731
 10
-4334.399798419024
 20
918.0001484638937
 42
0.4142135623731
 10
-4331.399798419024
 20
915.0001484638937
 42
0.4142135623731
  0
LWPOLYLINE
  5
8B
330
1F
100
AcDbEntity
  8
0-B_寸法
  6
Continuous
 62
     7
370
     9
100
AcDbPolyline
 90
        4
 70
     1
 43
6.0
 10
-4326.399798419023
 20
918.0001484638937
 42
0.4142135623731
 10
-4329.399798419023
 20
921.0001484638938
 42
0.4142135623731
 10
-4332.399798419023
 20
918.0001484638937
 42
0.4142135623731
 10
-4329.399798419023
 20
915.0001484638937
 42
0.4142135623731
  0
LWPOLYLINE
  5
8C
330
1F
100
AcDbEntity
  8
0-B_寸法
  6
Continuous
 62
     7
370
     9
100
AcDbPolyline
 90
        4
 70
     1
 43
6.0
 10
-3992.399798419023
 20
918.0001484638937
 42
0.4142135623731
 10
-3995.399798419023
 20
921.0001484638938
 42
0.4142135623731
 10
-3998.399798419023
 20
918.0001484638937
 42
0.4142135623731
 10
-3995.399798419023
 20
915.0001484638937
 42
0.4142135623731
  0
LINE
  5
8D
330
1F
100
AcDbEntity
  8
0-0_補助線
  6
JWW_HOJO
 62
     7
370
     9
100
AcDbLine
 10
-3258.399798419024
 20
3964.999818544131
 30
0.0
 11
-3258.399798419024
 21
-3790.000179909372
 31
0.0
  0
LINE
  5
8E
330
1F
100
AcDbEntity
  8
F-0_補助線
  6
JWW_HOJO
 62
   120
370
     5
100
AcDbLine
 10
-6300.0
 20
-4455.0
 30
0.0
 11
-6300.0
 21
4424.999604096284
 31
0.0
  0
LINE
  5
8F
330
1F
100
AcDbEntity
  8
F-0_補助線
  6
JWW_HOJO
 62
   120
370
     5
100
AcDbLine
 10
-6300.0
 20
4424.999604096284
 30
0.0
 11
5999.999010240709
 21
4424.999604096284
 31
0.0
  0
LINE
  5
90
330
1F
100
AcDbEntity
  8
F-0_補助線
  6
JWW_HOJO
 62
   120
370
     5
100
AcDbLine
 10
5999.999010240709
 20
4424.999604096284
 30
0.0
 11
5999.999010240709
 21
-4455.0
 31
0.0
  0
LINE
  5
91
330
1F
100
AcDbEntity
  8
F-0_補助線
  6
JWW_HOJO
 62
   120
370
     5
100
AcDbLine
 10
5999.999010240709
 20
-4455.0
 30
0.0
 11
-6300.0
 21
-4455.0
 31
0.0
  0
LINE
  5
92
330
1F
100
AcDbEntity
  8
F-1_枠
  6
Continuous
 62
   200
370
    20
100
AcDbLine
 10
-5999.999752560178
 20
4164.999983504013
 30
0.0
 11
5699.998762800888
 21
4164.999983504013
 31
0.0
  0
LINE
  5
93
330
1F
100
AcDbEntity
  8
F-1_枠
  6
Continuous
 62
   200
370
    20
100
AcDbLine
 10
-5999.999752560178
 20
4169.999505120355
 30
0.0
 11
5699.998762800888
 21
4169.999505120355
 31
0.0
  0
LINE
  5
94
330
1F
100
AcDbEntity
  8
F-1_枠
  6
Continuous
 62
   200
370
    20
100
AcDbLine
 10
-5999.999752560178
 20
4174.999769056166
 30
0.0
 11
5699.998762800888
 21
4174.999769056166
 31
0.0
  0
LINE
  5
95
330
1F
100
AcDbEntity
  8
F-1_枠
  6
Continuous
 62
   200
370
    20
100
AcDbLine
 10
5689.998977248734
 20
4174.999769056166
 30
0.0
 11
5689.998977248734
 21
-4205.000164959882
 31
0.0
  0
LINE
  5
96
330
1F
100
AcDbEntity
  8
F-1_枠
  6
Continuous
 62
   200
370
    20
100
AcDbLine
 10
5694.998498865077
 20
4174.999769056166
 30
0.0
 11
5694.998498865077
 21
-4205.000164959882
 31
0.0
  0
LINE
  5
97
330
1F
100
AcDbEntity
  8
F-1_枠
  6
Continuous
 62
   200
370
    20
100
AcDbLine
 10
5699.998762800888
 20
4174.999769056166
 30
0.0
 11
5699.998762800888
 21
-4205.000164959882
 31
0.0
  0
LINE
  5
98
330
1F
100
AcDbEntity
  8
F-1_枠
  6
Continuous
 62
   200
370
    20
100
AcDbLine
 10
-5989.999990205507
 20
4174.999769056166
 30
0.0
 11
-5989.999990205507
 21
-4205.000164959882
 31
0.0
  0
LINE
  5
99
330
1F
100
AcDbEntity
  8
F-1_枠
  6
Continuous
 62
   200
370
    20
100
AcDbLine
 10
-5994.999975771518
 20
4174.999769056166
 30
0.0
 11
-5994.999975771518
 21
-4205.000164959882
 31
0.0
  0
LINE
  5
9A
330
1F
100
AcDbEntity
  8
F-1_枠
  6
Continuous
 62
   200
370
    20
100
AcDbLine
 10
-5999.999984535011
 20
4174.999769056166
 30
0.0
 11
-5999.999984535011
 21
-4205.000164959882
 31
0.0
  0
LINE
  5
9B
330
1F
100
AcDbEntity
  8
F-1_枠
  6
Continuous
 62
   200
370
    20
100
AcDbLine
 10
-5999.999752560178
 20
3964.999818544131
 30
0.0
 11
5699.998762800888
 21
3964.999818544131
 31
0.0
  0
LINE
  5
9C
330
1F
100
AcDbEntity
  8
F-1_枠
  6
Continuous
 62
   200
370
    20
100
AcDbLine
 10
-5989.999990205507
 20
-15.50015011349217
 30
0.0
 11
5689.998977248734
 21
-15.50015011349217
 31
0.0
  0
LINE
  5
9D
330
1F
100
AcDbEntity
  8
F-1_枠
  6
Continuous
 62
   200
370
    20
100
AcDbLine
 10
-5989.999990205507
 20
190.5001831054688
 30
0.0
 11
5689.998977248734
 21
190.5001831054688
 31
0.0
  0
LINE
  5
9E
330
1F
100
AcDbEntity
  8
F-1_枠
  6
Continuous
 62
   200
370
    20
100
AcDbLine
 10
-5989.999990205507
 20
184.5000148463899
 30
0.0
 11
5689.998977248734
 21
184.5000148463899
 31
0.0
  0
LINE
  5
9F
330
1F
100
AcDbEntity
  8
F-1_枠
  6
Continuous
 62
   200
370
    20
100
AcDbLine
 10
-5490.000018557987
 20
4174.999769056166
 30
0.0
 11
-5490.000018557987
 21
-3790.000179909372
 31
0.0
  0
LINE
  5
A0
330
1F
100
AcDbEntity
  8
F-1_枠
  6
Continuous
 62
   200
370
    20
100
AcDbLine
 10
-3258.399798419024
 20
4174.999769056166
 30
0.0
 11
-3258.399798419024
 21
-3790.000179909372
 31
0.0
  0
LINE
  5
A1
330
1F
100
AcDbEntity
  8
F-0_補助線
  6
JWW_HOJO
 62
   200
370
    20
100
AcDbLine
 10
-5989.999990205507
 20
84.49993236644843
 30
0.0
 11
5689.998977248734
 21
84.49993236644843
 31
0.0
  0
LINE
  5
A2
330
1F
100
AcDbEntity
  8
F-1_枠
  6
Continuous
 62
   200
370
    20
100
AcDbLine
 10
-5989.999990205507
 20
187.5000989759289
 30
0.0
 11
5689.998977248734
 21
187.5000989759289
 31
0.0
  0
LINE
  5
A3
330
1F
100
AcDbEntity
  8
0-4_枠
  6
Continuous
 62
    92
370
    13
100
AcDbLine
 10
-2465.799671069995
 20
1218.000148463894
 30
0.0
 11
-1731.799671069995
 21
1218.000148463894
 31
0.0
  0
LINE
  5
A4
330
1F
100
AcDbEntity
  8
0-4_枠
  6
Continuous
 62
    92
370
    13
100
AcDbLine
 10
-2435.799671069995
 20
1233.000148463894
 30
0.0
 11
-1761.799671069995
 21
1233.000148463894
 31
0.0
  0
LINE
  5
A5
330
1F
100
AcDbEntity
  8
0-4_枠
  6
Continuous
 62
    92
370
    13
100
AcDbLine
 10
-234.1999148807008
 20
1218.000148463894
 30
0.0
 11
499.8000851192992
 21
1218.000148463894
 31
0.0
  0
LINE
  5
A6
330
1F
100
AcDbEntity
  8
0-4_枠
  6
Continuous
 62
    92
370
    13
100
AcDbLine
 10
-204.1999148807008
 20
1233.000148463894
 30
0.0
 11
469.8000851192992
 21
1233.000148463894
 31
0.0
  0
LINE
  5
A7
330
1F
100
AcDbEntity
  8
0-4_枠
  6
Continuous
 62
    92
370
    13
100
AcDbLine
 10
1997.400212468328
 20
1218.000148463894
 30
0.0
 11
2731.400212468328
 21
1218.000148463894
 31
0.0
  0
LINE
  5
A8
330
1F
100
AcDbEntity
  8
0-4_枠
  6
Continuous
 62
    92
370
    13
100
AcDbLine
 10
2027.400212468328
 20
1233.000148463894
 30
0.0
 11
2701.400212468328
 21
1233.000148463894
 31
0.0
  0
LINE
  5
A9
330
1F
100
AcDbEntity
  8
0-4_枠
  6
Continuous
 62
    92
370
    13
100
AcDbLine
 10
4229.000339817357
 20
1218.000148463894
 30
0.0
 11
4963.000339817357
 21
1218.000148463894
 31
0.0
  0
LINE
  5
AA
330
1F
100
AcDbEntity
  8
0-4_枠
  6
Continuous
 62
    92
370
    13
100
AcDbLine
 10
4259.000339817357
 20
1233.000148463894
 30
0.0
 11
4933.000339817357
 21
1233.000148463894
 31
0.0
  0
LINE
  5
AB
330
1F
100
AcDbEntity
  8
0-0_補助線
  6
JWW_HOJO
 62
     7
370
     9
100
AcDbLine
 10
3436.400212468328
 20
4164.999983504013
 30
0.0
 11
3436.400212468328
 21
-3790.000179909372
 31
0.0
  0
LINE
  5
AC
330
1F
100
AcDbEntity
  8
0-0_補助線
  6
JWW_HOJO
 62
     7
370
     9
100
AcDbLine
 10
-1026.799671069995
 20
4164.999983504013
 30
0.0
 11
-1026.799671069995
 21
-3790.000179909372
 31
0.0
  0
LINE
  5
AD
330
1F
100
AcDbEntity
  8
0-0_補助線
  6
JWW_HOJO
 62
     7
370
     9
100
AcDbLine
 10
1204.800085119299
 20
4164.999983504013
 30
0.0
 11
1204.800085119299
 21
-3790.000179909372
 31
0.0
  0
LINE
  5
AE
330
1F
100
AcDbEntity
  8
F-1_枠
  6
Continuous
 62
   200
370
    20
100
AcDbLine
 10
-1026.799671069995
 20
4164.999983504013
 30
0.0
 11
-1026.799671069995
 21
-3790.000179909372
 31
0.0
  0
LINE
  5
AF
330
1F
100
AcDbEntity
  8
F-1_枠
  6
Continuous
 62
   200
370
    20
100
AcDbLine
 10
1204.800085119299
 20
4164.999983504013
 30
0.0
 11
1204.800085119299
 21
-3790.000179909372
 31
0.0
  0
LINE
  5
B0
330
1F
100
AcDbEntity
  8
F-1_枠
  6
Continuous
 62
   200
370
    20
100
AcDbLine
 10
3436.400212468328
 20
4164.999983504013
 30
0.0
 11
3436.400212468328
 21
-3790.000179909372
 31
0.0
  0
LINE
  5
B1
330
1F
100
AcDbEntity
  8
0-0_補助線
  6
JWW_HOJO
 62
     7
370
     9
100
AcDbLine
 10
-5490.000018557987
 20
1218.000148463894
 30
0.0
 11
5699.998762800888
 21
1218.000148463894
 31
0.0
  0
LINE
  5
B2
330
1F
100
AcDbEntity
  8
0-0_補助線
  6
JWW_HOJO
 62
   120
370
     5
100
AcDbLine
 10
-5490.000018557987
 20
1168.000148463894
 30
0.0
 11
5699.998762800888
 21
1168.000148463894
 31
0.0
  0
LINE
  5
B3
330
1F
100
AcDbEntity
  8
0-B_寸法
  6
Continuous
 62
   120
370
     5
100
AcDbLine
 10
-2433.799671069995
 20
918.0001484638937
 30
0.0
 11
-2099.799671069996
 21
918.0001484638937
 31
0.0
  0
LINE
  5
B4
330
1F
100
AcDbEntity
  8
0-B_寸法
  6
Continuous
 62
   120
370
     5
100
AcDbLine
 10
-2433.799671069995
 20
918.0001484638937
 30
0.0
 11
-2433.799671069995
 21
1168.000148463894
 31
0.0
  0
LINE
  5
B5
330
1F
100
AcDbEntity
  8
0-B_寸法
  6
Continuous
 62
   120
370
     5
100
AcDbLine
 10
-2099.799671069996
 20
918.0001484638937
 30
0.0
 11
-2099.799671069996
 21
1168.000148463894
 31
0.0
  0
LINE
  5
B6
330
1F
100
AcDbEntity
  8
0-B_寸法
  6
Continuous
 62
   120
370
     5
100
AcDbLine
 10
-2099.799671069996
 20
918.0001484638937
 30
0.0
 11
-2097.799671069995
 21
918.0001484638937
 31
0.0
  0
LINE
  5
B7
330
1F
100
AcDbEntity
  8
0-B_寸法
  6
Continuous
 62
   120
370
     5
100
AcDbLine
 10
-2097.799671069995
 20
918.0001484638937
 30
0.0
 11
-2097.799671069995
 21
1168.000148463894
 31
0.0
  0
LINE
  5
B8
330
1F
100
AcDbEntity
  8
0-B_寸法
  6
Continuous
 62
   120
370
     5
100
AcDbLine
 10
-2097.799671069995
 20
918.0001484638937
 30
0.0
 11
-1763.799671069995
 21
918.0001484638937
 31
0.0
  0
LINE
  5
B9
330
1F
100
AcDbEntity
  8
0-B_寸法
  6
Continuous
 62
   120
370
     5
100
AcDbLine
 10
-1763.799671069995
 20
918.0001484638937
 30
0.0
 11
-1763.799671069995
 21
1168.000148463894
 31
0.0
  0
LINE
  5
BA
330
1F
100
AcDbEntity
  8
0-B_寸法
  6
Continuous
 62
   120
370
     5
100
AcDbLine
 10
-202.1999148807009
 20
918.0001484638937
 30
0.0
 11
131.8000851192988
 21
918.0001484638937
 31
0.0
  0
LINE
  5
BB
330
1F
100
AcDbEntity
  8
0-B_寸法
  6
Continuous
 62
   120
370
     5
100
AcDbLine
 10
-202.1999148807009
 20
918.0001484638937
 30
0.0
 11
-202.1999148807009
 21
1168.000148463894
 31
0.0
  0
LINE
  5
BC
330
1F
100
AcDbEntity
  8
0-B_寸法
  6
Continuous
 62
   120
370
     5
100
AcDbLine
 10
131.8000851192988
 20
918.0001484638937
 30
0.0
 11
131.8000851192988
 21
1168.000148463894
 31
0.0
  0
LINE
  5
BD
330
1F
100
AcDbEntity
  8
0-B_寸法
  6
Continuous
 62
   120
370
     5
100
AcDbLine
 10
131.8000851192988
 20
918.0001484638937
 30
0.0
 11
133.8000851192996
 21
918.0001484638937
 31
0.0
  0
LINE
  5
BE
330
1F
100
AcDbEntity
  8
0-B_寸法
  6
Continuous
 62
   120
370
     5
100
AcDbLine
 10
133.8000851192996
 20
918.0001484638937
 30
0.0
 11
133.8000851192996
 21
1168.000148463894
 31
0.0
  0
LINE
  5
BF
330
1F
100
AcDbEntity
  8
0-B_寸法
  6
Continuous
 62
   120
370
     5
100
AcDbLine
 10
133.8000851192996
 20
918.0001484638937
 30
0.0
 11
467.8000851192994
 21
918.0001484638937
 31
0.0
  0
LINE
  5
C0
330
1F
100
AcDbEntity
  8
0-B_寸法
  6
Continuous
 62
   120
370
     5
100
AcDbLine
 10
467.8000851192994
 20
918.0001484638937
 30
0.0
 11
467.8000851192994
 21
1168.000148463894
 31
0.0
  0
LINE
  5
C1
330
1F
100
AcDbEntity
  8
0-B_寸法
  6
Continuous
 62
   120
370
     5
100
AcDbLine
 10
2029.400212468328
 20
918.0001484638937
 30
0.0
 11
2363.400212468328
 21
918.0001484638937
 31
0.0
  0
LINE
  5
C2
330
1F
100
AcDbEntity
  8
0-B_寸法
  6
Continuous
 62
   120
370
     5
100
AcDbLine
 10
2029.400212468328
 20
918.0001484638937
 30
0.0
 11
2029.400212468328
 21
1168.000148463894
 31
0.0
  0
LINE
  5
C3
330
1F
100
AcDbEntity
  8
0-B_寸法
  6
Continuous
 62
   120
370
     5
100
AcDbLine
 10
2363.400212468328
 20
918.0001484638937
 30
0.0
 11
2363.400212468328
 21
1168.000148463894
 31
0.0
  0
LINE
  5
C4
330
1F
100
AcDbEntity
  8
0-B_寸法
  6
Continuous
 62
   120
370
     5
100
AcDbLine
 10
2363.400212468328
 20
918.0001484638937
 30
0.0
 11
2365.400212468328
 21
918.0001484638937
 31
0.0
  0
LINE
  5
C5
330
1F
100
AcDbEntity
  8
0-B_寸法
  6
Continuous
 62
   120
370
     5
100
AcDbLine
 10
2365.400212468328
 20
918.0001484638937
 30
0.0
 11
2365.400212468328
 21
1168.000148463894
 31
0.0
  0
LINE
  5
C6
330
1F
100
AcDbEntity
  8
0-B_寸法
  6
Continuous
 62
   120
370
     5
100
AcDbLine
 10
2365.400212468328
 20
918.0001484638937
 30
0.0
 11
2699.400212468328
 21
918.0001484638937
 31
0.0
  0
LINE
  5
C7
330
1F
100
AcDbEntity
  8
0-B_寸法
  6
Continuous
 62
   120
370
     5
100
AcDbLine
 10
2699.400212468328
 20
918.0001484638937
 30
0.0
 11
2699.400212468328
 21
1168.000148463894
 31
0.0
  0
LINE
  5
C8
330
1F
100
AcDbEntity
  8
0-B_寸法
  6
Continuous
 62
   120
370
     5
100
AcDbLine
 10
-2098.799671069996
 20
918.0001484638937
 30
0.0
 11
-2059.826173330567
 21
1063.451222176111
 31
0.0
  0
LINE
  5
C9
330
1F
100
AcDbEntity
  8
0-B_寸法
  6
Continuous
 62
   120
370
     5
100
AcDbLine
 10
-2059.826173330567
 20
1063.451222176111
 30
0.0
 11
-2007.888809593818
 21
1063.451222176111
 31
0.0
  0
LINE
  5
CA
330
1F
100
AcDbEntity
  8
0-B_寸法
  6
Continuous
 62
   120
370
     5
100
AcDbLine
 10
132.8000851192988
 20
918.0001484638937
 30
0.0
 11
171.7735828587274
 21
1063.451222176111
 31
0.0
  0
LINE
  5
CB
330
1F
100
AcDbEntity
  8
0-B_寸法
  6
Continuous
 62
   120
370
     5
100
AcDbLine
 10
171.7735828587274
 20
1063.451222176111
 30
0.0
 11
223.7109465954768
 21
1063.451222176111
 31
0.0
  0
LINE
  5
CC
330
1F
100
AcDbEntity
  8
0-B_寸法
  6
Continuous
 62
   120
370
     5
100
AcDbLine
 10
2364.400212468327
 20
918.0001484638937
 30
0.0
 11
2403.373710207756
 21
1063.451222176111
 31
0.0
  0
LINE
  5
CD
330
1F
100
AcDbEntity
  8
0-B_寸法
  6
Continuous
 62
   120
370
     5
100
AcDbLine
 10
2403.373710207756
 20
1063.451222176111
 30
0.0
 11
2455.311073944506
 21
1063.451222176111
 31
0.0
  0
LINE
  5
CE
330
1F
100
AcDbEntity
  8
0-B_寸法
  6
Continuous
 62
   120
370
     5
100
AcDbLine
 10
4261.000339817357
 20
918.0001484638937
 30
0.0
 11
4595.000339817357
 21
918.0001484638937
 31
0.0
  0
LINE
  5
CF
330
1F
100
AcDbEntity
  8
0-B_寸法
  6
Continuous
 62
   120
370
     5
100
AcDbLine
 10
4261.000339817357
 20
918.0001484638937
 30
0.0
 11
4261.000339817357
 21
1168.000148463894
 31
0.0
  0
LINE
  5
D0
330
1F
100
AcDbEntity
  8
0-B_寸法
  6
Continuous
 62
   120
370
     5
100
AcDbLine
 10
4595.000339817357
 20
918.0001484638937
 30
0.0
 11
4595.000339817357
 21
1168.000148463894
 31
0.0
  0
LINE
  5
D1
330
1F
100
AcDbEntity
  8
0-B_寸法
  6
Continuous
 62
   120
370
     5
100
AcDbLine
 10
4595.000339817357
 20
918.0001484638937
 30
0.0
 11
4597.000339817358
 21
918.0001484638937
 31
0.0
  0
LINE
  5
D2
330
1F
100
AcDbEntity
  8
0-B_寸法
  6
Continuous
 62
   120
370
     5
100
AcDbLine
 10
4597.000339817358
 20
918.0001484638937
 30
0.0
 11
4597.000339817358
 21
1168.000148463894
 31
0.0
  0
LINE
  5
D3
330
1F
100
AcDbEntity
  8
0-B_寸法
  6
Continuous
 62
   120
370
     5
100
AcDbLine
 10
4597.000339817358
 20
918.0001484638937
 30
0.0
 11
4931.000339817358
 21
918.0001484638937
 31
0.0
  0
LINE
  5
D4
330
1F
100
AcDbEntity
  8
0-B_寸法
  6
Continuous
 62
   120
370
     5
100
AcDbLine
 10
4931.000339817358
 20
918.0001484638937
 30
0.0
 11
4931.000339817358
 21
1168.000148463894
 31
0.0
  0
LINE
  5
D5
330
1F
100
AcDbEntity
  8
0-B_寸法
  6
Continuous
 62
   120
370
     5
100
AcDbLine
 10
4596.000339817357
 20
918.0001484638937
 30
0.0
 11
4634.973837556785
 21
1063.451222176111
 31
0.0
  0
LINE
  5
D6
330
1F
100
AcDbEntity
  8
0-B_寸法
  6
Continuous
 62
   120
370
     5
100
AcDbLine
 10
4634.973837556785
 20
1063.451222176111
 30
0.0
 11
4686.911201293535
 21
1063.451222176111
 31
0.0
  0
LWPOLYLINE
  5
D7
330
1F
100
AcDbEntity
  8
0-B_寸法
  6
Continuous
 62
     7
370
     9
100
AcDbPolyline
 90
        4
 70
     1
 43
6.0
 10
-2430.799671069995
 20
918.0001484638937
 42
0.4142135623731
 10
-2433.799671069995
 20
921.0001484638938
 42
0.4142135623731
 10
-2436.799671069995
 20
918.0001484638937
 42
0.4142135623731
 10
-2433.799671069995
 20
915.0001484638937
 42
0.4142135623731
  0
LWPOLYLINE
  5
D8
330
1F
100
AcDbEntity
  8
0-B_寸法
  6
Continuous
 62
     7
370
     9
100
AcDbPolyline
 90
        4
 70
     1
 43
6.0
 10
-2096.799671069996
 20
918.0001484638937
 42
0.4142135623731
 10
-2099.799671069996
 20
921.0001484638938
 42
0.4142135623731
 10
-2102.799671069995
 20
918.0001484638937
 42
0.4142135623731
 10
-2099.799671069996
 20
915.0001484638937
 42
0.4142135623731
  0
LWPOLYLINE
  5
D9
330
1F
100
AcDbEntity
  8
0-B_寸法
  6
Continuous
 62
     7
370
     9
100
AcDbPolyline
 90
        4
 70
     1
 43
6.0
 10
-2094.799671069995
 20
918.0001484638937
 42
0.4142135623731
 10
-2097.799671069995
 20
921.0001484638938
 42
0.4142135623731
 10
-2100.799671069995
 20
918.0001484638937
 42
0.4142135623731
 10
-2097.799671069995
 20
915.0001484638937
 42
0.4142135623731
  0
LWPOLYLINE
  5
DA
330
1F
100
AcDbEntity
  8
0-B_寸法
  6
Continuous
 62
     7
370
     9
100
AcDbPolyline
 90
        4
 70
     1
 43
6.0
 10
-1760.799671069995
 20
918.0001484638937
 42
0.4142135623731
 10
-1763.799671069995
 20
921.0001484638938
 42
0.4142135623731
 10
-1766.799671069995
 20
918.0001484638937
 42
0.4142135623731
 10
-1763.799671069995
 20
915.0001484638937
 42
0.4142135623731
  0
LWPOLYLINE
  5
DB
330
1F
100
AcDbEntity
  8
0-B_寸法
  6
Continuous
 62
     7
370
     9
100
AcDbPolyline
 90
        4
 70
     1
 43
6.0
 10
-199.1999148807009
 20
918.0001484638937
 42
0.4142135623731
 10
-202.1999148807009
 20
921.0001484638938
 42
0.4142135623731
 10
-205.1999148807009
 20
918.0001484638937
 42
0.4142135623731
 10
-202.1999148807009
 20
915.0001484638937
 42
0.4142135623731
  0
LWPOLYLINE
  5
DC
330
1F
100
AcDbEntity
  8
0-B_寸法
  6
Continuous
 62
     7
370
     9
100
AcDbPolyline
 90
        4
 70
     1
 43
6.0
 10
134.8000851192988
 20
918.0001484638937
 42
0.4142135623731
 10
131.8000851192988
 20
921.0001484638938
 42
0.4142135623731
 10
128.8000851192988
 20
918.0001484638937
 42
0.4142135623731
 10
131.8000851192988
 20
915.0001484638937
 42
0.4142135623731
  0
LWPOLYLINE
  5
DD
330
1F
100
AcDbEntity
  8
0-B_寸法
  6
Continuous
 62
     7
370
     9
100
AcDbPolyline
 90
        4
 70
     1
 43
6.0
 10
136.8000851192996
 20
918.0001484638937
 42
0.4142135623731
 10
133.8000851192996
 20
921.0001484638938
 42
0.4142135623731
 10
130.8000851192996
 20
918.0001484638937
 42
0.4142135623731
 10
133.8000851192996
 20
915.0001484638937
 42
0.4142135623731
  0
LWPOLYLINE
  5
DE
330
1F
100
AcDbEntity
  8
0-B_寸法
  6
Continuous
 62
     7
370
     9
100
AcDbPolyline
 90
        4
 70
     1
 43
6.0
 10
470.8000851192994
 20
918.0001484638937
 42
0.4142135623731
 10
467.8000851192994
 20
921.0001484638938
 42
0.4142135623731
 10
464.8000851192994
 20
918.0001484638937
 42
0.4142135623731
 10
467.8000851192994
 20
915.0001484638937
 42
0.4142135623731
  0
LWPOLYLINE
  5
DF
330
1F
100
AcDbEntity
  8
0-B_寸法
  6
Continuous
 62
     7
370
     9
100
AcDbPolyline
 90
        4
 70
     1
 43
6.0
 10
2032.400212468328
 20
918.0001484638937
 42
0.4142135623731
 10
2029.400212468328
 20
921.0001484638938
 42
0.4142135623731
 10
2026.400212468328
 20
918.0001484638937
 42
0.4142135623731
 10
2029.400212468328
 20
915.0001484638937
 42
0.4142135623731
  0
LWPOLYLINE
  5
E0
330
1F
100
AcDbEntity
  8
0-B_寸法
  6
Continuous
 62
     7
370
     9
100
AcDbPolyline
 90
        4
 70
     1
 43
6.0
 10
2366.400212468327
 20
918.0001484638937
 42
0.4142135623731
 10
2363.400212468328
 20
921.0001484638938
 42
0.4142135623731
 10
2360.400212468328
 20
918.0001484638937
 42
0.4142135623731
 10
2363.400212468328
 20
915.0001484638937
 42
0.4142135623731
  0
LWPOLYLINE
  5
E1
330
1F
100
AcDbEntity
  8
0-B_寸法
  6
Continuous
 62
     7
370
     9
100
AcDbPolyline
 90
        4
 70
     1
 43
6.0
 10
2368.400212468328
 20
918.0001484638937
 42
0.4142135623731
 10
2365.400212468328
 20
921.0001484638938
 42
0.4142135623731
 10
2362.400212468329
 20
918.0001484638937
 42
0.4142135623731
 10
2365.400212468328
 20
915.0001484638937
 42
0.4142135623731
  0
LWPOLYLINE
  5
E2
330
1F
100
AcDbEntity
  8
0-B_寸法
  6
Continuous
 62
     7
370
     9
100
AcDbPolyline
 90
        4
 70
     1
 43
6.0
 10
2702.400212468328
 20
918.0001484638937
 42
0.4142135623731
 10
2699.400212468328
 20
921.0001484638938
 42
0.4142135623731
 10
2696.400212468328
 20
918.0001484638937
 42
0.4142135623731
 10
2699.400212468328
 20
915.0001484638937
 42
0.4142135623731
  0
LWPOLYLINE
  5
E3
330
1F
100
AcDbEntity
  8
0-B_寸法
  6
Continuous
 62
     7
370
     9
100
AcDbPolyline
 90
        4
 70
     1
 43
6.0
 10
4264.000339817357
 20
918.0001484638937
 42
0.4142135623731
 10
4261.000339817357
 20
921.0001484638938
 42
0.4142135623731
 10
4258.000339817357
 20
918.0001484638937
 42
0.4142135623731
 10
4261.000339817357
 20
915.0001484638937
 42
0.4142135623731
  0
LWPOLYLINE
  5
E4
330
1F
100
AcDbEntity
  8
0-B_寸法
  6
Continuous
 62
     7
370
     9
100
AcDbPolyline
 90
        4
 70
     1
 43
6.0
 10
4598.000339817357
 20
918.0001484638937
 42
0.4142135623731
 10
4595.000339817357
 20
921.0001484638938
 42
0.4142135623731
 10
4592.000339817357
 20
918.0001484638937
 42
0.4142135623731
 10
4595.000339817357
 20
915.0001484638937
 42
0.4142135623731
  0
LWPOLYLINE
  5
E5
330
1F
100
AcDbEntity
  8
0-B_寸法
  6
Continuous
 62
     7
370
     9
100
AcDbPolyline
 90
        4
 70
     1
 43
6.0
 10
4600.000339817358
 20
918.0001484638937
 42
0.4142135623731
 10
4597.000339817358
 20
921.0001484638938
 42
0.4142135623731
 10
4594.000339817358
 20
918.0001484638937
 42
0.4142135623731
 10
4597.000339817358
 20
915.0001484638937
 42
0.4142135623731
  0
LWPOLYLINE
  5
E6
330
1F
100
AcDbEntity
  8
0-B_寸法
  6
Continuous
 62
     7
370
     9
100
AcDbPolyline
 90
        4
 70
     1
 43
6.0
 10
4934.000339817357
 20
918.0001484638937
 42
0.4142135623731
 10
4931.000339817358
 20
921.0001484638938
 42
0.4142135623731
 10
4928.000339817358
 20
918.0001484638937
 42
0.4142135623731
 10
4931.000339817358
 20
915.0001484638937
 42
0.4142135623731
  0
LINE
  5
E7
330
1F
100
AcDbEntity
  8
0-0_補助線
  6
JWW_HOJO
 62
     7
370
     9
100
AcDbLine
 10
-5490.000018557987
 20
2051.000148463894
 30
0.0
 11
-3258.399798419024
 21
2051.000148463894
 31
0.0
  0
LINE
  5
E8
330
1F
100
AcDbEntity
  8
0-0_補助線
  6
JWW_HOJO
 62
     7
370
     9
100
AcDbLine
 10
-3258.399798419024
 20
2406.000148463894
 30
0.0
 11
-1026.799671069995
 21
2406.000148463894
 31
0.0
  0
LINE
  5
E9
330
1F
100
AcDbEntity
  8
F-0_補助線
  6
JWW_HOJO
 62
   200
370
    20
100
AcDbLine
 10
-5989.999990205507
 20
4064.999901024072
 30
0.0
 11
5689.998977248734
 21
4064.999901024072
 31
0.0
  0
LINE
  5
EA
330
1F
100
AcDbEntity
  8
0-4_枠
  6
Continuous
 62
    92
370
    13
100
AcDbLine
 10
-4697.399798419024
 20
-1478.750165011432
 30
0.0
 11
-3963.399798419023
 21
-1478.750165011432
 31
0.0
  0
LINE
  5
EB
330
1F
100
AcDbEntity
  8
0-4_枠
  6
Continuous
 62
    92
370
    13
100
AcDbLine
 10
-4667.399798419024
 20
-1508.750165011432
 30
0.0
 11
-3993.399798419023
 21
-1508.750165011432
 31
0.0
  0
LINE
  5
EC
330
1F
100
AcDbEntity
  8
0-4_枠
  6
Continuous
 62
    92
370
    13
100
AcDbLine
 10
-4667.399798419024
 20
-2296.750165011432
 30
0.0
 11
-3993.399798419023
 21
-2296.750165011432
 31
0.0
  0
LINE
  5
ED
330
1F
100
AcDbEntity
  8
0-4_枠
  6
Continuous
 62
    92
370
    13
100
AcDbLine
 10
-2435.799671069995
 20
-2296.750165011432
 30
0.0
 11
-1761.799671069995
 21
-2296.750165011432
 31
0.0
  0
LINE
  5
EE
330
1F
100
AcDbEntity
  8
0-4_枠
  6
Continuous
 62
    92
370
    13
100
AcDbLine
 10
-2465.799671069995
 20
-1123.750165011432
 30
0.0
 11
-1731.799671069995
 21
-1123.750165011432
 31
0.0
  0
LINE
  5
EF
330
1F
100
AcDbEntity
  8
0-4_枠
  6
Continuous
 62
    92
370
    13
100
AcDbLine
 10
-2435.799671069995
 20
-1153.750165011432
 30
0.0
 11
-1761.799671069995
 21
-1153.750165011432
 31
0.0
  0
LINE
  5
F0
330
1F
100
AcDbEntity
  8
0-2_扉
  6
Continuous
 62
    92
370
    13
100
AcDbLine
 10
-4329.399798419023
 20
-1511.750165011432
 30
0.0
 11
-4329.399798419023
 21
-2291.750165011431
 31
0.0
  0
LINE
  5
F1
330
1F
100
AcDbEntity
  8
0-2_扉
  6
Continuous
 62
    92
370
    13
100
AcDbLine
 10
-4331.399798419024
 20
-1511.750165011432
 30
0.0
 11
-4331.399798419024
 21
-2291.750165011431
 31
0.0
  0
LINE
  5
F2
330
1F
100
AcDbEntity
  8
0-2_扉
  6
Continuous
 62
    92
370
    13
100
AcDbLine
 10
-4329.399798419023
 20
-2291.750165011431
 30
0.0
 11
-3995.399798419023
 21
-2291.750165011431
 31
0.0
  0
LINE
  5
F3
330
1F
100
AcDbEntity
  8
0-2_扉
  6
Continuous
 62
    92
370
    13
100
AcDbLine
 10
-4329.399798419023
 20
-1511.750165011432
 30
0.0
 11
-3995.399798419023
 21
-1511.750165011432
 31
0.0
  0
LINE
  5
F4
330
1F
100
AcDbEntity
  8
0-2_扉
  6
Continuous
 62
    92
370
    13
100
AcDbLine
 10
-3995.399798419023
 20
-2291.750165011431
 30
0.0
 11
-3995.399798419023
 21
-1511.750165011432
 31
0.0
  0
LINE
  5
F5
330
1F
100
AcDbEntity
  8
0-2_扉
  6
Continuous
 62
    92
370
    13
100
AcDbLine
 10
-4331.399798419024
 20
-1511.750165011432
 30
0.0
 11
-4665.399798419024
 21
-1511.750165011432
 31
0.0
  0
LINE
  5
F6
330
1F
100
AcDbEntity
  8
0-2_扉
  6
Continuous
 62
    92
370
    13
100
AcDbLine
 10
-4331.399798419024
 20
-2291.750165011431
 30
0.0
 11
-4665.399798419024
 21
-2291.750165011431
 31
0.0
  0
LINE
  5
F7
330
1F
100
AcDbEntity
  8
0-2_扉
  6
Continuous
 62
    92
370
    13
100
AcDbLine
 10
-4665.399798419024
 20
-1511.750165011432
 30
0.0
 11
-4665.399798419024
 21
-2291.750165011431
 31
0.0
  0
LINE
  5
F8
330
1F
100
AcDbEntity
  8
0-2_扉
  6
Continuous
 62
    92
370
    13
100
AcDbLine
 10
-2097.799671069995
 20
-2291.750165011431
 30
0.0
 11
-1763.799671069995
 21
-2291.750165011431
 31
0.0
  0
LINE
  5
F9
330
1F
100
AcDbEntity
  8
0-2_扉
  6
Continuous
 62
    92
370
    13
100
AcDbLine
 10
-2099.799671069996
 20
-2291.750165011431
 30
0.0
 11
-2433.799671069995
 21
-2291.750165011431
 31
0.0
  0
LINE
  5
FA
330
1F
100
AcDbEntity
  8
0-2_扉
  6
Continuous
 62
    92
370
    13
100
AcDbLine
 10
-2097.799671069995
 20
-1156.750165011431
 30
0.0
 11
-2097.799671069995
 21
-2291.750165011431
 31
0.0
  0
LINE
  5
FB
330
1F
100
AcDbEntity
  8
0-2_扉
  6
Continuous
 62
    92
370
    13
100
AcDbLine
 10
-2099.799671069996
 20
-1156.750165011431
 30
0.0
 11
-2099.799671069996
 21
-2291.750165011431
 31
0.0
  0
LINE
  5
FC
330
1F
100
AcDbEntity
  8
0-2_扉
  6
Continuous
 62
    92
370
    13
100
AcDbLine
 10
-2097.799671069995
 20
-1156.750165011431
 30
0.0
 11
-1763.799671069995
 21
-1156.750165011431
 31
0.0
  0
LINE
  5
FD
330
1F
100
AcDbEntity
  8
0-2_扉
  6
Continuous
 62
    92
370
    13
100
AcDbLine
 10
-1763.799671069995
 20
-2291.750165011431
 30
0.0
 11
-1763.799671069995
 21
-1156.750165011431
 31
0.0
  0
LINE
  5
FE
330
1F
100
AcDbEntity
  8
0-2_扉
  6
Continuous
 62
    92
370
    13
100
AcDbLine
 10
-2099.799671069996
 20
-1156.750165011431
 30
0.0
 11
-2433.799671069995
 21
-1156.750165011431
 31
0.0
  0
LINE
  5
FF
330
1F
100
AcDbEntity
  8
0-2_扉
  6
Continuous
 62
    92
370
    13
100
AcDbLine
 10
-2433.799671069995
 20
-1156.750165011431
 30
0.0
 11
-2433.799671069995
 21
-2291.750165011431
 31
0.0
  0
LINE
  5
100
330
1F
100
AcDbEntity
  8
0-B_寸法
  6
Continuous
 62
   120
370
     5
100
AcDbLine
 10
-4997.399798419024
 20
-1511.750165011432
 30
0.0
 11
-4997.399798419024
 21
-2291.750165011431
 31
0.0
  0
LINE
  5
101
330
1F
100
AcDbEntity
  8
0-B_寸法
  6
Continuous
 62
   120
370
     5
100
AcDbLine
 10
-4997.399798419024
 20
-1511.750165011432
 30
0.0
 11
-4747.399798419024
 21
-1511.750165011432
 31
0.0
  0
LINE
  5
102
330
1F
100
AcDbEntity
  8
0-B_寸法
  6
Continuous
 62
   120
370
     5
100
AcDbLine
 10
-4997.399798419024
 20
-2291.750165011431
 30
0.0
 11
-4747.399798419024
 21
-2291.750165011431
 31
0.0
  0
LINE
  5
103
330
1F
100
AcDbEntity
  8
0-B_寸法
  6
Continuous
 62
   120
370
     5
100
AcDbLine
 10
-2765.799671069995
 20
-2291.750165011431
 30
0.0
 11
-2515.799671069996
 21
-2291.750165011431
 31
0.0
  0
LINE
  5
104
330
1F
100
AcDbEntity
  8
0-B_寸法
  6
Continuous
 62
   120
370
     5
100
AcDbLine
 10
-2765.799671069995
 20
-1156.750165011431
 30
0.0
 11
-2765.799671069995
 21
-2291.750165011431
 31
0.0
  0
LINE
  5
105
330
1F
100
AcDbEntity
  8
0-B_寸法
  6
Continuous
 62
   120
370
     5
100
AcDbLine
 10
-2765.799671069995
 20
-1156.750165011431
 30
0.0
 11
-2515.799671069996
 21
-1156.750165011431
 31
0.0
  0
LWPOLYLINE
  5
106
330
1F
100
AcDbEntity
  8
0-B_寸法
  6
Continuous
 62
     7
370
     9
100
AcDbPolyline
 90
        4
 70
     1
 43
6.0
 10
-4994.399798419024
 20
-1511.750165011432
 42
0.4142135623731
 10
-4997.399798419024
 20
-1508.750165011432
 42
0.4142135623731
 10
-5000.399798419023
 20
-1511.750165011432
 42
0.4142135623731
 10
-4997.399798419024
 20
-1514.750165011432
 42
0.4142135623731
  0
LWPOLYLINE
  5
107
330
1F
100
AcDbEntity
  8
0-B_寸法
  6
Continuous
 62
     7
370
     9
100
AcDbPolyline
 90
        4
 70
     1
 43
6.0
 10
-4994.399798419024
 20
-2291.750165011431
 42
0.4142135623731
 10
-4997.399798419024
 20
-2288.750165011432
 42
0.4142135623731
 10
-5000.399798419023
 20
-2291.750165011431
 42
0.4142135623731
 10
-4997.399798419024
 20
-2294.750165011431
 42
0.4142135623731
  0
LWPOLYLINE
  5
108
330
1F
100
AcDbEntity
  8
0-B_寸法
  6
Continuous
 62
     7
370
     9
100
AcDbPolyline
 90
        4
 70
     1
 43
6.0
 10
-2762.799671069995
 20
-2291.750165011431
 42
0.4142135623731
 10
-2765.799671069995
 20
-2288.750165011432
 42
0.4142135623731
 10
-2768.799671069995
 20
-2291.750165011431
 42
0.4142135623731
 10
-2765.799671069995
 20
-2294.750165011431
 42
0.4142135623731
  0
LWPOLYLINE
  5
109
330
1F
100
AcDbEntity
  8
0-B_寸法
  6
Continuous
 62
     7
370
     9
100
AcDbPolyline
 90
        4
 70
     1
 43
6.0
 10
-2762.799671069995
 20
-1156.750165011431
 42
0.4142135623731
 10
-2765.799671069995
 20
-1153.750165011431
 42
0.4142135623731
 10
-2768.799671069995
 20
-1156.750165011431
 42
0.4142135623731
 10
-2765.799671069995
 20
-1159.750165011431
 42
0.4142135623731
  0
LINE
  5
10A
330
1F
100
AcDbEntity
  8
0-0_補助線
  6
JWW_HOJO
 62
     7
370
     9
100
AcDbLine
 10
-5490.000018557987
 20
-1478.750165011432
 30
0.0
 11
-3258.399798419024
 21
-1478.750165011432
 31
0.0
  0
LINE
  5
10B
330
1F
100
AcDbEntity
  8
0-0_補助線
  6
JWW_HOJO
 62
     7
370
     9
100
AcDbLine
 10
-3258.399798419024
 20
-1123.750165011432
 30
0.0
 11
-1026.799671069995
 21
-1123.750165011432
 31
0.0
  0
LINE
  5
10C
330
1F
100
AcDbEntity
  8
0-4_枠
  6
Continuous
 62
    92
370
    13
100
AcDbLine
 10
-4697.399798419024
 20
-2326.750165011432
 30
0.0
 11
-3963.399798419023
 21
-2326.750165011432
 31
0.0
  0
LINE
  5
10D
330
1F
100
AcDbEntity
  8
0-4_枠
  6
Continuous
 62
    92
370
    13
100
AcDbLine
 10
-4697.399798419024
 20
-2326.750165011432
 30
0.0
 11
-4697.399798419024
 21
-1478.750165011432
 31
0.0
  0
LINE
  5
10E
330
1F
100
AcDbEntity
  8
0-4_枠
  6
Continuous
 62
    92
370
    13
100
AcDbLine
 10
-3963.399798419023
 20
-2326.750165011432
 30
0.0
 11
-3963.399798419023
 21
-1478.750165011432
 31
0.0
  0
LINE
  5
10F
330
1F
100
AcDbEntity
  8
0-4_枠
  6
Continuous
 62
    92
370
    13
100
AcDbLine
 10
-2465.799671069995
 20
-2326.750165011432
 30
0.0
 11
-1731.799671069995
 21
-2326.750165011432
 31
0.0
  0
LINE
  5
110
330
1F
100
AcDbEntity
  8
0-4_枠
  6
Continuous
 62
    92
370
    13
100
AcDbLine
 10
-2465.799671069995
 20
-2326.750165011432
 30
0.0
 11
-2465.799671069995
 21
-1123.750165011432
 31
0.0
  0
LINE
  5
111
330
1F
100
AcDbEntity
  8
0-4_枠
  6
Continuous
 62
    92
370
    13
100
AcDbLine
 10
-1731.799671069995
 20
-2326.750165011432
 30
0.0
 11
-1731.799671069995
 21
-1123.750165011432
 31
0.0
  0
LINE
  5
112
330
1F
100
AcDbEntity
  8
0-B_寸法
  6
Continuous
 62
   120
370
     5
100
AcDbLine
 10
-4665.399798419024
 20
-2626.750165011432
 30
0.0
 11
-4331.399798419024
 21
-2626.750165011432
 31
0.0
  0
LINE
  5
113
330
1F
100
AcDbEntity
  8
0-B_寸法
  6
Continuous
 62
   120
370
     5
100
AcDbLine
 10
-4665.399798419024
 20
-2626.750165011432
 30
0.0
 11
-4665.399798419024
 21
-2376.750165011432
 31
0.0
  0
LINE
  5
114
330
1F
100
AcDbEntity
  8
0-B_寸法
  6
Continuous
 62
   120
370
     5
100
AcDbLine
 10
-4331.399798419024
 20
-2626.750165011432
 30
0.0
 11
-4331.399798419024
 21
-2376.750165011432
 31
0.0
  0
LINE
  5
115
330
1F
100
AcDbEntity
  8
0-B_寸法
  6
Continuous
 62
   120
370
     5
100
AcDbLine
 10
-4331.399798419024
 20
-2626.750165011432
 30
0.0
 11
-4329.399798419023
 21
-2626.750165011432
 31
0.0
  0
LINE
  5
116
330
1F
100
AcDbEntity
  8
0-B_寸法
  6
Continuous
 62
   120
370
     5
100
AcDbLine
 10
-4329.399798419023
 20
-2626.750165011432
 30
0.0
 11
-4329.399798419023
 21
-2376.750165011432
 31
0.0
  0
LINE
  5
117
330
1F
100
AcDbEntity
  8
0-B_寸法
  6
Continuous
 62
   120
370
     5
100
AcDbLine
 10
-4329.399798419023
 20
-2626.750165011432
 30
0.0
 11
-3995.399798419023
 21
-2626.750165011432
 31
0.0
  0
LINE
  5
118
330
1F
100
AcDbEntity
  8
0-B_寸法
  6
Continuous
 62
   120
370
     5
100
AcDbLine
 10
-3995.399798419023
 20
-2626.750165011432
 30
0.0
 11
-3995.399798419023
 21
-2376.750165011432
 31
0.0
  0
LINE
  5
119
330
1F
100
AcDbEntity
  8
0-B_寸法
  6
Continuous
 62
   120
370
     5
100
AcDbLine
 10
-2433.799671069995
 20
-2626.750165011432
 30
0.0
 11
-2099.799671069996
 21
-2626.750165011432
 31
0.0
  0
LINE
  5
11A
330
1F
100
AcDbEntity
  8
0-B_寸法
  6
Continuous
 62
   120
370
     5
100
AcDbLine
 10
-2433.799671069995
 20
-2626.750165011432
 30
0.0
 11
-2433.799671069995
 21
-2376.750165011432
 31
0.0
  0
LINE
  5
11B
330
1F
100
AcDbEntity
  8
0-B_寸法
  6
Continuous
 62
   120
370
     5
100
AcDbLine
 10
-2099.799671069996
 20
-2626.750165011432
 30
0.0
 11
-2099.799671069996
 21
-2376.750165011432
 31
0.0
  0
LINE
  5
11C
330
1F
100
AcDbEntity
  8
0-B_寸法
  6
Continuous
 62
   120
370
     5
100
AcDbLine
 10
-2099.799671069996
 20
-2626.750165011432
 30
0.0
 11
-2097.799671069995
 21
-2626.750165011432
 31
0.0
  0
LINE
  5
11D
330
1F
100
AcDbEntity
  8
0-B_寸法
  6
Continuous
 62
   120
370
     5
100
AcDbLine
 10
-2097.799671069995
 20
-2626.750165011432
 30
0.0
 11
-2097.799671069995
 21
-2376.750165011432
 31
0.0
  0
LINE
  5
11E
330
1F
100
AcDbEntity
  8
0-B_寸法
  6
Continuous
 62
   120
370
     5
100
AcDbLine
 10
-2097.799671069995
 20
-2626.750165011432
 30
0.0
 11
-1763.799671069995
 21
-2626.750165011432
 31
0.0
  0
LINE
  5
11F
330
1F
100
AcDbEntity
  8
0-B_寸法
  6
Continuous
 62
   120
370
     5
100
AcDbLine
 10
-1763.799671069995
 20
-2626.750165011432
 30
0.0
 11
-1763.799671069995
 21
-2376.750165011432
 31
0.0
  0
LINE
  5
120
330
1F
100
AcDbEntity
  8
0-B_寸法
  6
Continuous
 62
   120
370
     5
100
AcDbLine
 10
-4330.399798419024
 20
-2626.750165011432
 30
0.0
 11
-4291.426300679595
 21
-2481.299091299215
 31
0.0
  0
LINE
  5
121
330
1F
100
AcDbEntity
  8
0-B_寸法
  6
Continuous
 62
   120
370
     5
100
AcDbLine
 10
-4291.426300679595
 20
-2481.299091299215
 30
0.0
 11
-4239.488936942846
 21
-2481.299091299215
 31
0.0
  0
LINE
  5
122
330
1F
100
AcDbEntity
  8
0-B_寸法
  6
Continuous
 62
   120
370
     5
100
AcDbLine
 10
-2098.799671069996
 20
-2626.750165011432
 30
0.0
 11
-2059.826173330567
 21
-2481.299091299215
 31
0.0
  0
LINE
  5
123
330
1F
100
AcDbEntity
  8
0-B_寸法
  6
Continuous
 62
   120
370
     5
100
AcDbLine
 10
-2059.826173330567
 20
-2481.299091299215
 30
0.0
 11
-2007.888809593818
 21
-2481.299091299215
 31
0.0
  0
LWPOLYLINE
  5
124
330
1F
100
AcDbEntity
  8
0-B_寸法
  6
Continuous
 62
     7
370
     9
100
AcDbPolyline
 90
        4
 70
     1
 43
6.0
 10
-4662.399798419024
 20
-2626.750165011432
 42
0.4142135623731
 10
-4665.399798419024
 20
-2623.750165011432
 42
0.4142135623731
 10
-4668.399798419024
 20
-2626.750165011432
 42
0.4142135623731
 10
-4665.399798419024
 20
-2629.750165011432
 42
0.4142135623731
  0
LWPOLYLINE
  5
125
330
1F
100
AcDbEntity
  8
0-B_寸法
  6
Continuous
 62
     7
370
     9
100
AcDbPolyline
 90
        4
 70
     1
 43
6.0
 10
-4328.399798419024
 20
-2626.750165011432
 42
0.4142135623731
 10
-4331.399798419024
 20
-2623.750165011432
 42
0.4142135623731
 10
-4334.399798419024
 20
-2626.750165011432
 42
0.4142135623731
 10
-4331.399798419024
 20
-2629.750165011432
 42
0.4142135623731
  0
LWPOLYLINE
  5
126
330
1F
100
AcDbEntity
  8
0-B_寸法
  6
Continuous
 62
     7
370
     9
100
AcDbPolyline
 90
        4
 70
     1
 43
6.0
 10
-4326.399798419023
 20
-2626.750165011432
 42
0.4142135623731
 10
-4329.399798419023
 20
-2623.750165011432
 42
0.4142135623731
 10
-4332.399798419023
 20
-2626.750165011432
 42
0.4142135623731
 10
-4329.399798419023
 20
-2629.750165011432
 42
0.4142135623731
  0
LWPOLYLINE
  5
127
330
1F
100
AcDbEntity
  8
0-B_寸法
  6
Continuous
 62
     7
370
     9
100
AcDbPolyline
 90
        4
 70
     1
 43
6.0
 10
-3992.399798419023
 20
-2626.750165011432
 42
0.4142135623731
 10
-3995.399798419023
 20
-2623.750165011432
 42
0.4142135623731
 10
-3998.399798419023
 20
-2626.750165011432
 42
0.4142135623731
 10
-3995.399798419023
 20
-2629.750165011432
 42
0.4142135623731
  0
LWPOLYLINE
  5
128
330
1F
100
AcDbEntity
  8
0-B_寸法
  6
Continuous
 62
     7
370
     9
100
AcDbPolyline
 90
        4
 70
     1
 43
6.0
 10
-2430.799671069995
 20
-2626.750165011432
 42
0.4142135623731
 10
-2433.799671069995
 20
-2623.750165011432
 42
0.4142135623731
 10
-2436.799671069995
 20
-2626.750165011432
 42
0.4142135623731
 10
-2433.799671069995
 20
-2629.750165011432
 42
0.4142135623731
  0
LWPOLYLINE
  5
129
330
1F
100
AcDbEntity
  8
0-B_寸法
  6
Continuous
 62
     7
370
     9
100
AcDbPolyline
 90
        4
 70
     1
 43
6.0
 10
-2096.799671069996
 20
-2626.750165011432
 42
0.4142135623731
 10
-2099.799671069996
 20
-2623.750165011432
 42
0.4142135623731
 10
-2102.799671069995
 20
-2626.750165011432
 42
0.4142135623731
 10
-2099.799671069996
 20
-2629.750165011432
 42
0.4142135623731
  0
LWPOLYLINE
  5
12A
330
1F
100
AcDbEntity
  8
0-B_寸法
  6
Continuous
 62
     7
370
     9
100
AcDbPolyline
 90
        4
 70
     1
 43
6.0
 10
-2094.799671069995
 20
-2626.750165011432
 42
0.4142135623731
 10
-2097.799671069995
 20
-2623.750165011432
 42
0.4142135623731
 10
-2100.799671069995
 20
-2626.750165011432
 42
0.4142135623731
 10
-2097.799671069995
 20
-2629.750165011432
 42
0.4142135623731
  0
LWPOLYLINE
  5
12B
330
1F
100
AcDbEntity
  8
0-B_寸法
  6
Continuous
 62
     7
370
     9
100
AcDbPolyline
 90
        4
 70
     1
 43
6.0
 10
-1760.799671069995
 20
-2626.750165011432
 42
0.4142135623731
 10
-1763.799671069995
 20
-2623.750165011432
 42
0.4142135623731
 10
-1766.799671069995
 20
-2626.750165011432
 42
0.4142135623731
 10
-1763.799671069995
 20
-2629.750165011432
 42
0.4142135623731
  0
LINE
  5
12C
330
1F
100
AcDbEntity
  8
0-4_枠
  6
Continuous
 62
    92
370
    13
100
AcDbLine
 10
-4667.399798419024
 20
-2326.750165011432
 30
0.0
 11
-4667.399798419024
 21
-1478.750165011432
 31
0.0
  0
LINE
  5
12D
330
1F
100
AcDbEntity
  8
0-4_枠
  6
Continuous
 62
    92
370
    13
100
AcDbLine
 10
-3993.399798419023
 20
-2326.750165011432
 30
0.0
 11
-3993.399798419023
 21
-1478.750165011432
 31
0.0
  0
LINE
  5
12E
330
1F
100
AcDbEntity
  8
0-4_枠
  6
Continuous
 62
    92
370
    13
100
AcDbLine
 10
-2435.799671069995
 20
-2326.750165011432
 30
0.0
 11
-2435.799671069995
 21
-1123.750165011432
 31
0.0
  0
LINE
  5
12F
330
1F
100
AcDbEntity
  8
0-4_枠
  6
Continuous
 62
    92
370
    13
100
AcDbLine
 10
-1761.799671069995
 20
-2326.750165011432
 30
0.0
 11
-1761.799671069995
 21
-1123.750165011432
 31
0.0
  0
LINE
  5
130
330
1F
100
AcDbEntity
  8
0-0_補助線
  6
JWW_HOJO
 62
     7
370
     9
100
AcDbLine
 10
-5490.000018557987
 20
-2326.750165011432
 30
0.0
 11
-1026.799671069995
 21
-2326.750165011432
 31
0.0
  0
LINE
  5
131
330
1F
100
AcDbEntity
  8
0-0_補助線
  6
JWW_HOJO
 62
   120
370
     5
100
AcDbLine
 10
-5490.000018557987
 20
-2376.750165011432
 30
0.0
 11
-1026.799671069995
 21
-2376.750165011432
 31
0.0
  0
LINE
  5
132
330
1F
100
AcDbEntity
  8
0-3_仕上げ
  6
Continuous
 62
     7
370
     9
100
AcDbLine
 10
-1784.799671069995
 20
-2291.750165011431
 30
0.0
 11
-1784.799671069995
 21
-1156.750165011431
 31
0.0
  0
LINE
  5
133
330
1F
100
AcDbEntity
  8
0-3_仕上げ
  6
Continuous
 62
     7
370
     9
100
AcDbLine
 10
-2076.799671069995
 20
-1156.750165011431
 30
0.0
 11
-2076.799671069995
 21
-2291.750165011431
 31
0.0
  0
LINE
  5
134
330
1F
100
AcDbEntity
  8
0-3_仕上げ
  6
Continuous
 62
     7
370
     9
100
AcDbLine
 10
-2120.799671069996
 20
-1156.750165011431
 30
0.0
 11
-2120.799671069996
 21
-2291.750165011431
 31
0.0
  0
LINE
  5
135
330
1F
100
AcDbEntity
  8
0-3_仕上げ
  6
Continuous
 62
     7
370
     9
100
AcDbLine
 10
-2412.799671069995
 20
-1156.750165011431
 30
0.0
 11
-2412.799671069995
 21
-2291.750165011431
 31
0.0
  0
LINE
  5
136
330
1F
100
AcDbEntity
  8
0-3_仕上げ
  6
Continuous
 62
     7
370
     9
100
AcDbLine
 10
-4644.399798419024
 20
-1511.750165011432
 30
0.0
 11
-4644.399798419024
 21
-2291.750165011431
 31
0.0
  0
LINE
  5
137
330
1F
100
AcDbEntity
  8
0-3_仕上げ
  6
Continuous
 62
     7
370
     9
100
AcDbLine
 10
-4352.399798419024
 20
-1511.750165011432
 30
0.0
 11
-4352.399798419024
 21
-2291.750165011431
 31
0.0
  0
LINE
  5
138
330
1F
100
AcDbEntity
  8
0-3_仕上げ
  6
Continuous
 62
     7
370
     9
100
AcDbLine
 10
-4308.399798419024
 20
-1511.750165011432
 30
0.0
 11
-4308.399798419024
 21
-2291.750165011431
 31
0.0
  0
LINE
  5
139
330
1F
100
AcDbEntity
  8
0-3_仕上げ
  6
Continuous
 62
     7
370
     9
100
AcDbLine
 10
-4016.399798419023
 20
-2291.750165011431
 30
0.0
 11
-4016.399798419023
 21
-1511.750165011432
 31
0.0
  0
LINE
  5
13A
330
1F
100
AcDbEntity
  8
0-4_枠
  6
Continuous
 62
    92
370
    13
100
AcDbLine
 10
-4697.399798419024
 20
1218.000148463894
 30
0.0
 11
-4697.399798419024
 21
2050.000148463893
 31
0.0
  0
LINE
  5
13B
330
1F
100
AcDbEntity
  8
0-4_枠
  6
Continuous
 62
    92
370
    13
100
AcDbLine
 10
-3963.399798419023
 20
1218.000148463894
 30
0.0
 11
-3963.399798419023
 21
2050.000148463893
 31
0.0
  0
LINE
  5
13C
330
1F
100
AcDbEntity
  8
0-4_枠
  6
Continuous
 62
    92
370
    13
100
AcDbLine
 10
-4697.399798419024
 20
2050.000148463893
 30
0.0
 11
-3963.399798419023
 21
2050.000148463893
 31
0.0
  0
LINE
  5
13D
330
1F
100
AcDbEntity
  8
0-4_枠
  6
Continuous
 62
    92
370
    13
100
AcDbLine
 10
-4667.399798419024
 20
2020.000148463893
 30
0.0
 11
-3993.399798419023
 21
2020.000148463893
 31
0.0
  0
LINE
  5
13E
330
1F
100
AcDbEntity
  8
0-2_扉
  6
Continuous
 62
    92
370
    13
100
AcDbLine
 10
-4329.399798419023
 20
2017.000148463893
 30
0.0
 11
-4329.399798419023
 21
1237.000148463894
 31
0.0
  0
LINE
  5
13F
330
1F
100
AcDbEntity
  8
0-2_扉
  6
Continuous
 62
    92
370
    13
100
AcDbLine
 10
-4331.399798419024
 20
2017.000148463893
 30
0.0
 11
-4331.399798419024
 21
1237.000148463894
 31
0.0
  0
LINE
  5
140
330
1F
100
AcDbEntity
  8
0-2_扉
  6
Continuous
 62
    92
370
    13
100
AcDbLine
 10
-4329.399798419023
 20
1237.000148463894
 30
0.0
 11
-3995.399798419023
 21
1237.000148463894
 31
0.0
  0
LINE
  5
141
330
1F
100
AcDbEntity
  8
0-2_扉
  6
Continuous
 62
    92
370
    13
100
AcDbLine
 10
-4329.399798419023
 20
2017.000148463893
 30
0.0
 11
-3995.399798419023
 21
2017.000148463893
 31
0.0
  0
LINE
  5
142
330
1F
100
AcDbEntity
  8
0-2_扉
  6
Continuous
 62
    92
370
    13
100
AcDbLine
 10
-3995.399798419023
 20
1237.000148463894
 30
0.0
 11
-3995.399798419023
 21
2017.000148463893
 31
0.0
  0
LINE
  5
143
330
1F
100
AcDbEntity
  8
0-2_扉
  6
Continuous
 62
    92
370
    13
100
AcDbLine
 10
-4331.399798419024
 20
2017.000148463893
 30
0.0
 11
-4665.399798419024
 21
2017.000148463893
 31
0.0
  0
LINE
  5
144
330
1F
100
AcDbEntity
  8
0-2_扉
  6
Continuous
 62
    92
370
    13
100
AcDbLine
 10
-4331.399798419024
 20
1237.000148463894
 30
0.0
 11
-4665.399798419024
 21
1237.000148463894
 31
0.0
  0
LINE
  5
145
330
1F
100
AcDbEntity
  8
0-2_扉
  6
Continuous
 62
    92
370
    13
100
AcDbLine
 10
-4665.399798419024
 20
2017.000148463893
 30
0.0
 11
-4665.399798419024
 21
1237.000148463894
 31
0.0
  0
LINE
  5
146
330
1F
100
AcDbEntity
  8
0-B_寸法
  6
Continuous
 62
   120
370
     5
100
AcDbLine
 10
-4997.399798419024
 20
2017.000148463893
 30
0.0
 11
-4997.399798419024
 21
1237.000148463894
 31
0.0
  0
LINE
  5
147
330
1F
100
AcDbEntity
  8
0-B_寸法
  6
Continuous
 62
   120
370
     5
100
AcDbLine
 10
-4997.399798419024
 20
2017.000148463893
 30
0.0
 11
-4747.399798419024
 21
2017.000148463893
 31
0.0
  0
LINE
  5
148
330
1F
100
AcDbEntity
  8
0-B_寸法
  6
Continuous
 62
   120
370
     5
100
AcDbLine
 10
-4997.399798419024
 20
1237.000148463894
 30
0.0
 11
-4747.399798419024
 21
1237.000148463894
 31
0.0
  0
LWPOLYLINE
  5
149
330
1F
100
AcDbEntity
  8
0-B_寸法
  6
Continuous
 62
     7
370
     9
100
AcDbPolyline
 90
        4
 70
     1
 43
6.0
 10
-4994.399798419024
 20
2017.000148463893
 42
0.4142135623731
 10
-4997.399798419024
 20
2020.000148463893
 42
0.4142135623731
 10
-5000.399798419023
 20
2017.000148463893
 42
0.4142135623731
 10
-4997.399798419024
 20
2014.000148463894
 42
0.4142135623731
  0
LWPOLYLINE
  5
14A
330
1F
100
AcDbEntity
  8
0-B_寸法
  6
Continuous
 62
     7
370
     9
100
AcDbPolyline
 90
        4
 70
     1
 43
6.0
 10
-4994.399798419024
 20
1237.000148463894
 42
0.4142135623731
 10
-4997.399798419024
 20
1240.000148463894
 42
0.4142135623731
 10
-5000.399798419023
 20
1237.000148463894
 42
0.4142135623731
 10
-4997.399798419024
 20
1234.000148463894
 42
0.4142135623731
  0
LINE
  5
14B
330
1F
100
AcDbEntity
  8
0-4_枠
  6
Continuous
 62
    92
370
    13
100
AcDbLine
 10
-4667.399798419024
 20
1218.000148463894
 30
0.0
 11
-4667.399798419024
 21
2050.000148463893
 31
0.0
  0
LINE
  5
14C
330
1F
100
AcDbEntity
  8
0-4_枠
  6
Continuous
 62
    92
370
    13
100
AcDbLine
 10
-3993.399798419023
 20
1218.000148463894
 30
0.0
 11
-3993.399798419023
 21
2050.000148463893
 31
0.0
  0
LINE
  5
14D
330
1F
100
AcDbEntity
  8
0-3_仕上げ
  6
Continuous
 62
     7
370
     9
100
AcDbLine
 10
-4644.399798419024
 20
2017.000148463893
 30
0.0
 11
-4644.399798419024
 21
1237.000148463894
 31
0.0
  0
LINE
  5
14E
330
1F
100
AcDbEntity
  8
0-3_仕上げ
  6
Continuous
 62
     7
370
     9
100
AcDbLine
 10
-4016.399798419023
 20
1237.000148463894
 30
0.0
 11
-4016.399798419023
 21
2017.000148463893
 31
0.0
  0
LINE
  5
14F
330
1F
100
AcDbEntity
  8
0-3_仕上げ
  6
Continuous
 62
     7
370
     9
100
AcDbLine
 10
-4308.399798419024
 20
2017.000148463893
 30
0.0
 11
-4308.399798419024
 21
1237.000148463894
 31
0.0
  0
LINE
  5
150
330
1F
100
AcDbEntity
  8
0-3_仕上げ
  6
Continuous
 62
     7
370
     9
100
AcDbLine
 10
-4352.399798419024
 20
2017.000148463893
 30
0.0
 11
-4352.399798419024
 21
1237.000148463894
 31
0.0
  0
LINE
  5
151
330
1F
100
AcDbEntity
  8
0-4_枠
  6
Continuous
 62
    92
370
    13
100
AcDbLine
 10
-2465.799671069995
 20
1218.000148463894
 30
0.0
 11
-2465.799671069995
 21
2405.000148463893
 31
0.0
  0
LINE
  5
152
330
1F
100
AcDbEntity
  8
0-4_枠
  6
Continuous
 62
    92
370
    13
100
AcDbLine
 10
-1731.799671069995
 20
1218.000148463894
 30
0.0
 11
-1731.799671069995
 21
2405.000148463893
 31
0.0
  0
LINE
  5
153
330
1F
100
AcDbEntity
  8
0-4_枠
  6
Continuous
 62
    92
370
    13
100
AcDbLine
 10
-2465.799671069995
 20
2405.000148463893
 30
0.0
 11
-1731.799671069995
 21
2405.000148463893
 31
0.0
  0
LINE
  5
154
330
1F
100
AcDbEntity
  8
0-4_枠
  6
Continuous
 62
    92
370
    13
100
AcDbLine
 10
-2435.799671069995
 20
2375.000148463893
 30
0.0
 11
-1761.799671069995
 21
2375.000148463893
 31
0.0
  0
LINE
  5
155
330
1F
100
AcDbEntity
  8
0-2_扉
  6
Continuous
 62
    92
370
    13
100
AcDbLine
 10
-2097.799671069995
 20
1237.000148463894
 30
0.0
 11
-1763.799671069995
 21
1237.000148463894
 31
0.0
  0
LINE
  5
156
330
1F
100
AcDbEntity
  8
0-2_扉
  6
Continuous
 62
    92
370
    13
100
AcDbLine
 10
-2099.799671069996
 20
1237.000148463894
 30
0.0
 11
-2433.799671069995
 21
1237.000148463894
 31
0.0
  0
LINE
  5
157
330
1F
100
AcDbEntity
  8
0-2_扉
  6
Continuous
 62
    92
370
    13
100
AcDbLine
 10
-2097.799671069995
 20
2372.000148463894
 30
0.0
 11
-2097.799671069995
 21
1237.000148463894
 31
0.0
  0
LINE
  5
158
330
1F
100
AcDbEntity
  8
0-2_扉
  6
Continuous
 62
    92
370
    13
100
AcDbLine
 10
-2099.799671069996
 20
2372.000148463894
 30
0.0
 11
-2099.799671069996
 21
1237.000148463894
 31
0.0
  0
LINE
  5
159
330
1F
100
AcDbEntity
  8
0-2_扉
  6
Continuous
 62
    92
370
    13
100
AcDbLine
 10
-2097.799671069995
 20
2372.000148463894
 30
0.0
 11
-1763.799671069995
 21
2372.000148463894
 31
0.0
  0
LINE
  5
15A
330
1F
100
AcDbEntity
  8
0-2_扉
  6
Continuous
 62
    92
370
    13
100
AcDbLine
 10
-1763.799671069995
 20
1237.000148463894
 30
0.0
 11
-1763.799671069995
 21
2372.000148463894
 31
0.0
  0
LINE
  5
15B
330
1F
100
AcDbEntity
  8
0-2_扉
  6
Continuous
 62
    92
370
    13
100
AcDbLine
 10
-2099.799671069996
 20
2372.000148463894
 30
0.0
 11
-2433.799671069995
 21
2372.000148463894
 31
0.0
  0
LINE
  5
15C
330
1F
100
AcDbEntity
  8
0-2_扉
  6
Continuous
 62
    92
370
    13
100
AcDbLine
 10
-2433.799671069995
 20
2372.000148463894
 30
0.0
 11
-2433.799671069995
 21
1237.000148463894
 31
0.0
  0
LINE
  5
15D
330
1F
100
AcDbEntity
  8
0-B_寸法
  6
Continuous
 62
   120
370
     5
100
AcDbLine
 10
-2765.799671069995
 20
1237.000148463894
 30
0.0
 11
-2515.799671069996
 21
1237.000148463894
 31
0.0
  0
LINE
  5
15E
330
1F
100
AcDbEntity
  8
0-B_寸法
  6
Continuous
 62
   120
370
     5
100
AcDbLine
 10
-2765.799671069995
 20
2372.000148463894
 30
0.0
 11
-2765.799671069995
 21
1237.000148463894
 31
0.0
  0
LINE
  5
15F
330
1F
100
AcDbEntity
  8
0-B_寸法
  6
Continuous
 62
   120
370
     5
100
AcDbLine
 10
-2765.799671069995
 20
2372.000148463894
 30
0.0
 11
-2515.799671069996
 21
2372.000148463894
 31
0.0
  0
LWPOLYLINE
  5
160
330
1F
100
AcDbEntity
  8
0-B_寸法
  6
Continuous
 62
     7
370
     9
100
AcDbPolyline
 90
        4
 70
     1
 43
6.0
 10
-2762.799671069995
 20
1237.000148463894
 42
0.4142135623731
 10
-2765.799671069995
 20
1240.000148463894
 42
0.4142135623731
 10
-2768.799671069995
 20
1237.000148463894
 42
0.4142135623731
 10
-2765.799671069995
 20
1234.000148463894
 42
0.4142135623731
  0
LWPOLYLINE
  5
161
330
1F
100
AcDbEntity
  8
0-B_寸法
  6
Continuous
 62
     7
370
     9
100
AcDbPolyline
 90
        4
 70
     1
 43
6.0
 10
-2762.799671069995
 20
2372.000148463894
 42
0.4142135623731
 10
-2765.799671069995
 20
2375.000148463893
 42
0.4142135623731
 10
-2768.799671069995
 20
2372.000148463894
 42
0.4142135623731
 10
-2765.799671069995
 20
2369.000148463894
 42
0.4142135623731
  0
LINE
  5
162
330
1F
100
AcDbEntity
  8
0-4_枠
  6
Continuous
 62
    92
370
    13
100
AcDbLine
 10
-2435.799671069995
 20
1218.000148463894
 30
0.0
 11
-2435.799671069995
 21
2405.000148463893
 31
0.0
  0
LINE
  5
163
330
1F
100
AcDbEntity
  8
0-4_枠
  6
Continuous
 62
    92
370
    13
100
AcDbLine
 10
-1761.799671069995
 20
1218.000148463894
 30
0.0
 11
-1761.799671069995
 21
2405.000148463893
 31
0.0
  0
LINE
  5
164
330
1F
100
AcDbEntity
  8
0-3_仕上げ
  6
Continuous
 62
     7
370
     9
100
AcDbLine
 10
-2412.799671069995
 20
2372.000148463894
 30
0.0
 11
-2412.799671069995
 21
1237.000148463894
 31
0.0
  0
LINE
  5
165
330
1F
100
AcDbEntity
  8
0-3_仕上げ
  6
Continuous
 62
     7
370
     9
100
AcDbLine
 10
-2120.799671069996
 20
2372.000148463894
 30
0.0
 11
-2120.799671069996
 21
1237.000148463894
 31
0.0
  0
LINE
  5
166
330
1F
100
AcDbEntity
  8
0-3_仕上げ
  6
Continuous
 62
     7
370
     9
100
AcDbLine
 10
-1784.799671069995
 20
1237.000148463894
 30
0.0
 11
-1784.799671069995
 21
2372.000148463894
 31
0.0
  0
LINE
  5
167
330
1F
100
AcDbEntity
  8
0-3_仕上げ
  6
Continuous
 62
     7
370
     9
100
AcDbLine
 10
-2076.799671069995
 20
2372.000148463894
 30
0.0
 11
-2076.799671069995
 21
1237.000148463894
 31
0.0
  0
LINE
  5
168
330
1F
100
AcDbEntity
  8
0-4_枠
  6
Continuous
 62
    92
370
    13
100
AcDbLine
 10
-234.1999148807008
 20
1218.000148463894
 30
0.0
 11
-234.1999148807008
 21
3003.000148463894
 31
0.0
  0
LINE
  5
169
330
1F
100
AcDbEntity
  8
0-4_枠
  6
Continuous
 62
    92
370
    13
100
AcDbLine
 10
499.8000851192992
 20
1218.000148463894
 30
0.0
 11
499.8000851192992
 21
3003.000148463894
 31
0.0
  0
LINE
  5
16A
330
1F
100
AcDbEntity
  8
0-4_枠
  6
Continuous
 62
    92
370
    13
100
AcDbLine
 10
-234.1999148807008
 20
3003.000148463894
 30
0.0
 11
499.8000851192992
 21
3003.000148463894
 31
0.0
  0
LINE
  5
16B
330
1F
100
AcDbEntity
  8
0-4_枠
  6
Continuous
 62
    92
370
    13
100
AcDbLine
 10
-204.1999148807008
 20
2973.000148463894
 30
0.0
 11
469.8000851192992
 21
2973.000148463894
 31
0.0
  0
LINE
  5
16C
330
1F
100
AcDbEntity
  8
0-2_扉
  6
Continuous
 62
    92
370
    13
100
AcDbLine
 10
133.8000851192996
 20
1237.000148463894
 30
0.0
 11
467.8000851192994
 21
1237.000148463894
 31
0.0
  0
LINE
  5
16D
330
1F
100
AcDbEntity
  8
0-2_扉
  6
Continuous
 62
    92
370
    13
100
AcDbLine
 10
131.8000851192988
 20
1237.000148463894
 30
0.0
 11
-202.1999148807009
 21
1237.000148463894
 31
0.0
  0
LINE
  5
16E
330
1F
100
AcDbEntity
  8
0-2_扉
  6
Continuous
 62
    92
370
    13
100
AcDbLine
 10
133.8000851192996
 20
2970.000148463894
 30
0.0
 11
133.8000851192996
 21
1237.000148463894
 31
0.0
  0
LINE
  5
16F
330
1F
100
AcDbEntity
  8
0-2_扉
  6
Continuous
 62
    92
370
    13
100
AcDbLine
 10
131.8000851192988
 20
2970.000148463894
 30
0.0
 11
131.8000851192988
 21
1237.000148463894
 31
0.0
  0
LINE
  5
170
330
1F
100
AcDbEntity
  8
0-2_扉
  6
Continuous
 62
    92
370
    13
100
AcDbLine
 10
133.8000851192996
 20
2970.000148463894
 30
0.0
 11
467.8000851192994
 21
2970.000148463894
 31
0.0
  0
LINE
  5
171
330
1F
100
AcDbEntity
  8
0-2_扉
  6
Continuous
 62
    92
370
    13
100
AcDbLine
 10
467.8000851192994
 20
1237.000148463894
 30
0.0
 11
467.8000851192994
 21
2970.000148463894
 31
0.0
  0
LINE
  5
172
330
1F
100
AcDbEntity
  8
0-2_扉
  6
Continuous
 62
    92
370
    13
100
AcDbLine
 10
131.8000851192988
 20
2970.000148463894
 30
0.0
 11
-202.1999148807009
 21
2970.000148463894
 31
0.0
  0
LINE
  5
173
330
1F
100
AcDbEntity
  8
0-2_扉
  6
Continuous
 62
    92
370
    13
100
AcDbLine
 10
-202.1999148807009
 20
2970.000148463894
 30
0.0
 11
-202.1999148807009
 21
1237.000148463894
 31
0.0
  0
LINE
  5
174
330
1F
100
AcDbEntity
  8
0-B_寸法
  6
Continuous
 62
   120
370
     5
100
AcDbLine
 10
-534.1999148807008
 20
1237.000148463894
 30
0.0
 11
-284.1999148807014
 21
1237.000148463894
 31
0.0
  0
LINE
  5
175
330
1F
100
AcDbEntity
  8
0-B_寸法
  6
Continuous
 62
   120
370
     5
100
AcDbLine
 10
-534.1999148807008
 20
2970.000148463894
 30
0.0
 11
-534.1999148807008
 21
1237.000148463894
 31
0.0
  0
LINE
  5
176
330
1F
100
AcDbEntity
  8
0-B_寸法
  6
Continuous
 62
   120
370
     5
100
AcDbLine
 10
-534.1999148807008
 20
2970.000148463894
 30
0.0
 11
-284.1999148807014
 21
2970.000148463894
 31
0.0
  0
LWPOLYLINE
  5
177
330
1F
100
AcDbEntity
  8
0-B_寸法
  6
Continuous
 62
     7
370
     9
100
AcDbPolyline
 90
        4
 70
     1
 43
6.0
 10
-531.1999148807008
 20
1237.000148463894
 42
0.4142135623731
 10
-534.1999148807008
 20
1240.000148463894
 42
0.4142135623731
 10
-537.1999148807008
 20
1237.000148463894
 42
0.4142135623731
 10
-534.1999148807008
 20
1234.000148463894
 42
0.4142135623731
  0
LWPOLYLINE
  5
178
330
1F
100
AcDbEntity
  8
0-B_寸法
  6
Continuous
 62
     7
370
     9
100
AcDbPolyline
 90
        4
 70
     1
 43
6.0
 10
-531.1999148807008
 20
2970.000148463894
 42
0.4142135623731
 10
-534.1999148807008
 20
2973.000148463894
 42
0.4142135623731
 10
-537.1999148807008
 20
2970.000148463894
 42
0.4142135623731
 10
-534.1999148807008
 20
2967.000148463894
 42
0.4142135623731
  0
LINE
  5
179
330
1F
100
AcDbEntity
  8
0-4_枠
  6
Continuous
 62
    92
370
    13
100
AcDbLine
 10
-204.1999148807008
 20
1218.000148463894
 30
0.0
 11
-204.1999148807008
 21
3003.000148463894
 31
0.0
  0
LINE
  5
17A
330
1F
100
AcDbEntity
  8
0-4_枠
  6
Continuous
 62
    92
370
    13
100
AcDbLine
 10
469.8000851192992
 20
1218.000148463894
 30
0.0
 11
469.8000851192992
 21
3003.000148463894
 31
0.0
  0
LINE
  5
17B
330
1F
100
AcDbEntity
  8
0-3_仕上げ
  6
Continuous
 62
     7
370
     9
100
AcDbLine
 10
-181.1999148807009
 20
2970.000148463894
 30
0.0
 11
-181.1999148807009
 21
1237.000148463894
 31
0.0
  0
LINE
  5
17C
330
1F
100
AcDbEntity
  8
0-3_仕上げ
  6
Continuous
 62
     7
370
     9
100
AcDbLine
 10
110.8000851192988
 20
2970.000148463894
 30
0.0
 11
110.8000851192988
 21
1237.000148463894
 31
0.0
  0
LINE
  5
17D
330
1F
100
AcDbEntity
  8
0-3_仕上げ
  6
Continuous
 62
     7
370
     9
100
AcDbLine
 10
154.8000851192996
 20
2970.000148463894
 30
0.0
 11
154.8000851192996
 21
1237.000148463894
 31
0.0
  0
LINE
  5
17E
330
1F
100
AcDbEntity
  8
0-3_仕上げ
  6
Continuous
 62
     7
370
     9
100
AcDbLine
 10
446.8000851192994
 20
1237.000148463894
 30
0.0
 11
446.8000851192994
 21
2970.000148463894
 31
0.0
  0
LINE
  5
17F
330
1F
100
AcDbEntity
  8
0-2_扉
  6
Continuous
 62
    92
370
    13
100
AcDbLine
 10
2365.400212468328
 20
1237.000148463894
 30
0.0
 11
2699.400212468328
 21
1237.000148463894
 31
0.0
  0
LINE
  5
180
330
1F
100
AcDbEntity
  8
0-2_扉
  6
Continuous
 62
    92
370
    13
100
AcDbLine
 10
2363.400212468328
 20
1237.000148463894
 30
0.0
 11
2029.400212468328
 21
1237.000148463894
 31
0.0
  0
LINE
  5
181
330
1F
100
AcDbEntity
  8
0-B_寸法
  6
Continuous
 62
   120
370
     5
100
AcDbLine
 10
1697.400212468328
 20
1237.000148463894
 30
0.0
 11
1947.400212468327
 21
1237.000148463894
 31
0.0
  0
LWPOLYLINE
  5
182
330
1F
100
AcDbEntity
  8
0-B_寸法
  6
Continuous
 62
     7
370
     9
100
AcDbPolyline
 90
        4
 70
     1
 43
6.0
 10
1700.400212468328
 20
1237.000148463894
 42
0.4142135623731
 10
1697.400212468328
 20
1240.000148463894
 42
0.4142135623731
 10
1694.400212468328
 20
1237.000148463894
 42
0.4142135623731
 10
1697.400212468328
 20
1234.000148463894
 42
0.4142135623731
  0
LINE
  5
183
330
1F
100
AcDbEntity
  8
0-4_枠
  6
Continuous
 62
    92
370
    13
100
AcDbLine
 10
4229.000339817357
 20
1218.000148463894
 30
0.0
 11
4229.000339817357
 21
3554.000148463894
 31
0.0
  0
LINE
  5
184
330
1F
100
AcDbEntity
  8
0-4_枠
  6
Continuous
 62
    92
370
    13
100
AcDbLine
 10
4963.000339817357
 20
1218.000148463894
 30
0.0
 11
4963.000339817357
 21
3554.000148463894
 31
0.0
  0
LINE
  5
185
330
1F
100
AcDbEntity
  8
0-4_枠
  6
Continuous
 62
    92
370
    13
100
AcDbLine
 10
4229.000339817357
 20
3554.000148463894
 30
0.0
 11
4963.000339817357
 21
3554.000148463894
 31
0.0
  0
LINE
  5
186
330
1F
100
AcDbEntity
  8
0-4_枠
  6
Continuous
 62
    92
370
    13
100
AcDbLine
 10
4259.000339817357
 20
3524.000148463894
 30
0.0
 11
4933.000339817357
 21
3524.000148463894
 31
0.0
  0
LINE
  5
187
330
1F
100
AcDbEntity
  8
0-2_扉
  6
Continuous
 62
    92
370
    13
100
AcDbLine
 10
4597.000339817358
 20
1237.000148463894
 30
0.0
 11
4931.000339817358
 21
1237.000148463894
 31
0.0
  0
LINE
  5
188
330
1F
100
AcDbEntity
  8
0-2_扉
  6
Continuous
 62
    92
370
    13
100
AcDbLine
 10
4595.000339817357
 20
1237.000148463894
 30
0.0
 11
4261.000339817357
 21
1237.000148463894
 31
0.0
  0
LINE
  5
189
330
1F
100
AcDbEntity
  8
0-2_扉
  6
Continuous
 62
    92
370
    13
100
AcDbLine
 10
4597.000339817358
 20
3521.000148463894
 30
0.0
 11
4597.000339817358
 21
1237.000148463894
 31
0.0
  0
LINE
  5
18A
330
1F
100
AcDbEntity
  8
0-2_扉
  6
Continuous
 62
    92
370
    13
100
AcDbLine
 10
4595.000339817357
 20
3521.000148463894
 30
0.0
 11
4595.000339817357
 21
1237.000148463894
 31
0.0
  0
LINE
  5
18B
330
1F
100
AcDbEntity
  8
0-2_扉
  6
Continuous
 62
    92
370
    13
100
AcDbLine
 10
4597.000339817358
 20
3521.000148463894
 30
0.0
 11
4931.000339817358
 21
3521.000148463894
 31
0.0
  0
LINE
  5
18C
330
1F
100
AcDbEntity
  8
0-2_扉
  6
Continuous
 62
    92
370
    13
100
AcDbLine
 10
4931.000339817358
 20
1237.000148463894
 30
0.0
 11
4931.000339817358
 21
3521.000148463894
 31
0.0
  0
LINE
  5
18D
330
1F
100
AcDbEntity
  8
0-2_扉
  6
Continuous
 62
    92
370
    13
100
AcDbLine
 10
4595.000339817357
 20
3521.000148463894
 30
0.0
 11
4261.000339817357
 21
3521.000148463894
 31
0.0
  0
LINE
  5
18E
330
1F
100
AcDbEntity
  8
0-2_扉
  6
Continuous
 62
    92
370
    13
100
AcDbLine
 10
4261.000339817357
 20
3521.000148463894
 30
0.0
 11
4261.000339817357
 21
1237.000148463894
 31
0.0
  0
LINE
  5
18F
330
1F
100
AcDbEntity
  8
0-B_寸法
  6
Continuous
 62
   120
370
     5
100
AcDbLine
 10
3929.000339817357
 20
1237.000148463894
 30
0.0
 11
4179.000339817357
 21
1237.000148463894
 31
0.0
  0
LINE
  5
190
330
1F
100
AcDbEntity
  8
0-B_寸法
  6
Continuous
 62
   120
370
     5
100
AcDbLine
 10
3929.000339817357
 20
3521.000148463894
 30
0.0
 11
3929.000339817357
 21
1237.000148463894
 31
0.0
  0
LINE
  5
191
330
1F
100
AcDbEntity
  8
0-B_寸法
  6
Continuous
 62
   120
370
     5
100
AcDbLine
 10
3929.000339817357
 20
3521.000148463894
 30
0.0
 11
4179.000339817357
 21
3521.000148463894
 31
0.0
  0
LWPOLYLINE
  5
192
330
1F
100
AcDbEntity
  8
0-B_寸法
  6
Continuous
 62
     7
370
     9
100
AcDbPolyline
 90
        4
 70
     1
 43
6.0
 10
3932.000339817357
 20
1237.000148463894
 42
0.4142135623731
 10
3929.000339817357
 20
1240.000148463894
 42
0.4142135623731
 10
3926.000339817357
 20
1237.000148463894
 42
0.4142135623731
 10
3929.000339817357
 20
1234.000148463894
 42
0.4142135623731
  0
LWPOLYLINE
  5
193
330
1F
100
AcDbEntity
  8
0-B_寸法
  6
Continuous
 62
     7
370
     9
100
AcDbPolyline
 90
        4
 70
     1
 43
6.0
 10
3932.000339817357
 20
3521.000148463894
 42
0.4142135623731
 10
3929.000339817357
 20
3524.000148463894
 42
0.4142135623731
 10
3926.000339817357
 20
3521.000148463894
 42
0.4142135623731
 10
3929.000339817357
 20
3518.000148463894
 42
0.4142135623731
  0
LINE
  5
194
330
1F
100
AcDbEntity
  8
0-4_枠
  6
Continuous
 62
    92
370
    13
100
AcDbLine
 10
4259.000339817357
 20
1218.000148463894
 30
0.0
 11
4259.000339817357
 21
3554.000148463894
 31
0.0
  0
LINE
  5
195
330
1F
100
AcDbEntity
  8
0-4_枠
  6
Continuous
 62
    92
370
    13
100
AcDbLine
 10
4933.000339817357
 20
1218.000148463894
 30
0.0
 11
4933.000339817357
 21
3554.000148463894
 31
0.0
  0
LINE
  5
196
330
1F
100
AcDbEntity
  8
0-3_仕上げ
  6
Continuous
 62
     7
370
     9
100
AcDbLine
 10
4282.000339817357
 20
3521.000148463894
 30
0.0
 11
4282.000339817357
 21
1237.000148463894
 31
0.0
  0
LINE
  5
197
330
1F
100
AcDbEntity
  8
0-3_仕上げ
  6
Continuous
 62
     7
370
     9
100
AcDbLine
 10
4574.000339817357
 20
3521.000148463894
 30
0.0
 11
4574.000339817357
 21
1237.000148463894
 31
0.0
  0
LINE
  5
198
330
1F
100
AcDbEntity
  8
0-3_仕上げ
  6
Continuous
 62
     7
370
     9
100
AcDbLine
 10
4618.000339817357
 20
3521.000148463894
 30
0.0
 11
4618.000339817357
 21
1237.000148463894
 31
0.0
  0
LINE
  5
199
330
1F
100
AcDbEntity
  8
0-3_仕上げ
  6
Continuous
 62
     7
370
     9
100
AcDbLine
 10
4910.000339817358
 20
1237.000148463894
 30
0.0
 11
4910.000339817358
 21
3521.000148463894
 31
0.0
  0
LINE
  5
19A
330
1F
100
AcDbEntity
  8
0-4_枠
  6
Continuous
 62
    92
370
    13
100
AcDbLine
 10
1997.400212468328
 20
1218.000148463894
 30
0.0
 11
1997.400212468328
 21
3253.000148463893
 31
0.0
  0
LINE
  5
19B
330
1F
100
AcDbEntity
  8
0-4_枠
  6
Continuous
 62
    92
370
    13
100
AcDbLine
 10
2731.400212468328
 20
1218.000148463894
 30
0.0
 11
2731.400212468328
 21
3253.000148463893
 31
0.0
  0
LINE
  5
19C
330
1F
100
AcDbEntity
  8
0-4_枠
  6
Continuous
 62
    92
370
    13
100
AcDbLine
 10
1997.400212468328
 20
3253.000148463893
 30
0.0
 11
2731.400212468328
 21
3253.000148463893
 31
0.0
  0
LINE
  5
19D
330
1F
100
AcDbEntity
  8
0-4_枠
  6
Continuous
 62
    92
370
    13
100
AcDbLine
 10
2027.400212468328
 20
3223.000148463893
 30
0.0
 11
2701.400212468328
 21
3223.000148463893
 31
0.0
  0
LINE
  5
19E
330
1F
100
AcDbEntity
  8
0-2_扉
  6
Continuous
 62
    92
370
    13
100
AcDbLine
 10
2365.400212468328
 20
3220.000148463893
 30
0.0
 11
2365.400212468328
 21
1237.000148463894
 31
0.0
  0
LINE
  5
19F
330
1F
100
AcDbEntity
  8
0-2_扉
  6
Continuous
 62
    92
370
    13
100
AcDbLine
 10
2363.400212468328
 20
3220.000148463893
 30
0.0
 11
2363.400212468328
 21
1237.000148463894
 31
0.0
  0
LINE
  5
1A0
330
1F
100
AcDbEntity
  8
0-2_扉
  6
Continuous
 62
    92
370
    13
100
AcDbLine
 10
2699.400212468328
 20
1237.000148463894
 30
0.0
 11
2699.400212468328
 21
3220.000148463893
 31
0.0
  0
LINE
  5
1A1
330
1F
100
AcDbEntity
  8
0-2_扉
  6
Continuous
 62
    92
370
    13
100
AcDbLine
 10
2029.400212468328
 20
3220.000148463893
 30
0.0
 11
2029.400212468328
 21
1237.000148463894
 31
0.0
  0
LINE
  5
1A2
330
1F
100
AcDbEntity
  8
0-2_扉
  6
Continuous
 62
    92
370
    13
100
AcDbLine
 10
2365.400212468328
 20
3220.000148463893
 30
0.0
 11
2699.400212468328
 21
3220.000148463893
 31
0.0
  0
LINE
  5
1A3
330
1F
100
AcDbEntity
  8
0-2_扉
  6
Continuous
 62
    92
370
    13
100
AcDbLine
 10
2363.400212468328
 20
3220.000148463893
 30
0.0
 11
2029.400212468328
 21
3220.000148463893
 31
0.0
  0
LINE
  5
1A4
330
1F
100
AcDbEntity
  8
0-B_寸法
  6
Continuous
 62
   120
370
     5
100
AcDbLine
 10
1697.400212468328
 20
3220.000148463893
 30
0.0
 11
1697.400212468328
 21
1237.000148463894
 31
0.0
  0
LINE
  5
1A5
330
1F
100
AcDbEntity
  8
0-B_寸法
  6
Continuous
 62
   120
370
     5
100
AcDbLine
 10
1697.400212468328
 20
3220.000148463893
 30
0.0
 11
1947.400212468327
 21
3220.000148463893
 31
0.0
  0
LWPOLYLINE
  5
1A6
330
1F
100
AcDbEntity
  8
0-B_寸法
  6
Continuous
 62
     7
370
     9
100
AcDbPolyline
 90
        4
 70
     1
 43
6.0
 10
1700.400212468328
 20
3220.000148463893
 42
0.4142135623731
 10
1697.400212468328
 20
3223.000148463893
 42
0.4142135623731
 10
1694.400212468328
 20
3220.000148463893
 42
0.4142135623731
 10
1697.400212468328
 20
3217.000148463893
 42
0.4142135623731
  0
LINE
  5
1A7
330
1F
100
AcDbEntity
  8
0-4_枠
  6
Continuous
 62
    92
370
    13
100
AcDbLine
 10
2027.400212468328
 20
1218.000148463894
 30
0.0
 11
2027.400212468328
 21
3253.000148463893
 31
0.0
  0
LINE
  5
1A8
330
1F
100
AcDbEntity
  8
0-4_枠
  6
Continuous
 62
    92
370
    13
100
AcDbLine
 10
2701.400212468328
 20
1218.000148463894
 30
0.0
 11
2701.400212468328
 21
3253.000148463893
 31
0.0
  0
LINE
  5
1A9
330
1F
100
AcDbEntity
  8
0-3_仕上げ
  6
Continuous
 62
     7
370
     9
100
AcDbLine
 10
2050.400212468328
 20
3220.000148463893
 30
0.0
 11
2050.400212468328
 21
1237.000148463894
 31
0.0
  0
LINE
  5
1AA
330
1F
100
AcDbEntity
  8
0-3_仕上げ
  6
Continuous
 62
     7
370
     9
100
AcDbLine
 10
2342.400212468327
 20
3220.000148463893
 30
0.0
 11
2342.400212468327
 21
1237.000148463894
 31
0.0
  0
LINE
  5
1AB
330
1F
100
AcDbEntity
  8
0-3_仕上げ
  6
Continuous
 62
     7
370
     9
100
AcDbLine
 10
2386.400212468328
 20
3220.000148463893
 30
0.0
 11
2386.400212468328
 21
1237.000148463894
 31
0.0
  0
LINE
  5
1AC
330
1F
100
AcDbEntity
  8
0-3_仕上げ
  6
Continuous
 62
     7
370
     9
100
AcDbLine
 10
2678.400212468328
 20
1237.000148463894
 30
0.0
 11
2678.400212468328
 21
3220.000148463893
 31
0.0
  0
LINE
  5
1AD
330
1F
100
AcDbEntity
  8
0-0_補助線
  6
JWW_HOJO
 62
     7
370
     9
100
AcDbLine
 10
5699.998762800888
 20
3964.999818544131
 30
0.0
 11
5699.998762800888
 21
-3790.000179909371
 31
0.0
  0
LINE
  5
1AE
330
1F
100
AcDbEntity
  8
F-0_補助線
  6
JWW_HOJO
 62
     7
370
     9
100
AcDbLine
 10
849.9995876002961
 20
-3795.000003092998
 30
0.0
 11
849.9995876002961
 21
-4195.000008247994
 31
0.0
  0
LINE
  5
1AF
330
1F
100
AcDbEntity
  8
F-0_補助線
  6
JWW_HOJO
 62
     7
370
     9
100
AcDbLine
 10
349.9999175200594
 20
-3795.000003092998
 30
0.0
 11
349.9999175200594
 21
-4195.000008247994
 31
0.0
  0
LINE
  5
1B0
330
1F
100
AcDbEntity
  8
F-1_枠
  6
Continuous
 62
   200
370
    20
100
AcDbLine
 10
5699.998762800888
 20
-4205.000002577498
 30
0.0
 11
-5999.999752560178
 21
-4205.000002577498
 31
0.0
  0
LINE
  5
1B1
330
1F
100
AcDbEntity
  8
F-1_枠
  6
Continuous
 62
   200
370
    20
100
AcDbLine
 10
5699.998762800888
 20
-4199.999993814004
 30
0.0
 11
-5999.999752560178
 21
-4199.999993814004
 31
0.0
  0
LINE
  5
1B2
330
1F
100
AcDbEntity
  8
F-1_枠
  6
Continuous
 62
   200
370
    20
100
AcDbLine
 10
5699.998762800888
 20
-4195.000008247994
 30
0.0
 11
-5999.999752560178
 21
-4195.000008247994
 31
0.0
  0
LINE
  5
1B3
330
1F
100
AcDbEntity
  8
F-1_枠
  6
Continuous
 62
   200
370
    20
100
AcDbLine
 10
4189.999224688556
 20
-3795.000003092998
 30
0.0
 11
4189.999224688556
 21
-4195.000008247994
 31
0.0
  0
LINE
  5
1B4
330
1F
100
AcDbEntity
  8
F-1_枠
  6
Continuous
 62
   200
370
    20
100
AcDbLine
 10
2689.998729808911
 20
-3795.000003092998
 30
0.0
 11
2689.998729808911
 21
-4195.000008247994
 31
0.0
  0
LINE
  5
1B5
330
1F
100
AcDbEntity
  8
F-1_枠
  6
Continuous
 62
   200
370
    20
100
AcDbLine
 10
-150.0001237199109
 20
-3795.000003092998
 30
0.0
 11
-150.0001237199109
 21
-4195.000008247994
 31
0.0
  0
LINE
  5
1B6
330
1F
100
AcDbEntity
  8
F-1_枠
  6
Continuous
 62
   200
370
    20
100
AcDbLine
 10
-150.0001237199109
 20
-3994.999936078046
 30
0.0
 11
5689.998977248734
 21
-3995.005364289155
 31
0.0
  0
LINE
  5
1B7
330
1F
100
AcDbEntity
  8
F-0_補助線
  6
JWW_HOJO
 62
     7
370
     9
100
AcDbLine
 10
-5989.999990205507
 20
-3994.99993607839
 30
0.0
 11
-150.0001237199109
 21
-3994.99993607839
 31
0.0
  0
LINE
  5
1B8
330
1F
100
AcDbEntity
  8
F-0_補助線
  6
JWW_HOJO
 62
     7
370
     9
100
AcDbLine
 10
-5989.999990205507
 20
-3904.99993607839
 30
0.0
 11
-150.0001237199109
 21
-3904.99993607839
 31
0.0
  0
LINE
  5
1B9
330
1F
100
AcDbEntity
  8
F-0_補助線
  6
JWW_HOJO
 62
     7
370
     9
100
AcDbLine
 10
-5989.999990205507
 20
-4084.99993607839
 30
0.0
 11
-150.0001237199109
 21
-4084.99993607839
 31
0.0
  0
LINE
  5
1BA
330
1F
100
AcDbEntity
  8
F-0_補助線
  6
JWW_HOJO
 62
     7
370
     9
100
AcDbLine
 10
-150.0002584955388
 20
-4139.999739777983
 30
0.0
 11
5689.998842473105
 21
-4140.005167989091
 31
0.0
  0
LINE
  5
1BB
330
1F
100
AcDbEntity
  8
F-0_補助線
  6
JWW_HOJO
 62
     7
370
     9
100
AcDbLine
 10
-150.0001748415872
 20
-4049.999739778022
 30
0.0
 11
5689.998926127057
 21
-4050.005167989131
 31
0.0
  0
LINE
  5
1BC
330
1F
100
AcDbEntity
  8
F-0_補助線
  6
JWW_HOJO
 62
     7
370
     9
100
AcDbLine
 10
-150.0000725978671
 20
-3939.99973721807
 30
0.0
 11
5689.999028370777
 21
-3940.005165429179
 31
0.0
  0
LINE
  5
1BD
330
1F
100
AcDbEntity
  8
F-0_補助線
  6
JWW_HOJO
 62
     7
370
     9
100
AcDbLine
 10
-149.9999889439155
 20
-3849.999737218109
 30
0.0
 11
5689.999112024728
 21
-3850.005165429218
 31
0.0
  0
LINE
  5
1BE
330
1F
100
AcDbEntity
  8
F-0_補助線
  6
JWW_HOJO
 62
     7
370
     9
100
AcDbLine
 10
2779.998729808911
 20
-3795.000003092998
 30
0.0
 11
2779.998729808911
 21
-4195.000008247994
 31
0.0
  0
LINE
  5
1BF
330
1F
100
AcDbEntity
  8
F-0_補助線
  6
JWW_HOJO
 62
     7
370
     9
100
AcDbLine
 10
-60.0001237199109
 20
-3795.000003092998
 30
0.0
 11
-60.0001237199109
 21
-4195.000008247994
 31
0.0
  0
LINE
  5
1C0
330
1F
100
AcDbEntity
  8
F-0_補助線
  6
JWW_HOJO
 62
     7
370
     9
100
AcDbLine
 10
4279.999224688556
 20
-3795.000003092998
 30
0.0
 11
4279.999224688556
 21
-4195.000008247994
 31
0.0
  0
LINE
  5
1C1
330
1F
100
AcDbEntity
  8
F-0_補助線
  6
JWW_HOJO
 62
     7
370
     9
100
AcDbLine
 10
-5247.547376752838
 20
-3795.000003092999
 30
0.0
 11
-5247.547376752838
 21
-4205.000164959882
 31
0.0
  0
LINE
  5
1C2
330
1F
100
AcDbEntity
  8
F-0_補助線
  6
JWW_HOJO
 62
     7
370
     9
100
AcDbLine
 10
-210.0001237199109
 20
-3795.000003092998
 30
0.0
 11
-210.0001237199109
 21
-4195.000008247994
 31
0.0
  0
LINE
  5
1C3
330
1F
100
AcDbEntity
  8
F-1_枠
  6
Continuous
 62
   200
370
    20
100
AcDbLine
 10
5699.998762800888
 20
-3795.000003092998
 30
0.0
 11
-5999.99998453501
 21
-3795.000003092998
 31
0.0
  0
LINE
  5
1C4
330
1F
100
AcDbEntity
  8
F-1_枠
  6
Continuous
 62
   200
370
    20
100
AcDbLine
 10
5699.998762800888
 20
-3790.000017526987
 30
0.0
 11
-5999.99998453501
 21
-3790.000017526987
 31
0.0
  0
LINE
  5
1C5
330
1F
100
AcDbEntity
  8
F-A_文字
  6
Continuous
 62
     7
370
     9
100
AcDbLine
 10
1204.800085119299
 20
184.5000148463899
 30
0.0
 11
-1026.799671069995
 21
-3790.000017526987
 31
0.0
  0
LINE
  5
1C6
330
1F
100
AcDbEntity
  8
F-A_文字
  6
Continuous
 62
     7
370
     9
100
AcDbLine
 10
3436.399841308594
 20
184.5000148463899
 30
0.0
 11
1204.800085119299
 21
-3790.000017526987
 31
0.0
  0
LINE
  5
1C7
330
1F
100
AcDbEntity
  8
F-A_文字
  6
Continuous
 62
     7
370
     9
100
AcDbLine
 10
5689.998977248734
 20
184.5000148463899
 30
0.0
 11
3436.400212468328
 21
-3790.000017526987
 31
0.0
  0
LINE
  5
1C8
330
1F
100
AcDbEntity
  8
0-1_通り芯
  6
JWW_CENTER1
 62
   120
370
     5
100
AcDbLine
 10
-4371.899798419024
 20
1969.000148463893
 30
0.0
 11
-4371.899798419024
 21
1815.000148463894
 31
0.0
  0
LINE
  5
1C9
330
1F
100
AcDbEntity
  8
0-1_通り芯
  6
JWW_CENTER1
 62
   120
370
     5
100
AcDbLine
 10
-4356.899798419025
 20
1892.000148463894
 30
0.0
 11
-4386.899798419023
 21
1892.000148463894
 31
0.0
  0
LINE
  5
1CA
330
1F
100
AcDbEntity
  8
0-8_取手W
  6
Continuous
 62
    92
370
    13
100
AcDbLine
 10
-4366.899798419024
 20
1959.000148463893
 30
0.0
 11
-4376.899798419024
 21
1959.000148463893
 31
0.0
  0
LINE
  5
1CB
330
1F
100
AcDbEntity
  8
0-8_取手W
  6
Continuous
 62
    92
370
    13
100
AcDbLine
 10
-4376.899798419024
 20
1825.000148463893
 30
0.0
 11
-4366.899798419024
 21
1825.000148463893
 31
0.0
  0
LINE
  5
1CC
330
1F
100
AcDbEntity
  8
0-8_取手W
  6
Continuous
 62
    92
370
    13
100
AcDbLine
 10
-4376.899798419024
 20
1959.000148463893
 30
0.0
 11
-4376.899798419024
 21
1825.000148463893
 31
0.0
  0
LINE
  5
1CD
330
1F
100
AcDbEntity
  8
0-8_取手W
  6
Continuous
 62
    92
370
    13
100
AcDbLine
 10
-4366.899798419024
 20
1959.000148463893
 30
0.0
 11
-4366.899798419024
 21
1825.000148463893
 31
0.0
  0
ELLIPSE
  5
1CE
330
1F
100
AcDbEntity
  8
0-8_取手W
  6
Continuous
 62
     7
370
     9
100
AcDbEllipse
 10
-4371.899798419024
 20
1959.000148463893
 30
0.0
 11
1.071565949253925E-15
 21
17.49999999999986
 31
0.0
210
0.0
220
0.0
230
1.0
 40
0.2857142857142857
 41
3.141592653589793
 42
4.71238898038469
  0
ELLIPSE
  5
1CF
330
1F
100
AcDbEntity
  8
0-8_取手W
  6
Continuous
 62
     7
370
     9
100
AcDbEllipse
 10
-4371.899798419024
 20
1825.000148463893
 30
0.0
 11
1.071565949253925E-15
 21
17.49999999999986
 31
0.0
210
0.0
220
0.0
230
1.0
 40
0.2857142857142857
 41
0.0
 42
1.570796326794897
  0
ELLIPSE
  5
1D0
330
1F
100
AcDbEntity
  8
0-8_取手W
  6
Continuous
 62
     7
370
     9
100
AcDbEllipse
 10
-4371.899798419024
 20
1825.000148463893
 30
0.0
 11
1.071565949253925E-15
 21
-17.49999999999986
 31
0.0
210
0.0
220
0.0
230
1.0
 40
0.2857142857142857
 41
1.570796326794897
 42
3.141592653589793
  0
ARC
  5
1D1
330
1F
100
AcDbEntity
  8
0-8_取手W
  6
Continuous
 62
     7
370
     9
100
AcDbCircle
 10
-4376.899798419024
 20
1958.000148463893
 30
0.0
 40
1.0
100
AcDbArc
 50
90.0
 51
180.0
  0
LINE
  5
1D2
330
1F
100
AcDbEntity
  8
0-8_取手W
  6
Continuous
 62
     7
370
     9
100
AcDbLine
 10
-4377.899798419023
 20
1942.500148463894
 30
0.0
 11
-4377.899798419023
 21
1958.000148463893
 31
0.0
  0
ARC
  5
1D3
330
1F
100
AcDbEntity
  8
0-8_取手W
  6
Continuous
 62
     7
370
     9
100
AcDbCircle
 10
-4376.899798419024
 20
1942.500148463894
 30
0.0
 40
1.0
100
AcDbArc
 50
180.0
 51
270.0
  0
ARC
  5
1D4
330
1F
100
AcDbEntity
  8
0-8_取手W
  6
Continuous
 62
     7
370
     9
100
AcDbCircle
 10
-4366.899798419024
 20
1942.500148463894
 30
0.0
 40
1.0
100
AcDbArc
 50
270.0
 51
0.0
  0
LINE
  5
1D5
330
1F
100
AcDbEntity
  8
0-8_取手W
  6
Continuous
 62
     7
370
     9
100
AcDbLine
 10
-4365.899798419024
 20
1942.500148463894
 30
0.0
 11
-4365.899798419024
 21
1958.000148463893
 31
0.0
  0
ARC
  5
1D6
330
1F
100
AcDbEntity
  8
0-8_取手W
  6
Continuous
 62
     7
370
     9
100
AcDbCircle
 10
-4366.899798419024
 20
1958.000148463893
 30
0.0
 40
1.0
100
AcDbArc
 50
0.0
 51
90.00000000000001
  0
ARC
  5
1D7
330
1F
100
AcDbEntity
  8
0-8_取手W
  6
Continuous
 62
     7
370
     9
100
AcDbCircle
 10
-4376.899798419024
 20
1841.500148463893
 30
0.0
 40
1.0
100
AcDbArc
 50
90.0
 51
180.0
  0
LINE
  5
1D8
330
1F
100
AcDbEntity
  8
0-8_取手W
  6
Continuous
 62
     7
370
     9
100
AcDbLine
 10
-4377.899798419023
 20
1826.000148463893
 30
0.0
 11
-4377.899798419023
 21
1841.500148463893
 31
0.0
  0
ARC
  5
1D9
330
1F
100
AcDbEntity
  8
0-8_取手W
  6
Continuous
 62
     7
370
     9
100
AcDbCircle
 10
-4366.899798419024
 20
1841.500148463893
 30
0.0
 40
1.0
100
AcDbArc
 50
0.0
 51
90.00000000000001
  0
LINE
  5
1DA
330
1F
100
AcDbEntity
  8
0-8_取手W
  6
Continuous
 62
     7
370
     9
100
AcDbLine
 10
-4365.899798419024
 20
1826.000148463893
 30
0.0
 11
-4365.899798419024
 21
1841.500148463893
 31
0.0
  0
ARC
  5
1DB
330
1F
100
AcDbEntity
  8
0-8_取手W
  6
Continuous
 62
     7
370
     9
100
AcDbCircle
 10
-4366.899798419024
 20
1826.000148463893
 30
0.0
 40
1.0
100
AcDbArc
 50
270.0
 51
0.0
  0
ARC
  5
1DC
330
1F
100
AcDbEntity
  8
0-8_取手W
  6
Continuous
 62
     7
370
     9
100
AcDbCircle
 10
-4376.899798419024
 20
1826.000148463893
 30
0.0
 40
1.0
100
AcDbArc
 50
180.0
 51
270.0
  0
ELLIPSE
  5
1DD
330
1F
100
AcDbEntity
  8
0-8_取手W
  6
Continuous
 62
     7
370
     9
100
AcDbEllipse
 10
-4371.899798419024
 20
1959.000148463893
 30
0.0
 11
1.071565949253925E-15
 21
17.49999999999986
 31
0.0
210
0.0
220
0.0
230
1.0
 40
0.2857142857142857
 41
1.570796326794897
 42
3.141592653589793
  0
LINE
  5
1DE
330
1F
100
AcDbEntity
  8
0-1_通り芯
  6
JWW_CENTER1
 62
   120
370
     5
100
AcDbLine
 10
-4288.899798419023
 20
1969.000148463893
 30
0.0
 11
-4288.899798419023
 21
1815.000148463894
 31
0.0
  0
LINE
  5
1DF
330
1F
100
AcDbEntity
  8
0-1_通り芯
  6
JWW_CENTER1
 62
   120
370
     5
100
AcDbLine
 10
-4273.899798419024
 20
1892.000148463894
 30
0.0
 11
-4303.899798419023
 21
1892.000148463894
 31
0.0
  0
LINE
  5
1E0
330
1F
100
AcDbEntity
  8
0-8_取手W
  6
Continuous
 62
    92
370
    13
100
AcDbLine
 10
-4283.899798419024
 20
1959.000148463893
 30
0.0
 11
-4293.899798419023
 21
1959.000148463893
 31
0.0
  0
LINE
  5
1E1
330
1F
100
AcDbEntity
  8
0-8_取手W
  6
Continuous
 62
    92
370
    13
100
AcDbLine
 10
-4293.899798419023
 20
1825.000148463893
 30
0.0
 11
-4283.899798419024
 21
1825.000148463893
 31
0.0
  0
LINE
  5
1E2
330
1F
100
AcDbEntity
  8
0-8_取手W
  6
Continuous
 62
    92
370
    13
100
AcDbLine
 10
-4293.899798419023
 20
1959.000148463893
 30
0.0
 11
-4293.899798419023
 21
1825.000148463893
 31
0.0
  0
LINE
  5
1E3
330
1F
100
AcDbEntity
  8
0-8_取手W
  6
Continuous
 62
    92
370
    13
100
AcDbLine
 10
-4283.899798419024
 20
1959.000148463893
 30
0.0
 11
-4283.899798419024
 21
1825.000148463893
 31
0.0
  0
ELLIPSE
  5
1E4
330
1F
100
AcDbEntity
  8
0-8_取手W
  6
Continuous
 62
     7
370
     9
100
AcDbEllipse
 10
-4288.899798419023
 20
1959.000148463893
 30
0.0
 11
1.071565949253925E-15
 21
17.49999999999986
 31
0.0
210
0.0
220
0.0
230
1.0
 40
0.2857142857142857
 41
3.141592653589793
 42
4.71238898038469
  0
ELLIPSE
  5
1E5
330
1F
100
AcDbEntity
  8
0-8_取手W
  6
Continuous
 62
     7
370
     9
100
AcDbEllipse
 10
-4288.899798419023
 20
1825.000148463893
 30
0.0
 11
1.071565949253925E-15
 21
17.49999999999986
 31
0.0
210
0.0
220
0.0
230
1.0
 40
0.2857142857142857
 41
0.0
 42
1.570796326794897
  0
ELLIPSE
  5
1E6
330
1F
100
AcDbEntity
  8
0-8_取手W
  6
Continuous
 62
     7
370
     9
100
AcDbEllipse
 10
-4288.899798419023
 20
1825.000148463893
 30
0.0
 11
1.071565949253925E-15
 21
-17.49999999999986
 31
0.0
210
0.0
220
0.0
230
1.0
 40
0.2857142857142857
 41
1.570796326794897
 42
3.141592653589793
  0
ARC
  5
1E7
330
1F
100
AcDbEntity
  8
0-8_取手W
  6
Continuous
 62
     7
370
     9
100
AcDbCircle
 10
-4293.899798419023
 20
1958.000148463893
 30
0.0
 40
1.0
100
AcDbArc
 50
90.0
 51
180.0
  0
LINE
  5
1E8
330
1F
100
AcDbEntity
  8
0-8_取手W
  6
Continuous
 62
     7
370
     9
100
AcDbLine
 10
-4294.899798419022
 20
1942.500148463894
 30
0.0
 11
-4294.899798419022
 21
1958.000148463893
 31
0.0
  0
ARC
  5
1E9
330
1F
100
AcDbEntity
  8
0-8_取手W
  6
Continuous
 62
     7
370
     9
100
AcDbCircle
 10
-4293.899798419023
 20
1942.500148463894
 30
0.0
 40
1.0
100
AcDbArc
 50
180.0
 51
270.0
  0
ARC
  5
1EA
330
1F
100
AcDbEntity
  8
0-8_取手W
  6
Continuous
 62
     7
370
     9
100
AcDbCircle
 10
-4283.899798419024
 20
1942.500148463894
 30
0.0
 40
1.0
100
AcDbArc
 50
270.0
 51
0.0
  0
LINE
  5
1EB
330
1F
100
AcDbEntity
  8
0-8_取手W
  6
Continuous
 62
     7
370
     9
100
AcDbLine
 10
-4282.899798419024
 20
1942.500148463894
 30
0.0
 11
-4282.899798419024
 21
1958.000148463893
 31
0.0
  0
ARC
  5
1EC
330
1F
100
AcDbEntity
  8
0-8_取手W
  6
Continuous
 62
     7
370
     9
100
AcDbCircle
 10
-4283.899798419024
 20
1958.000148463893
 30
0.0
 40
1.0
100
AcDbArc
 50
0.0
 51
90.00000000000001
  0
ARC
  5
1ED
330
1F
100
AcDbEntity
  8
0-8_取手W
  6
Continuous
 62
     7
370
     9
100
AcDbCircle
 10
-4293.899798419023
 20
1841.500148463893
 30
0.0
 40
1.0
100
AcDbArc
 50
90.0
 51
180.0
  0
LINE
  5
1EE
330
1F
100
AcDbEntity
  8
0-8_取手W
  6
Continuous
 62
     7
370
     9
100
AcDbLine
 10
-4294.899798419022
 20
1826.000148463893
 30
0.0
 11
-4294.899798419022
 21
1841.500148463893
 31
0.0
  0
ARC
  5
1EF
330
1F
100
AcDbEntity
  8
0-8_取手W
  6
Continuous
 62
     7
370
     9
100
AcDbCircle
 10
-4283.899798419024
 20
1841.500148463893
 30
0.0
 40
1.0
100
AcDbArc
 50
0.0
 51
90.00000000000001
  0
LINE
  5
1F0
330
1F
100
AcDbEntity
  8
0-8_取手W
  6
Continuous
 62
     7
370
     9
100
AcDbLine
 10
-4282.899798419024
 20
1826.000148463893
 30
0.0
 11
-4282.899798419024
 21
1841.500148463893
 31
0.0
  0
ARC
  5
1F1
330
1F
100
AcDbEntity
  8
0-8_取手W
  6
Continuous
 62
     7
370
     9
100
AcDbCircle
 10
-4283.899798419024
 20
1826.000148463893
 30
0.0
 40
1.0
100
AcDbArc
 50
270.0
 51
0.0
  0
ARC
  5
1F2
330
1F
100
AcDbEntity
  8
0-8_取手W
  6
Continuous
 62
     7
370
     9
100
AcDbCircle
 10
-4293.899798419023
 20
1826.000148463893
 30
0.0
 40
1.0
100
AcDbArc
 50
180.0
 51
270.0
  0
ELLIPSE
  5
1F3
330
1F
100
AcDbEntity
  8
0-8_取手W
  6
Continuous
 62
     7
370
     9
100
AcDbEllipse
 10
-4288.899798419023
 20
1959.000148463893
 30
0.0
 11
1.071565949253925E-15
 21
17.49999999999986
 31
0.0
210
0.0
220
0.0
230
1.0
 40
0.2857142857142857
 41
1.570796326794897
 42
3.141592653589793
  0
ARC
  5
1F4
330
1F
100
AcDbEntity
  8
0-7_取手GEK
  6
Continuous
 62
    92
370
    13
100
AcDbCircle
 10
-4375.899798419023
 20
1957.000148463893
 30
0.0
 40
1.0
100
AcDbArc
 50
90.0
 51
180.0
  0
LINE
  5
1F5
330
1F
100
AcDbEntity
  8
0-7_取手GEK
  6
Continuous
 62
    92
370
    13
100
AcDbLine
 10
-4367.899798419024
 20
1958.000148463893
 30
0.0
 11
-4375.899798419023
 21
1958.000148463893
 31
0.0
  0
ARC
  5
1F6
330
1F
100
AcDbEntity
  8
0-7_取手GEK
  6
Continuous
 62
    92
370
    13
100
AcDbCircle
 10
-4367.899798419024
 20
1957.000148463893
 30
0.0
 40
1.0
100
AcDbArc
 50
0.0
 51
90.00000000000001
  0
LINE
  5
1F7
330
1F
100
AcDbEntity
  8
0-7_取手GEK
  6
Continuous
 62
    92
370
    13
100
AcDbLine
 10
-4366.899798419024
 20
1825.000148463893
 30
0.0
 11
-4366.899798419024
 21
1957.000148463893
 31
0.0
  0
ARC
  5
1F8
330
1F
100
AcDbEntity
  8
0-7_取手GEK
  6
Continuous
 62
    92
370
    13
100
AcDbCircle
 10
-4367.899798419024
 20
1825.000148463893
 30
0.0
 40
1.0
100
AcDbArc
 50
270.0
 51
0.0
  0
LINE
  5
1F9
330
1F
100
AcDbEntity
  8
0-7_取手GEK
  6
Continuous
 62
    92
370
    13
100
AcDbLine
 10
-4375.899798419023
 20
1824.000148463893
 30
0.0
 11
-4367.899798419024
 21
1824.000148463893
 31
0.0
  0
LINE
  5
1FA
330
1F
100
AcDbEntity
  8
0-7_取手GEK
  6
Continuous
 62
    92
370
    13
100
AcDbLine
 10
-4376.899798419024
 20
1825.000148463893
 30
0.0
 11
-4376.899798419024
 21
1957.000148463893
 31
0.0
  0
ARC
  5
1FB
330
1F
100
AcDbEntity
  8
0-7_取手GEK
  6
Continuous
 62
    92
370
    13
100
AcDbCircle
 10
-4375.899798419023
 20
1825.000148463893
 30
0.0
 40
1.0
100
AcDbArc
 50
180.0
 51
270.0
  0
ARC
  5
1FC
330
1F
100
AcDbEntity
  8
0-7_取手GEK
  6
Continuous
 62
     7
370
     9
100
AcDbCircle
 10
-4376.899798419024
 20
1955.000148463894
 30
0.0
 40
1.0
100
AcDbArc
 50
90.0
 51
180.0
  0
ARC
  5
1FD
330
1F
100
AcDbEntity
  8
0-7_取手GEK
  6
Continuous
 62
     7
370
     9
100
AcDbCircle
 10
-4366.899798419024
 20
1955.000148463894
 30
0.0
 40
1.0
100
AcDbArc
 50
0.0
 51
90.00000000000001
  0
LINE
  5
1FE
330
1F
100
AcDbEntity
  8
0-7_取手GEK
  6
Continuous
 62
     7
370
     9
100
AcDbLine
 10
-4365.899798419023
 20
1937.000148463894
 30
0.0
 11
-4365.899798419023
 21
1955.000148463894
 31
0.0
  0
ARC
  5
1FF
330
1F
100
AcDbEntity
  8
0-7_取手GEK
  6
Continuous
 62
     7
370
     9
100
AcDbCircle
 10
-4366.899798419024
 20
1937.000148463894
 30
0.0
 40
1.0
100
AcDbArc
 50
270.0
 51
0.0
  0
LINE
  5
200
330
1F
100
AcDbEntity
  8
0-7_取手GEK
  6
Continuous
 62
     7
370
     9
100
AcDbLine
 10
-4377.899798419024
 20
1937.000148463894
 30
0.0
 11
-4377.899798419024
 21
1955.000148463894
 31
0.0
  0
ARC
  5
201
330
1F
100
AcDbEntity
  8
0-7_取手GEK
  6
Continuous
 62
     7
370
     9
100
AcDbCircle
 10
-4376.899798419024
 20
1937.000148463894
 30
0.0
 40
1.0
100
AcDbArc
 50
180.0
 51
270.0
  0
ARC
  5
202
330
1F
100
AcDbEntity
  8
0-7_取手GEK
  6
Continuous
 62
     7
370
     9
100
AcDbCircle
 10
-4376.899798419024
 20
1845.000148463894
 30
0.0
 40
1.0
100
AcDbArc
 50
90.0
 51
180.0
  0
ARC
  5
203
330
1F
100
AcDbEntity
  8
0-7_取手GEK
  6
Continuous
 62
     7
370
     9
100
AcDbCircle
 10
-4366.899798419024
 20
1845.000148463894
 30
0.0
 40
1.0
100
AcDbArc
 50
0.0
 51
90.00000000000001
  0
LINE
  5
204
330
1F
100
AcDbEntity
  8
0-7_取手GEK
  6
Continuous
 62
     7
370
     9
100
AcDbLine
 10
-4365.899798419023
 20
1827.000148463894
 30
0.0
 11
-4365.899798419023
 21
1845.000148463894
 31
0.0
  0
ARC
  5
205
330
1F
100
AcDbEntity
  8
0-7_取手GEK
  6
Continuous
 62
     7
370
     9
100
AcDbCircle
 10
-4366.899798419024
 20
1827.000148463894
 30
0.0
 40
1.0
100
AcDbArc
 50
270.0
 51
0.0
  0
LINE
  5
206
330
1F
100
AcDbEntity
  8
0-7_取手GEK
  6
Continuous
 62
     7
370
     9
100
AcDbLine
 10
-4377.899798419024
 20
1827.000148463894
 30
0.0
 11
-4377.899798419024
 21
1845.000148463894
 31
0.0
  0
ARC
  5
207
330
1F
100
AcDbEntity
  8
0-7_取手GEK
  6
Continuous
 62
     7
370
     9
100
AcDbCircle
 10
-4376.899798419024
 20
1827.000148463894
 30
0.0
 40
1.0
100
AcDbArc
 50
180.0
 51
270.0
  0
ARC
  5
208
330
1F
100
AcDbEntity
  8
0-7_取手GEK
  6
Continuous
 62
    92
370
    13
100
AcDbCircle
 10
-4292.899798419022
 20
1957.000148463893
 30
0.0
 40
1.0
100
AcDbArc
 50
90.0
 51
180.0
  0
LINE
  5
209
330
1F
100
AcDbEntity
  8
0-7_取手GEK
  6
Continuous
 62
    92
370
    13
100
AcDbLine
 10
-4284.899798419025
 20
1958.000148463893
 30
0.0
 11
-4292.899798419022
 21
1958.000148463893
 31
0.0
  0
ARC
  5
20A
330
1F
100
AcDbEntity
  8
0-7_取手GEK
  6
Continuous
 62
    92
370
    13
100
AcDbCircle
 10
-4284.899798419025
 20
1957.000148463893
 30
0.0
 40
1.0
100
AcDbArc
 50
0.0
 51
90.00000000000001
  0
LINE
  5
20B
330
1F
100
AcDbEntity
  8
0-7_取手GEK
  6
Continuous
 62
    92
370
    13
100
AcDbLine
 10
-4283.899798419024
 20
1825.000148463893
 30
0.0
 11
-4283.899798419024
 21
1957.000148463893
 31
0.0
  0
ARC
  5
20C
330
1F
100
AcDbEntity
  8
0-7_取手GEK
  6
Continuous
 62
    92
370
    13
100
AcDbCircle
 10
-4284.899798419025
 20
1825.000148463893
 30
0.0
 40
1.0
100
AcDbArc
 50
270.0
 51
0.0
  0
LINE
  5
20D
330
1F
100
AcDbEntity
  8
0-7_取手GEK
  6
Continuous
 62
    92
370
    13
100
AcDbLine
 10
-4292.899798419022
 20
1824.000148463893
 30
0.0
 11
-4284.899798419025
 21
1824.000148463893
 31
0.0
  0
LINE
  5
20E
330
1F
100
AcDbEntity
  8
0-7_取手GEK
  6
Continuous
 62
    92
370
    13
100
AcDbLine
 10
-4293.899798419023
 20
1825.000148463893
 30
0.0
 11
-4293.899798419023
 21
1957.000148463893
 31
0.0
  0
ARC
  5
20F
330
1F
100
AcDbEntity
  8
0-7_取手GEK
  6
Continuous
 62
    92
370
    13
100
AcDbCircle
 10
-4292.899798419022
 20
1825.000148463893
 30
0.0
 40
1.0
100
AcDbArc
 50
180.0
 51
270.0
  0
ARC
  5
210
330
1F
100
AcDbEntity
  8
0-7_取手GEK
  6
Continuous
 62
     7
370
     9
100
AcDbCircle
 10
-4293.899798419023
 20
1955.000148463894
 30
0.0
 40
1.0
100
AcDbArc
 50
90.0
 51
180.0
  0
ARC
  5
211
330
1F
100
AcDbEntity
  8
0-7_取手GEK
  6
Continuous
 62
     7
370
     9
100
AcDbCircle
 10
-4283.899798419024
 20
1955.000148463894
 30
0.0
 40
1.0
100
AcDbArc
 50
0.0
 51
90.00000000000001
  0
LINE
  5
212
330
1F
100
AcDbEntity
  8
0-7_取手GEK
  6
Continuous
 62
     7
370
     9
100
AcDbLine
 10
-4282.899798419023
 20
1937.000148463894
 30
0.0
 11
-4282.899798419023
 21
1955.000148463894
 31
0.0
  0
ARC
  5
213
330
1F
100
AcDbEntity
  8
0-7_取手GEK
  6
Continuous
 62
     7
370
     9
100
AcDbCircle
 10
-4283.899798419024
 20
1937.000148463894
 30
0.0
 40
1.0
100
AcDbArc
 50
270.0
 51
0.0
  0
LINE
  5
214
330
1F
100
AcDbEntity
  8
0-7_取手GEK
  6
Continuous
 62
     7
370
     9
100
AcDbLine
 10
-4294.899798419024
 20
1937.000148463894
 30
0.0
 11
-4294.899798419024
 21
1955.000148463894
 31
0.0
  0
ARC
  5
215
330
1F
100
AcDbEntity
  8
0-7_取手GEK
  6
Continuous
 62
     7
370
     9
100
AcDbCircle
 10
-4293.899798419023
 20
1937.000148463894
 30
0.0
 40
1.0
100
AcDbArc
 50
180.0
 51
270.0
  0
ARC
  5
216
330
1F
100
AcDbEntity
  8
0-7_取手GEK
  6
Continuous
 62
     7
370
     9
100
AcDbCircle
 10
-4293.899798419023
 20
1845.000148463894
 30
0.0
 40
1.0
100
AcDbArc
 50
90.0
 51
180.0
  0
ARC
  5
217
330
1F
100
AcDbEntity
  8
0-7_取手GEK
  6
Continuous
 62
     7
370
     9
100
AcDbCircle
 10
-4283.899798419024
 20
1845.000148463894
 30
0.0
 40
1.0
100
AcDbArc
 50
0.0
 51
90.00000000000001
  0
LINE
  5
218
330
1F
100
AcDbEntity
  8
0-7_取手GEK
  6
Continuous
 62
     7
370
     9
100
AcDbLine
 10
-4282.899798419023
 20
1827.000148463894
 30
0.0
 11
-4282.899798419023
 21
1845.000148463894
 31
0.0
  0
ARC
  5
219
330
1F
100
AcDbEntity
  8
0-7_取手GEK
  6
Continuous
 62
     7
370
     9
100
AcDbCircle
 10
-4283.899798419024
 20
1827.000148463894
 30
0.0
 40
1.0
100
AcDbArc
 50
270.0
 51
0.0
  0
LINE
  5
21A
330
1F
100
AcDbEntity
  8
0-7_取手GEK
  6
Continuous
 62
     7
370
     9
100
AcDbLine
 10
-4294.899798419024
 20
1827.000148463894
 30
0.0
 11
-4294.899798419024
 21
1845.000148463894
 31
0.0
  0
ARC
  5
21B
330
1F
100
AcDbEntity
  8
0-7_取手GEK
  6
Continuous
 62
     7
370
     9
100
AcDbCircle
 10
-4293.899798419023
 20
1827.000148463894
 30
0.0
 40
1.0
100
AcDbArc
 50
180.0
 51
270.0
  0
ARC
  5
21C
330
1F
100
AcDbEntity
  8
0-7_取手GEK
  6
Continuous
 62
    92
370
    13
100
AcDbCircle
 10
-2144.299671069994
 20
-2058.750165011431
 30
0.0
 40
1.0
100
AcDbArc
 50
90.0
 51
180.0
  0
LINE
  5
21D
330
1F
100
AcDbEntity
  8
0-7_取手GEK
  6
Continuous
 62
    92
370
    13
100
AcDbLine
 10
-2136.299671069997
 20
-2057.750165011431
 30
0.0
 11
-2144.299671069994
 21
-2057.750165011431
 31
0.0
  0
ARC
  5
21E
330
1F
100
AcDbEntity
  8
0-7_取手GEK
  6
Continuous
 62
    92
370
    13
100
AcDbCircle
 10
-2136.299671069997
 20
-2058.750165011431
 30
0.0
 40
1.0
100
AcDbArc
 50
0.0
 51
90.00000000000001
  0
LINE
  5
21F
330
1F
100
AcDbEntity
  8
0-7_取手GEK
  6
Continuous
 62
    92
370
    13
100
AcDbLine
 10
-2135.299671069996
 20
-2190.750165011432
 30
0.0
 11
-2135.299671069996
 21
-2058.750165011431
 31
0.0
  0
ARC
  5
220
330
1F
100
AcDbEntity
  8
0-7_取手GEK
  6
Continuous
 62
    92
370
    13
100
AcDbCircle
 10
-2136.299671069997
 20
-2190.750165011432
 30
0.0
 40
1.0
100
AcDbArc
 50
270.0
 51
0.0
  0
LINE
  5
221
330
1F
100
AcDbEntity
  8
0-7_取手GEK
  6
Continuous
 62
    92
370
    13
100
AcDbLine
 10
-2144.299671069994
 20
-2191.750165011432
 30
0.0
 11
-2136.299671069997
 21
-2191.750165011432
 31
0.0
  0
LINE
  5
222
330
1F
100
AcDbEntity
  8
0-7_取手GEK
  6
Continuous
 62
    92
370
    13
100
AcDbLine
 10
-2145.299671069995
 20
-2190.750165011432
 30
0.0
 11
-2145.299671069995
 21
-2058.750165011431
 31
0.0
  0
ARC
  5
223
330
1F
100
AcDbEntity
  8
0-7_取手GEK
  6
Continuous
 62
    92
370
    13
100
AcDbCircle
 10
-2144.299671069994
 20
-2190.750165011432
 30
0.0
 40
1.0
100
AcDbArc
 50
180.0
 51
270.0
  0
LINE
  5
224
330
1F
100
AcDbEntity
  8
0-1_通り芯
  6
JWW_CENTER1
 62
   120
370
     5
100
AcDbLine
 10
-2140.299671069995
 20
-2047.750165011432
 30
0.0
 11
-2140.299671069995
 21
-2201.750165011432
 31
0.0
  0
LINE
  5
225
330
1F
100
AcDbEntity
  8
0-1_通り芯
  6
JWW_CENTER1
 62
   120
370
     5
100
AcDbLine
 10
-2125.299671069996
 20
-2124.750165011432
 30
0.0
 11
-2155.299671069994
 21
-2124.750165011432
 31
0.0
  0
ARC
  5
226
330
1F
100
AcDbEntity
  8
0-7_取手GEK
  6
Continuous
 62
     7
370
     9
100
AcDbCircle
 10
-2145.299671069995
 20
-2060.750165011432
 30
0.0
 40
1.0
100
AcDbArc
 50
90.0
 51
180.0
  0
ARC
  5
227
330
1F
100
AcDbEntity
  8
0-7_取手GEK
  6
Continuous
 62
     7
370
     9
100
AcDbCircle
 10
-2135.299671069996
 20
-2060.750165011432
 30
0.0
 40
1.0
100
AcDbArc
 50
0.0
 51
90.00000000000001
  0
LINE
  5
228
330
1F
100
AcDbEntity
  8
0-7_取手GEK
  6
Continuous
 62
     7
370
     9
100
AcDbLine
 10
-2134.299671069995
 20
-2078.750165011432
 30
0.0
 11
-2134.299671069995
 21
-2060.750165011432
 31
0.0
  0
ARC
  5
229
330
1F
100
AcDbEntity
  8
0-7_取手GEK
  6
Continuous
 62
     7
370
     9
100
AcDbCircle
 10
-2135.299671069996
 20
-2078.750165011432
 30
0.0
 40
1.0
100
AcDbArc
 50
270.0
 51
0.0
  0
LINE
  5
22A
330
1F
100
AcDbEntity
  8
0-7_取手GEK
  6
Continuous
 62
     7
370
     9
100
AcDbLine
 10
-2146.299671069996
 20
-2078.750165011432
 30
0.0
 11
-2146.299671069996
 21
-2060.750165011432
 31
0.0
  0
ARC
  5
22B
330
1F
100
AcDbEntity
  8
0-7_取手GEK
  6
Continuous
 62
     7
370
     9
100
AcDbCircle
 10
-2145.299671069995
 20
-2078.750165011432
 30
0.0
 40
1.0
100
AcDbArc
 50
180.0
 51
270.0
  0
ARC
  5
22C
330
1F
100
AcDbEntity
  8
0-7_取手GEK
  6
Continuous
 62
     7
370
     9
100
AcDbCircle
 10
-2145.299671069995
 20
-2170.750165011431
 30
0.0
 40
1.0
100
AcDbArc
 50
90.0
 51
180.0
  0
ARC
  5
22D
330
1F
100
AcDbEntity
  8
0-7_取手GEK
  6
Continuous
 62
     7
370
     9
100
AcDbCircle
 10
-2135.299671069996
 20
-2170.750165011431
 30
0.0
 40
1.0
100
AcDbArc
 50
0.0
 51
90.00000000000001
  0
LINE
  5
22E
330
1F
100
AcDbEntity
  8
0-7_取手GEK
  6
Continuous
 62
     7
370
     9
100
AcDbLine
 10
-2134.299671069995
 20
-2188.750165011431
 30
0.0
 11
-2134.299671069995
 21
-2170.750165011431
 31
0.0
  0
ARC
  5
22F
330
1F
100
AcDbEntity
  8
0-7_取手GEK
  6
Continuous
 62
     7
370
     9
100
AcDbCircle
 10
-2135.299671069996
 20
-2188.750165011431
 30
0.0
 40
1.0
100
AcDbArc
 50
270.0
 51
0.0
  0
LINE
  5
230
330
1F
100
AcDbEntity
  8
0-7_取手GEK
  6
Continuous
 62
     7
370
     9
100
AcDbLine
 10
-2146.299671069996
 20
-2188.750165011431
 30
0.0
 11
-2146.299671069996
 21
-2170.750165011431
 31
0.0
  0
ARC
  5
231
330
1F
100
AcDbEntity
  8
0-7_取手GEK
  6
Continuous
 62
     7
370
     9
100
AcDbCircle
 10
-2145.299671069995
 20
-2188.750165011431
 30
0.0
 40
1.0
100
AcDbArc
 50
180.0
 51
270.0
  0
ARC
  5
232
330
1F
100
AcDbEntity
  8
0-7_取手GEK
  6
Continuous
 62
    92
370
    13
100
AcDbCircle
 10
-2061.299671069994
 20
-2058.750165011431
 30
0.0
 40
1.0
100
AcDbArc
 50
90.0
 51
180.0
  0
LINE
  5
233
330
1F
100
AcDbEntity
  8
0-7_取手GEK
  6
Continuous
 62
    92
370
    13
100
AcDbLine
 10
-2053.299671069996
 20
-2057.750165011431
 30
0.0
 11
-2061.299671069994
 21
-2057.750165011431
 31
0.0
  0
ARC
  5
234
330
1F
100
AcDbEntity
  8
0-7_取手GEK
  6
Continuous
 62
    92
370
    13
100
AcDbCircle
 10
-2053.299671069996
 20
-2058.750165011431
 30
0.0
 40
1.0
100
AcDbArc
 50
0.0
 51
90.00000000000001
  0
LINE
  5
235
330
1F
100
AcDbEntity
  8
0-7_取手GEK
  6
Continuous
 62
    92
370
    13
100
AcDbLine
 10
-2052.299671069995
 20
-2190.750165011432
 30
0.0
 11
-2052.299671069995
 21
-2058.750165011431
 31
0.0
  0
ARC
  5
236
330
1F
100
AcDbEntity
  8
0-7_取手GEK
  6
Continuous
 62
    92
370
    13
100
AcDbCircle
 10
-2053.299671069996
 20
-2190.750165011432
 30
0.0
 40
1.0
100
AcDbArc
 50
270.0
 51
0.0
  0
LINE
  5
237
330
1F
100
AcDbEntity
  8
0-7_取手GEK
  6
Continuous
 62
    92
370
    13
100
AcDbLine
 10
-2061.299671069994
 20
-2191.750165011432
 30
0.0
 11
-2053.299671069996
 21
-2191.750165011432
 31
0.0
  0
LINE
  5
238
330
1F
100
AcDbEntity
  8
0-7_取手GEK
  6
Continuous
 62
    92
370
    13
100
AcDbLine
 10
-2062.299671069995
 20
-2190.750165011432
 30
0.0
 11
-2062.299671069995
 21
-2058.750165011431
 31
0.0
  0
ARC
  5
239
330
1F
100
AcDbEntity
  8
0-7_取手GEK
  6
Continuous
 62
    92
370
    13
100
AcDbCircle
 10
-2061.299671069994
 20
-2190.750165011432
 30
0.0
 40
1.0
100
AcDbArc
 50
180.0
 51
270.0
  0
LINE
  5
23A
330
1F
100
AcDbEntity
  8
0-1_通り芯
  6
JWW_CENTER1
 62
   120
370
     5
100
AcDbLine
 10
-2057.299671069995
 20
-2047.750165011432
 30
0.0
 11
-2057.299671069995
 21
-2201.750165011432
 31
0.0
  0
LINE
  5
23B
330
1F
100
AcDbEntity
  8
0-1_通り芯
  6
JWW_CENTER1
 62
   120
370
     5
100
AcDbLine
 10
-2042.299671069996
 20
-2124.750165011432
 30
0.0
 11
-2072.299671069994
 21
-2124.750165011432
 31
0.0
  0
ARC
  5
23C
330
1F
100
AcDbEntity
  8
0-7_取手GEK
  6
Continuous
 62
     7
370
     9
100
AcDbCircle
 10
-2062.299671069995
 20
-2060.750165011432
 30
0.0
 40
1.0
100
AcDbArc
 50
90.0
 51
180.0
  0
ARC
  5
23D
330
1F
100
AcDbEntity
  8
0-7_取手GEK
  6
Continuous
 62
     7
370
     9
100
AcDbCircle
 10
-2052.299671069995
 20
-2060.750165011432
 30
0.0
 40
1.0
100
AcDbArc
 50
0.0
 51
90.00000000000001
  0
LINE
  5
23E
330
1F
100
AcDbEntity
  8
0-7_取手GEK
  6
Continuous
 62
     7
370
     9
100
AcDbLine
 10
-2051.299671069994
 20
-2078.750165011432
 30
0.0
 11
-2051.299671069994
 21
-2060.750165011432
 31
0.0
  0
ARC
  5
23F
330
1F
100
AcDbEntity
  8
0-7_取手GEK
  6
Continuous
 62
     7
370
     9
100
AcDbCircle
 10
-2052.299671069995
 20
-2078.750165011432
 30
0.0
 40
1.0
100
AcDbArc
 50
270.0
 51
0.0
  0
LINE
  5
240
330
1F
100
AcDbEntity
  8
0-7_取手GEK
  6
Continuous
 62
     7
370
     9
100
AcDbLine
 10
-2063.299671069995
 20
-2078.750165011432
 30
0.0
 11
-2063.299671069995
 21
-2060.750165011432
 31
0.0
  0
ARC
  5
241
330
1F
100
AcDbEntity
  8
0-7_取手GEK
  6
Continuous
 62
     7
370
     9
100
AcDbCircle
 10
-2062.299671069995
 20
-2078.750165011432
 30
0.0
 40
1.0
100
AcDbArc
 50
180.0
 51
270.0
  0
ARC
  5
242
330
1F
100
AcDbEntity
  8
0-7_取手GEK
  6
Continuous
 62
     7
370
     9
100
AcDbCircle
 10
-2062.299671069995
 20
-2170.750165011431
 30
0.0
 40
1.0
100
AcDbArc
 50
90.0
 51
180.0
  0
ARC
  5
243
330
1F
100
AcDbEntity
  8
0-7_取手GEK
  6
Continuous
 62
     7
370
     9
100
AcDbCircle
 10
-2052.299671069995
 20
-2170.750165011431
 30
0.0
 40
1.0
100
AcDbArc
 50
0.0
 51
90.00000000000001
  0
LINE
  5
244
330
1F
100
AcDbEntity
  8
0-7_取手GEK
  6
Continuous
 62
     7
370
     9
100
AcDbLine
 10
-2051.299671069994
 20
-2188.750165011431
 30
0.0
 11
-2051.299671069994
 21
-2170.750165011431
 31
0.0
  0
ARC
  5
245
330
1F
100
AcDbEntity
  8
0-7_取手GEK
  6
Continuous
 62
     7
370
     9
100
AcDbCircle
 10
-2052.299671069995
 20
-2188.750165011431
 30
0.0
 40
1.0
100
AcDbArc
 50
270.0
 51
0.0
  0
LINE
  5
246
330
1F
100
AcDbEntity
  8
0-7_取手GEK
  6
Continuous
 62
     7
370
     9
100
AcDbLine
 10
-2063.299671069995
 20
-2188.750165011431
 30
0.0
 11
-2063.299671069995
 21
-2170.750165011431
 31
0.0
  0
ARC
  5
247
330
1F
100
AcDbEntity
  8
0-7_取手GEK
  6
Continuous
 62
     7
370
     9
100
AcDbCircle
 10
-2062.299671069995
 20
-2188.750165011431
 30
0.0
 40
1.0
100
AcDbArc
 50
180.0
 51
270.0
  0
LINE
  5
248
330
1F
100
AcDbEntity
  8
0-8_取手W
  6
Continuous
 62
    92
370
    13
100
AcDbLine
 10
-2135.299671069996
 20
-2057.750165011431
 30
0.0
 11
-2145.299671069995
 21
-2057.750165011431
 31
0.0
  0
LINE
  5
249
330
1F
100
AcDbEntity
  8
0-8_取手W
  6
Continuous
 62
    92
370
    13
100
AcDbLine
 10
-2145.299671069995
 20
-2191.750165011432
 30
0.0
 11
-2135.299671069996
 21
-2191.750165011432
 31
0.0
  0
LINE
  5
24A
330
1F
100
AcDbEntity
  8
0-8_取手W
  6
Continuous
 62
    92
370
    13
100
AcDbLine
 10
-2145.299671069995
 20
-2057.750165011431
 30
0.0
 11
-2145.299671069995
 21
-2191.750165011432
 31
0.0
  0
LINE
  5
24B
330
1F
100
AcDbEntity
  8
0-8_取手W
  6
Continuous
 62
    92
370
    13
100
AcDbLine
 10
-2135.299671069996
 20
-2057.750165011431
 30
0.0
 11
-2135.299671069996
 21
-2191.750165011432
 31
0.0
  0
ELLIPSE
  5
24C
330
1F
100
AcDbEntity
  8
0-8_取手W
  6
Continuous
 62
     7
370
     9
100
AcDbEllipse
 10
-2140.299671069995
 20
-2057.750165011431
 30
0.0
 11
1.071565949253925E-15
 21
17.49999999999986
 31
0.0
210
0.0
220
0.0
230
1.0
 40
0.2857142857142857
 41
3.141592653589793
 42
4.71238898038469
  0
ELLIPSE
  5
24D
330
1F
100
AcDbEntity
  8
0-8_取手W
  6
Continuous
 62
     7
370
     9
100
AcDbEllipse
 10
-2140.299671069995
 20
-2191.750165011432
 30
0.0
 11
1.071565949253925E-15
 21
17.49999999999986
 31
0.0
210
0.0
220
0.0
230
1.0
 40
0.2857142857142857
 41
0.0
 42
1.570796326794897
  0
ELLIPSE
  5
24E
330
1F
100
AcDbEntity
  8
0-8_取手W
  6
Continuous
 62
     7
370
     9
100
AcDbEllipse
 10
-2140.299671069995
 20
-2191.750165011432
 30
0.0
 11
1.071565949253925E-15
 21
-17.49999999999986
 31
0.0
210
0.0
220
0.0
230
1.0
 40
0.2857142857142857
 41
1.570796326794897
 42
3.141592653589793
  0
ARC
  5
24F
330
1F
100
AcDbEntity
  8
0-8_取手W
  6
Continuous
 62
     7
370
     9
100
AcDbCircle
 10
-2145.299671069995
 20
-2058.750165011431
 30
0.0
 40
1.0
100
AcDbArc
 50
90.0
 51
180.0
  0
LINE
  5
250
330
1F
100
AcDbEntity
  8
0-8_取手W
  6
Continuous
 62
     7
370
     9
100
AcDbLine
 10
-2146.299671069995
 20
-2074.250165011431
 30
0.0
 11
-2146.299671069995
 21
-2058.750165011431
 31
0.0
  0
ARC
  5
251
330
1F
100
AcDbEntity
  8
0-8_取手W
  6
Continuous
 62
     7
370
     9
100
AcDbCircle
 10
-2145.299671069995
 20
-2074.250165011431
 30
0.0
 40
1.0
100
AcDbArc
 50
180.0
 51
270.0
  0
ARC
  5
252
330
1F
100
AcDbEntity
  8
0-8_取手W
  6
Continuous
 62
     7
370
     9
100
AcDbCircle
 10
-2135.299671069996
 20
-2074.250165011431
 30
0.0
 40
1.0
100
AcDbArc
 50
270.0
 51
0.0
  0
LINE
  5
253
330
1F
100
AcDbEntity
  8
0-8_取手W
  6
Continuous
 62
     7
370
     9
100
AcDbLine
 10
-2134.299671069996
 20
-2074.250165011431
 30
0.0
 11
-2134.299671069996
 21
-2058.750165011431
 31
0.0
  0
ARC
  5
254
330
1F
100
AcDbEntity
  8
0-8_取手W
  6
Continuous
 62
     7
370
     9
100
AcDbCircle
 10
-2135.299671069996
 20
-2058.750165011431
 30
0.0
 40
1.0
100
AcDbArc
 50
0.0
 51
90.00000000000001
  0
ARC
  5
255
330
1F
100
AcDbEntity
  8
0-8_取手W
  6
Continuous
 62
     7
370
     9
100
AcDbCircle
 10
-2145.299671069995
 20
-2175.250165011431
 30
0.0
 40
1.0
100
AcDbArc
 50
90.0
 51
180.0
  0
LINE
  5
256
330
1F
100
AcDbEntity
  8
0-8_取手W
  6
Continuous
 62
     7
370
     9
100
AcDbLine
 10
-2146.299671069995
 20
-2190.750165011432
 30
0.0
 11
-2146.299671069995
 21
-2175.250165011431
 31
0.0
  0
ARC
  5
257
330
1F
100
AcDbEntity
  8
0-8_取手W
  6
Continuous
 62
     7
370
     9
100
AcDbCircle
 10
-2135.299671069996
 20
-2175.250165011431
 30
0.0
 40
1.0
100
AcDbArc
 50
0.0
 51
90.00000000000001
  0
LINE
  5
258
330
1F
100
AcDbEntity
  8
0-8_取手W
  6
Continuous
 62
     7
370
     9
100
AcDbLine
 10
-2134.299671069996
 20
-2190.750165011432
 30
0.0
 11
-2134.299671069996
 21
-2175.250165011431
 31
0.0
  0
ARC
  5
259
330
1F
100
AcDbEntity
  8
0-8_取手W
  6
Continuous
 62
     7
370
     9
100
AcDbCircle
 10
-2135.299671069996
 20
-2190.750165011432
 30
0.0
 40
1.0
100
AcDbArc
 50
270.0
 51
0.0
  0
ARC
  5
25A
330
1F
100
AcDbEntity
  8
0-8_取手W
  6
Continuous
 62
     7
370
     9
100
AcDbCircle
 10
-2145.299671069995
 20
-2190.750165011432
 30
0.0
 40
1.0
100
AcDbArc
 50
180.0
 51
270.0
  0
ELLIPSE
  5
25B
330
1F
100
AcDbEntity
  8
0-8_取手W
  6
Continuous
 62
     7
370
     9
100
AcDbEllipse
 10
-2140.299671069995
 20
-2057.750165011431
 30
0.0
 11
1.071565949253925E-15
 21
17.49999999999986
 31
0.0
210
0.0
220
0.0
230
1.0
 40
0.2857142857142857
 41
1.570796326794897
 42
3.141592653589793
  0
LINE
  5
25C
330
1F
100
AcDbEntity
  8
0-8_取手W
  6
Continuous
 62
    92
370
    13
100
AcDbLine
 10
-2052.299671069995
 20
-2057.750165011431
 30
0.0
 11
-2062.299671069995
 21
-2057.750165011431
 31
0.0
  0
LINE
  5
25D
330
1F
100
AcDbEntity
  8
0-8_取手W
  6
Continuous
 62
    92
370
    13
100
AcDbLine
 10
-2062.299671069995
 20
-2191.750165011432
 30
0.0
 11
-2052.299671069995
 21
-2191.750165011432
 31
0.0
  0
LINE
  5
25E
330
1F
100
AcDbEntity
  8
0-8_取手W
  6
Continuous
 62
    92
370
    13
100
AcDbLine
 10
-2062.299671069995
 20
-2057.750165011431
 30
0.0
 11
-2062.299671069995
 21
-2191.750165011432
 31
0.0
  0
LINE
  5
25F
330
1F
100
AcDbEntity
  8
0-8_取手W
  6
Continuous
 62
    92
370
    13
100
AcDbLine
 10
-2052.299671069995
 20
-2057.750165011431
 30
0.0
 11
-2052.299671069995
 21
-2191.750165011432
 31
0.0
  0
ELLIPSE
  5
260
330
1F
100
AcDbEntity
  8
0-8_取手W
  6
Continuous
 62
     7
370
     9
100
AcDbEllipse
 10
-2057.299671069995
 20
-2057.750165011431
 30
0.0
 11
1.071565949253925E-15
 21
17.49999999999986
 31
0.0
210
0.0
220
0.0
230
1.0
 40
0.2857142857142857
 41
3.141592653589793
 42
4.71238898038469
  0
ELLIPSE
  5
261
330
1F
100
AcDbEntity
  8
0-8_取手W
  6
Continuous
 62
     7
370
     9
100
AcDbEllipse
 10
-2057.299671069995
 20
-2191.750165011432
 30
0.0
 11
1.071565949253925E-15
 21
17.49999999999986
 31
0.0
210
0.0
220
0.0
230
1.0
 40
0.2857142857142857
 41
0.0
 42
1.570796326794897
  0
ELLIPSE
  5
262
330
1F
100
AcDbEntity
  8
0-8_取手W
  6
Continuous
 62
     7
370
     9
100
AcDbEllipse
 10
-2057.299671069995
 20
-2191.750165011432
 30
0.0
 11
1.071565949253925E-15
 21
-17.49999999999986
 31
0.0
210
0.0
220
0.0
230
1.0
 40
0.2857142857142857
 41
1.570796326794897
 42
3.141592653589793
  0
ARC
  5
263
330
1F
100
AcDbEntity
  8
0-8_取手W
  6
Continuous
 62
     7
370
     9
100
AcDbCircle
 10
-2062.299671069995
 20
-2058.750165011431
 30
0.0
 40
1.0
100
AcDbArc
 50
90.0
 51
180.0
  0
LINE
  5
264
330
1F
100
AcDbEntity
  8
0-8_取手W
  6
Continuous
 62
     7
370
     9
100
AcDbLine
 10
-2063.299671069995
 20
-2074.250165011431
 30
0.0
 11
-2063.299671069995
 21
-2058.750165011431
 31
0.0
  0
ARC
  5
265
330
1F
100
AcDbEntity
  8
0-8_取手W
  6
Continuous
 62
     7
370
     9
100
AcDbCircle
 10
-2062.299671069995
 20
-2074.250165011431
 30
0.0
 40
1.0
100
AcDbArc
 50
180.0
 51
270.0
  0
ARC
  5
266
330
1F
100
AcDbEntity
  8
0-8_取手W
  6
Continuous
 62
     7
370
     9
100
AcDbCircle
 10
-2052.299671069995
 20
-2074.250165011431
 30
0.0
 40
1.0
100
AcDbArc
 50
270.0
 51
0.0
  0
LINE
  5
267
330
1F
100
AcDbEntity
  8
0-8_取手W
  6
Continuous
 62
     7
370
     9
100
AcDbLine
 10
-2051.299671069995
 20
-2074.250165011431
 30
0.0
 11
-2051.299671069995
 21
-2058.750165011431
 31
0.0
  0
ARC
  5
268
330
1F
100
AcDbEntity
  8
0-8_取手W
  6
Continuous
 62
     7
370
     9
100
AcDbCircle
 10
-2052.299671069995
 20
-2058.750165011431
 30
0.0
 40
1.0
100
AcDbArc
 50
0.0
 51
90.00000000000001
  0
ARC
  5
269
330
1F
100
AcDbEntity
  8
0-8_取手W
  6
Continuous
 62
     7
370
     9
100
AcDbCircle
 10
-2062.299671069995
 20
-2175.250165011431
 30
0.0
 40
1.0
100
AcDbArc
 50
90.0
 51
180.0
  0
LINE
  5
26A
330
1F
100
AcDbEntity
  8
0-8_取手W
  6
Continuous
 62
     7
370
     9
100
AcDbLine
 10
-2063.299671069995
 20
-2190.750165011432
 30
0.0
 11
-2063.299671069995
 21
-2175.250165011431
 31
0.0
  0
ARC
  5
26B
330
1F
100
AcDbEntity
  8
0-8_取手W
  6
Continuous
 62
     7
370
     9
100
AcDbCircle
 10
-2052.299671069995
 20
-2175.250165011431
 30
0.0
 40
1.0
100
AcDbArc
 50
0.0
 51
90.00000000000001
  0
LINE
  5
26C
330
1F
100
AcDbEntity
  8
0-8_取手W
  6
Continuous
 62
     7
370
     9
100
AcDbLine
 10
-2051.299671069995
 20
-2190.750165011432
 30
0.0
 11
-2051.299671069995
 21
-2175.250165011431
 31
0.0
  0
ARC
  5
26D
330
1F
100
AcDbEntity
  8
0-8_取手W
  6
Continuous
 62
     7
370
     9
100
AcDbCircle
 10
-2052.299671069995
 20
-2190.750165011432
 30
0.0
 40
1.0
100
AcDbArc
 50
270.0
 51
0.0
  0
ARC
  5
26E
330
1F
100
AcDbEntity
  8
0-8_取手W
  6
Continuous
 62
     7
370
     9
100
AcDbCircle
 10
-2062.299671069995
 20
-2190.750165011432
 30
0.0
 40
1.0
100
AcDbArc
 50
180.0
 51
270.0
  0
ELLIPSE
  5
26F
330
1F
100
AcDbEntity
  8
0-8_取手W
  6
Continuous
 62
     7
370
     9
100
AcDbEllipse
 10
-2057.299671069995
 20
-2057.750165011431
 30
0.0
 11
1.071565949253925E-15
 21
17.49999999999986
 31
0.0
210
0.0
220
0.0
230
1.0
 40
0.2857142857142857
 41
1.570796326794897
 42
3.141592653589793
  0
ARC
  5
270
330
1F
100
AcDbEntity
  8
0-7_取手GEK
  6
Continuous
 62
    92
370
    13
100
AcDbCircle
 10
-4375.899798419023
 20
-2100.750165011431
 30
0.0
 40
1.0
100
AcDbArc
 50
90.0
 51
180.0
  0
LINE
  5
271
330
1F
100
AcDbEntity
  8
0-7_取手GEK
  6
Continuous
 62
    92
370
    13
100
AcDbLine
 10
-4367.899798419024
 20
-2099.750165011431
 30
0.0
 11
-4375.899798419023
 21
-2099.750165011431
 31
0.0
  0
ARC
  5
272
330
1F
100
AcDbEntity
  8
0-7_取手GEK
  6
Continuous
 62
    92
370
    13
100
AcDbCircle
 10
-4367.899798419024
 20
-2100.750165011431
 30
0.0
 40
1.0
100
AcDbArc
 50
0.0
 51
90.00000000000001
  0
LINE
  5
273
330
1F
100
AcDbEntity
  8
0-7_取手GEK
  6
Continuous
 62
    92
370
    13
100
AcDbLine
 10
-4366.899798419024
 20
-2232.750165011431
 30
0.0
 11
-4366.899798419024
 21
-2100.750165011431
 31
0.0
  0
ARC
  5
274
330
1F
100
AcDbEntity
  8
0-7_取手GEK
  6
Continuous
 62
    92
370
    13
100
AcDbCircle
 10
-4367.899798419024
 20
-2232.750165011431
 30
0.0
 40
1.0
100
AcDbArc
 50
270.0
 51
0.0
  0
LINE
  5
275
330
1F
100
AcDbEntity
  8
0-7_取手GEK
  6
Continuous
 62
    92
370
    13
100
AcDbLine
 10
-4375.899798419023
 20
-2233.750165011431
 30
0.0
 11
-4367.899798419024
 21
-2233.750165011431
 31
0.0
  0
LINE
  5
276
330
1F
100
AcDbEntity
  8
0-7_取手GEK
  6
Continuous
 62
    92
370
    13
100
AcDbLine
 10
-4376.899798419024
 20
-2232.750165011431
 30
0.0
 11
-4376.899798419024
 21
-2100.750165011431
 31
0.0
  0
ARC
  5
277
330
1F
100
AcDbEntity
  8
0-7_取手GEK
  6
Continuous
 62
    92
370
    13
100
AcDbCircle
 10
-4375.899798419023
 20
-2232.750165011431
 30
0.0
 40
1.0
100
AcDbArc
 50
180.0
 51
270.0
  0
LINE
  5
278
330
1F
100
AcDbEntity
  8
0-1_通り芯
  6
JWW_CENTER1
 62
   120
370
     5
100
AcDbLine
 10
-4371.899798419024
 20
-2089.750165011432
 30
0.0
 11
-4371.899798419024
 21
-2243.750165011432
 31
0.0
  0
LINE
  5
279
330
1F
100
AcDbEntity
  8
0-1_通り芯
  6
JWW_CENTER1
 62
   120
370
     5
100
AcDbLine
 10
-4356.899798419025
 20
-2166.750165011431
 30
0.0
 11
-4386.899798419023
 21
-2166.750165011431
 31
0.0
  0
ARC
  5
27A
330
1F
100
AcDbEntity
  8
0-7_取手GEK
  6
Continuous
 62
     7
370
     9
100
AcDbCircle
 10
-4376.899798419024
 20
-2102.750165011431
 30
0.0
 40
1.0
100
AcDbArc
 50
90.0
 51
180.0
  0
ARC
  5
27B
330
1F
100
AcDbEntity
  8
0-7_取手GEK
  6
Continuous
 62
     7
370
     9
100
AcDbCircle
 10
-4366.899798419024
 20
-2102.750165011431
 30
0.0
 40
1.0
100
AcDbArc
 50
0.0
 51
90.00000000000001
  0
LINE
  5
27C
330
1F
100
AcDbEntity
  8
0-7_取手GEK
  6
Continuous
 62
     7
370
     9
100
AcDbLine
 10
-4365.899798419023
 20
-2120.750165011431
 30
0.0
 11
-4365.899798419023
 21
-2102.750165011431
 31
0.0
  0
ARC
  5
27D
330
1F
100
AcDbEntity
  8
0-7_取手GEK
  6
Continuous
 62
     7
370
     9
100
AcDbCircle
 10
-4366.899798419024
 20
-2120.750165011431
 30
0.0
 40
1.0
100
AcDbArc
 50
270.0
 51
0.0
  0
LINE
  5
27E
330
1F
100
AcDbEntity
  8
0-7_取手GEK
  6
Continuous
 62
     7
370
     9
100
AcDbLine
 10
-4377.899798419024
 20
-2120.750165011431
 30
0.0
 11
-4377.899798419024
 21
-2102.750165011431
 31
0.0
  0
ARC
  5
27F
330
1F
100
AcDbEntity
  8
0-7_取手GEK
  6
Continuous
 62
     7
370
     9
100
AcDbCircle
 10
-4376.899798419024
 20
-2120.750165011431
 30
0.0
 40
1.0
100
AcDbArc
 50
180.0
 51
270.0
  0
ARC
  5
280
330
1F
100
AcDbEntity
  8
0-7_取手GEK
  6
Continuous
 62
     7
370
     9
100
AcDbCircle
 10
-4376.899798419024
 20
-2212.750165011431
 30
0.0
 40
1.0
100
AcDbArc
 50
90.0
 51
180.0
  0
ARC
  5
281
330
1F
100
AcDbEntity
  8
0-7_取手GEK
  6
Continuous
 62
     7
370
     9
100
AcDbCircle
 10
-4366.899798419024
 20
-2212.750165011431
 30
0.0
 40
1.0
100
AcDbArc
 50
0.0
 51
90.00000000000001
  0
LINE
  5
282
330
1F
100
AcDbEntity
  8
0-7_取手GEK
  6
Continuous
 62
     7
370
     9
100
AcDbLine
 10
-4365.899798419023
 20
-2230.750165011431
 30
0.0
 11
-4365.899798419023
 21
-2212.750165011431
 31
0.0
  0
ARC
  5
283
330
1F
100
AcDbEntity
  8
0-7_取手GEK
  6
Continuous
 62
     7
370
     9
100
AcDbCircle
 10
-4366.899798419024
 20
-2230.750165011431
 30
0.0
 40
1.0
100
AcDbArc
 50
270.0
 51
0.0
  0
LINE
  5
284
330
1F
100
AcDbEntity
  8
0-7_取手GEK
  6
Continuous
 62
     7
370
     9
100
AcDbLine
 10
-4377.899798419024
 20
-2230.750165011431
 30
0.0
 11
-4377.899798419024
 21
-2212.750165011431
 31
0.0
  0
ARC
  5
285
330
1F
100
AcDbEntity
  8
0-7_取手GEK
  6
Continuous
 62
     7
370
     9
100
AcDbCircle
 10
-4376.899798419024
 20
-2230.750165011431
 30
0.0
 40
1.0
100
AcDbArc
 50
180.0
 51
270.0
  0
ARC
  5
286
330
1F
100
AcDbEntity
  8
0-7_取手GEK
  6
Continuous
 62
    92
370
    13
100
AcDbCircle
 10
-4292.899798419022
 20
-2100.750165011431
 30
0.0
 40
1.0
100
AcDbArc
 50
90.0
 51
180.0
  0
LINE
  5
287
330
1F
100
AcDbEntity
  8
0-7_取手GEK
  6
Continuous
 62
    92
370
    13
100
AcDbLine
 10
-4284.899798419025
 20
-2099.750165011431
 30
0.0
 11
-4292.899798419022
 21
-2099.750165011431
 31
0.0
  0
ARC
  5
288
330
1F
100
AcDbEntity
  8
0-7_取手GEK
  6
Continuous
 62
    92
370
    13
100
AcDbCircle
 10
-4284.899798419025
 20
-2100.750165011431
 30
0.0
 40
1.0
100
AcDbArc
 50
0.0
 51
90.00000000000001
  0
LINE
  5
289
330
1F
100
AcDbEntity
  8
0-7_取手GEK
  6
Continuous
 62
    92
370
    13
100
AcDbLine
 10
-4283.899798419024
 20
-2232.750165011431
 30
0.0
 11
-4283.899798419024
 21
-2100.750165011431
 31
0.0
  0
ARC
  5
28A
330
1F
100
AcDbEntity
  8
0-7_取手GEK
  6
Continuous
 62
    92
370
    13
100
AcDbCircle
 10
-4284.899798419025
 20
-2232.750165011431
 30
0.0
 40
1.0
100
AcDbArc
 50
270.0
 51
0.0
  0
LINE
  5
28B
330
1F
100
AcDbEntity
  8
0-7_取手GEK
  6
Continuous
 62
    92
370
    13
100
AcDbLine
 10
-4292.899798419022
 20
-2233.750165011431
 30
0.0
 11
-4284.899798419025
 21
-2233.750165011431
 31
0.0
  0
LINE
  5
28C
330
1F
100
AcDbEntity
  8
0-7_取手GEK
  6
Continuous
 62
    92
370
    13
100
AcDbLine
 10
-4293.899798419023
 20
-2232.750165011431
 30
0.0
 11
-4293.899798419023
 21
-2100.750165011431
 31
0.0
  0
ARC
  5
28D
330
1F
100
AcDbEntity
  8
0-7_取手GEK
  6
Continuous
 62
    92
370
    13
100
AcDbCircle
 10
-4292.899798419022
 20
-2232.750165011431
 30
0.0
 40
1.0
100
AcDbArc
 50
180.0
 51
270.0
  0
LINE
  5
28E
330
1F
100
AcDbEntity
  8
0-1_通り芯
  6
JWW_CENTER1
 62
   120
370
     5
100
AcDbLine
 10
-4288.899798419023
 20
-2089.750165011432
 30
0.0
 11
-4288.899798419023
 21
-2243.750165011432
 31
0.0
  0
LINE
  5
28F
330
1F
100
AcDbEntity
  8
0-1_通り芯
  6
JWW_CENTER1
 62
   120
370
     5
100
AcDbLine
 10
-4273.899798419024
 20
-2166.750165011431
 30
0.0
 11
-4303.899798419023
 21
-2166.750165011431
 31
0.0
  0
ARC
  5
290
330
1F
100
AcDbEntity
  8
0-7_取手GEK
  6
Continuous
 62
     7
370
     9
100
AcDbCircle
 10
-4293.899798419023
 20
-2102.750165011431
 30
0.0
 40
1.0
100
AcDbArc
 50
90.0
 51
180.0
  0
ARC
  5
291
330
1F
100
AcDbEntity
  8
0-7_取手GEK
  6
Continuous
 62
     7
370
     9
100
AcDbCircle
 10
-4283.899798419024
 20
-2102.750165011431
 30
0.0
 40
1.0
100
AcDbArc
 50
0.0
 51
90.00000000000001
  0
LINE
  5
292
330
1F
100
AcDbEntity
  8
0-7_取手GEK
  6
Continuous
 62
     7
370
     9
100
AcDbLine
 10
-4282.899798419023
 20
-2120.750165011431
 30
0.0
 11
-4282.899798419023
 21
-2102.750165011431
 31
0.0
  0
ARC
  5
293
330
1F
100
AcDbEntity
  8
0-7_取手GEK
  6
Continuous
 62
     7
370
     9
100
AcDbCircle
 10
-4283.899798419024
 20
-2120.750165011431
 30
0.0
 40
1.0
100
AcDbArc
 50
270.0
 51
0.0
  0
LINE
  5
294
330
1F
100
AcDbEntity
  8
0-7_取手GEK
  6
Continuous
 62
     7
370
     9
100
AcDbLine
 10
-4294.899798419024
 20
-2120.750165011431
 30
0.0
 11
-4294.899798419024
 21
-2102.750165011431
 31
0.0
  0
ARC
  5
295
330
1F
100
AcDbEntity
  8
0-7_取手GEK
  6
Continuous
 62
     7
370
     9
100
AcDbCircle
 10
-4293.899798419023
 20
-2120.750165011431
 30
0.0
 40
1.0
100
AcDbArc
 50
180.0
 51
270.0
  0
ARC
  5
296
330
1F
100
AcDbEntity
  8
0-7_取手GEK
  6
Continuous
 62
     7
370
     9
100
AcDbCircle
 10
-4293.899798419023
 20
-2212.750165011431
 30
0.0
 40
1.0
100
AcDbArc
 50
90.0
 51
180.0
  0
ARC
  5
297
330
1F
100
AcDbEntity
  8
0-7_取手GEK
  6
Continuous
 62
     7
370
     9
100
AcDbCircle
 10
-4283.899798419024
 20
-2212.750165011431
 30
0.0
 40
1.0
100
AcDbArc
 50
0.0
 51
90.00000000000001
  0
LINE
  5
298
330
1F
100
AcDbEntity
  8
0-7_取手GEK
  6
Continuous
 62
     7
370
     9
100
AcDbLine
 10
-4282.899798419023
 20
-2230.750165011431
 30
0.0
 11
-4282.899798419023
 21
-2212.750165011431
 31
0.0
  0
ARC
  5
299
330
1F
100
AcDbEntity
  8
0-7_取手GEK
  6
Continuous
 62
     7
370
     9
100
AcDbCircle
 10
-4283.899798419024
 20
-2230.750165011431
 30
0.0
 40
1.0
100
AcDbArc
 50
270.0
 51
0.0
  0
LINE
  5
29A
330
1F
100
AcDbEntity
  8
0-7_取手GEK
  6
Continuous
 62
     7
370
     9
100
AcDbLine
 10
-4294.899798419024
 20
-2230.750165011431
 30
0.0
 11
-4294.899798419024
 21
-2212.750165011431
 31
0.0
  0
ARC
  5
29B
330
1F
100
AcDbEntity
  8
0-7_取手GEK
  6
Continuous
 62
     7
370
     9
100
AcDbCircle
 10
-4293.899798419023
 20
-2230.750165011431
 30
0.0
 40
1.0
100
AcDbArc
 50
180.0
 51
270.0
  0
LINE
  5
29C
330
1F
100
AcDbEntity
  8
0-8_取手W
  6
Continuous
 62
    92
370
    13
100
AcDbLine
 10
-4366.899798419024
 20
-2099.750165011431
 30
0.0
 11
-4376.899798419024
 21
-2099.750165011431
 31
0.0
  0
LINE
  5
29D
330
1F
100
AcDbEntity
  8
0-8_取手W
  6
Continuous
 62
    92
370
    13
100
AcDbLine
 10
-4376.899798419024
 20
-2233.750165011431
 30
0.0
 11
-4366.899798419024
 21
-2233.750165011431
 31
0.0
  0
LINE
  5
29E
330
1F
100
AcDbEntity
  8
0-8_取手W
  6
Continuous
 62
    92
370
    13
100
AcDbLine
 10
-4376.899798419024
 20
-2099.750165011431
 30
0.0
 11
-4376.899798419024
 21
-2233.750165011431
 31
0.0
  0
LINE
  5
29F
330
1F
100
AcDbEntity
  8
0-8_取手W
  6
Continuous
 62
    92
370
    13
100
AcDbLine
 10
-4366.899798419024
 20
-2099.750165011431
 30
0.0
 11
-4366.899798419024
 21
-2233.750165011431
 31
0.0
  0
ELLIPSE
  5
2A0
330
1F
100
AcDbEntity
  8
0-8_取手W
  6
Continuous
 62
     7
370
     9
100
AcDbEllipse
 10
-4371.899798419024
 20
-2099.750165011431
 30
0.0
 11
1.071565949253925E-15
 21
17.49999999999986
 31
0.0
210
0.0
220
0.0
230
1.0
 40
0.2857142857142857
 41
3.141592653589793
 42
4.71238898038469
  0
ELLIPSE
  5
2A1
330
1F
100
AcDbEntity
  8
0-8_取手W
  6
Continuous
 62
     7
370
     9
100
AcDbEllipse
 10
-4371.899798419024
 20
-2233.750165011431
 30
0.0
 11
1.071565949253925E-15
 21
17.49999999999986
 31
0.0
210
0.0
220
0.0
230
1.0
 40
0.2857142857142857
 41
0.0
 42
1.570796326794897
  0
ELLIPSE
  5
2A2
330
1F
100
AcDbEntity
  8
0-8_取手W
  6
Continuous
 62
     7
370
     9
100
AcDbEllipse
 10
-4371.899798419024
 20
-2233.750165011431
 30
0.0
 11
1.071565949253925E-15
 21
-17.49999999999986
 31
0.0
210
0.0
220
0.0
230
1.0
 40
0.2857142857142857
 41
1.570796326794897
 42
3.141592653589793
  0
ARC
  5
2A3
330
1F
100
AcDbEntity
  8
0-8_取手W
  6
Continuous
 62
     7
370
     9
100
AcDbCircle
 10
-4376.899798419024
 20
-2100.750165011431
 30
0.0
 40
1.0
100
AcDbArc
 50
90.0
 51
180.0
  0
LINE
  5
2A4
330
1F
100
AcDbEntity
  8
0-8_取手W
  6
Continuous
 62
     7
370
     9
100
AcDbLine
 10
-4377.899798419023
 20
-2116.250165011431
 30
0.0
 11
-4377.899798419023
 21
-2100.750165011431
 31
0.0
  0
ARC
  5
2A5
330
1F
100
AcDbEntity
  8
0-8_取手W
  6
Continuous
 62
     7
370
     9
100
AcDbCircle
 10
-4376.899798419024
 20
-2116.250165011431
 30
0.0
 40
1.0
100
AcDbArc
 50
180.0
 51
270.0
  0
ARC
  5
2A6
330
1F
100
AcDbEntity
  8
0-8_取手W
  6
Continuous
 62
     7
370
     9
100
AcDbCircle
 10
-4366.899798419024
 20
-2116.250165011431
 30
0.0
 40
1.0
100
AcDbArc
 50
270.0
 51
0.0
  0
LINE
  5
2A7
330
1F
100
AcDbEntity
  8
0-8_取手W
  6
Continuous
 62
     7
370
     9
100
AcDbLine
 10
-4365.899798419024
 20
-2116.250165011431
 30
0.0
 11
-4365.899798419024
 21
-2100.750165011431
 31
0.0
  0
ARC
  5
2A8
330
1F
100
AcDbEntity
  8
0-8_取手W
  6
Continuous
 62
     7
370
     9
100
AcDbCircle
 10
-4366.899798419024
 20
-2100.750165011431
 30
0.0
 40
1.0
100
AcDbArc
 50
0.0
 51
90.00000000000001
  0
ARC
  5
2A9
330
1F
100
AcDbEntity
  8
0-8_取手W
  6
Continuous
 62
     7
370
     9
100
AcDbCircle
 10
-4376.899798419024
 20
-2217.250165011431
 30
0.0
 40
1.0
100
AcDbArc
 50
90.0
 51
180.0
  0
LINE
  5
2AA
330
1F
100
AcDbEntity
  8
0-8_取手W
  6
Continuous
 62
     7
370
     9
100
AcDbLine
 10
-4377.899798419023
 20
-2232.750165011431
 30
0.0
 11
-4377.899798419023
 21
-2217.250165011431
 31
0.0
  0
ARC
  5
2AB
330
1F
100
AcDbEntity
  8
0-8_取手W
  6
Continuous
 62
     7
370
     9
100
AcDbCircle
 10
-4366.899798419024
 20
-2217.250165011431
 30
0.0
 40
1.0
100
AcDbArc
 50
0.0
 51
90.00000000000001
  0
LINE
  5
2AC
330
1F
100
AcDbEntity
  8
0-8_取手W
  6
Continuous
 62
     7
370
     9
100
AcDbLine
 10
-4365.899798419024
 20
-2232.750165011431
 30
0.0
 11
-4365.899798419024
 21
-2217.250165011431
 31
0.0
  0
ARC
  5
2AD
330
1F
100
AcDbEntity
  8
0-8_取手W
  6
Continuous
 62
     7
370
     9
100
AcDbCircle
 10
-4366.899798419024
 20
-2232.750165011431
 30
0.0
 40
1.0
100
AcDbArc
 50
270.0
 51
0.0
  0
ARC
  5
2AE
330
1F
100
AcDbEntity
  8
0-8_取手W
  6
Continuous
 62
     7
370
     9
100
AcDbCircle
 10
-4376.899798419024
 20
-2232.750165011431
 30
0.0
 40
1.0
100
AcDbArc
 50
180.0
 51
270.0
  0
ELLIPSE
  5
2AF
330
1F
100
AcDbEntity
  8
0-8_取手W
  6
Continuous
 62
     7
370
     9
100
AcDbEllipse
 10
-4371.899798419024
 20
-2099.750165011431
 30
0.0
 11
1.071565949253925E-15
 21
17.49999999999986
 31
0.0
210
0.0
220
0.0
230
1.0
 40
0.2857142857142857
 41
1.570796326794897
 42
3.141592653589793
  0
LINE
  5
2B0
330
1F
100
AcDbEntity
  8
0-8_取手W
  6
Continuous
 62
    92
370
    13
100
AcDbLine
 10
-4283.899798419024
 20
-2099.750165011431
 30
0.0
 11
-4293.899798419023
 21
-2099.750165011431
 31
0.0
  0
LINE
  5
2B1
330
1F
100
AcDbEntity
  8
0-8_取手W
  6
Continuous
 62
    92
370
    13
100
AcDbLine
 10
-4293.899798419023
 20
-2233.750165011431
 30
0.0
 11
-4283.899798419024
 21
-2233.750165011431
 31
0.0
  0
LINE
  5
2B2
330
1F
100
AcDbEntity
  8
0-8_取手W
  6
Continuous
 62
    92
370
    13
100
AcDbLine
 10
-4293.899798419023
 20
-2099.750165011431
 30
0.0
 11
-4293.899798419023
 21
-2233.750165011431
 31
0.0
  0
LINE
  5
2B3
330
1F
100
AcDbEntity
  8
0-8_取手W
  6
Continuous
 62
    92
370
    13
100
AcDbLine
 10
-4283.899798419024
 20
-2099.750165011431
 30
0.0
 11
-4283.899798419024
 21
-2233.750165011431
 31
0.0
  0
ELLIPSE
  5
2B4
330
1F
100
AcDbEntity
  8
0-8_取手W
  6
Continuous
 62
     7
370
     9
100
AcDbEllipse
 10
-4288.899798419023
 20
-2099.750165011431
 30
0.0
 11
1.071565949253925E-15
 21
17.49999999999986
 31
0.0
210
0.0
220
0.0
230
1.0
 40
0.2857142857142857
 41
3.141592653589793
 42
4.71238898038469
  0
ELLIPSE
  5
2B5
330
1F
100
AcDbEntity
  8
0-8_取手W
  6
Continuous
 62
     7
370
     9
100
AcDbEllipse
 10
-4288.899798419023
 20
-2233.750165011431
 30
0.0
 11
1.071565949253925E-15
 21
17.49999999999986
 31
0.0
210
0.0
220
0.0
230
1.0
 40
0.2857142857142857
 41
0.0
 42
1.570796326794897
  0
ELLIPSE
  5
2B6
330
1F
100
AcDbEntity
  8
0-8_取手W
  6
Continuous
 62
     7
370
     9
100
AcDbEllipse
 10
-4288.899798419023
 20
-2233.750165011431
 30
0.0
 11
1.071565949253925E-15
 21
-17.49999999999986
 31
0.0
210
0.0
220
0.0
230
1.0
 40
0.2857142857142857
 41
1.570796326794897
 42
3.141592653589793
  0
ARC
  5
2B7
330
1F
100
AcDbEntity
  8
0-8_取手W
  6
Continuous
 62
     7
370
     9
100
AcDbCircle
 10
-4293.899798419023
 20
-2100.750165011431
 30
0.0
 40
1.0
100
AcDbArc
 50
90.0
 51
180.0
  0
LINE
  5
2B8
330
1F
100
AcDbEntity
  8
0-8_取手W
  6
Continuous
 62
     7
370
     9
100
AcDbLine
 10
-4294.899798419022
 20
-2116.250165011431
 30
0.0
 11
-4294.899798419022
 21
-2100.750165011431
 31
0.0
  0
ARC
  5
2B9
330
1F
100
AcDbEntity
  8
0-8_取手W
  6
Continuous
 62
     7
370
     9
100
AcDbCircle
 10
-4293.899798419023
 20
-2116.250165011431
 30
0.0
 40
1.0
100
AcDbArc
 50
180.0
 51
270.0
  0
ARC
  5
2BA
330
1F
100
AcDbEntity
  8
0-8_取手W
  6
Continuous
 62
     7
370
     9
100
AcDbCircle
 10
-4283.899798419024
 20
-2116.250165011431
 30
0.0
 40
1.0
100
AcDbArc
 50
270.0
 51
0.0
  0
LINE
  5
2BB
330
1F
100
AcDbEntity
  8
0-8_取手W
  6
Continuous
 62
     7
370
     9
100
AcDbLine
 10
-4282.899798419024
 20
-2116.250165011431
 30
0.0
 11
-4282.899798419024
 21
-2100.750165011431
 31
0.0
  0
ARC
  5
2BC
330
1F
100
AcDbEntity
  8
0-8_取手W
  6
Continuous
 62
     7
370
     9
100
AcDbCircle
 10
-4283.899798419024
 20
-2100.750165011431
 30
0.0
 40
1.0
100
AcDbArc
 50
0.0
 51
90.00000000000001
  0
ARC
  5
2BD
330
1F
100
AcDbEntity
  8
0-8_取手W
  6
Continuous
 62
     7
370
     9
100
AcDbCircle
 10
-4293.899798419023
 20
-2217.250165011431
 30
0.0
 40
1.0
100
AcDbArc
 50
90.0
 51
180.0
  0
LINE
  5
2BE
330
1F
100
AcDbEntity
  8
0-8_取手W
  6
Continuous
 62
     7
370
     9
100
AcDbLine
 10
-4294.899798419022
 20
-2232.750165011431
 30
0.0
 11
-4294.899798419022
 21
-2217.250165011431
 31
0.0
  0
ARC
  5
2BF
330
1F
100
AcDbEntity
  8
0-8_取手W
  6
Continuous
 62
     7
370
     9
100
AcDbCircle
 10
-4283.899798419024
 20
-2217.250165011431
 30
0.0
 40
1.0
100
AcDbArc
 50
0.0
 51
90.00000000000001
  0
LINE
  5
2C0
330
1F
100
AcDbEntity
  8
0-8_取手W
  6
Continuous
 62
     7
370
     9
100
AcDbLine
 10
-4282.899798419024
 20
-2232.750165011431
 30
0.0
 11
-4282.899798419024
 21
-2217.250165011431
 31
0.0
  0
ARC
  5
2C1
330
1F
100
AcDbEntity
  8
0-8_取手W
  6
Continuous
 62
     7
370
     9
100
AcDbCircle
 10
-4283.899798419024
 20
-2232.750165011431
 30
0.0
 40
1.0
100
AcDbArc
 50
270.0
 51
0.0
  0
ARC
  5
2C2
330
1F
100
AcDbEntity
  8
0-8_取手W
  6
Continuous
 62
     7
370
     9
100
AcDbCircle
 10
-4293.899798419023
 20
-2232.750165011431
 30
0.0
 40
1.0
100
AcDbArc
 50
180.0
 51
270.0
  0
ELLIPSE
  5
2C3
330
1F
100
AcDbEntity
  8
0-8_取手W
  6
Continuous
 62
     7
370
     9
100
AcDbEllipse
 10
-4288.899798419023
 20
-2099.750165011431
 30
0.0
 11
1.071565949253925E-15
 21
17.49999999999986
 31
0.0
210
0.0
220
0.0
230
1.0
 40
0.2857142857142857
 41
1.570796326794897
 42
3.141592653589793
  0
LINE
  5
2C4
330
1F
100
AcDbEntity
  8
0-1_通り芯
  6
JWW_CENTER1
 62
   120
370
     5
100
AcDbLine
 10
-2140.299671069995
 20
2282.000148463894
 30
0.0
 11
-2140.299671069995
 21
2128.000148463894
 31
0.0
  0
LINE
  5
2C5
330
1F
100
AcDbEntity
  8
0-1_通り芯
  6
JWW_CENTER1
 62
   120
370
     5
100
AcDbLine
 10
-2125.299671069996
 20
2205.000148463894
 30
0.0
 11
-2155.299671069994
 21
2205.000148463894
 31
0.0
  0
LINE
  5
2C6
330
1F
100
AcDbEntity
  8
0-8_取手W
  6
Continuous
 62
    92
370
    13
100
AcDbLine
 10
-2135.299671069996
 20
2272.000148463893
 30
0.0
 11
-2145.299671069995
 21
2272.000148463893
 31
0.0
  0
LINE
  5
2C7
330
1F
100
AcDbEntity
  8
0-8_取手W
  6
Continuous
 62
    92
370
    13
100
AcDbLine
 10
-2145.299671069995
 20
2138.000148463893
 30
0.0
 11
-2135.299671069996
 21
2138.000148463893
 31
0.0
  0
LINE
  5
2C8
330
1F
100
AcDbEntity
  8
0-8_取手W
  6
Continuous
 62
    92
370
    13
100
AcDbLine
 10
-2145.299671069995
 20
2272.000148463893
 30
0.0
 11
-2145.299671069995
 21
2138.000148463893
 31
0.0
  0
LINE
  5
2C9
330
1F
100
AcDbEntity
  8
0-8_取手W
  6
Continuous
 62
    92
370
    13
100
AcDbLine
 10
-2135.299671069996
 20
2272.000148463893
 30
0.0
 11
-2135.299671069996
 21
2138.000148463893
 31
0.0
  0
ELLIPSE
  5
2CA
330
1F
100
AcDbEntity
  8
0-8_取手W
  6
Continuous
 62
     7
370
     9
100
AcDbEllipse
 10
-2140.299671069995
 20
2272.000148463893
 30
0.0
 11
1.071565949253925E-15
 21
17.49999999999986
 31
0.0
210
0.0
220
0.0
230
1.0
 40
0.2857142857142857
 41
3.141592653589793
 42
4.71238898038469
  0
ELLIPSE
  5
2CB
330
1F
100
AcDbEntity
  8
0-8_取手W
  6
Continuous
 62
     7
370
     9
100
AcDbEllipse
 10
-2140.299671069995
 20
2138.000148463893
 30
0.0
 11
1.071565949253925E-15
 21
17.49999999999986
 31
0.0
210
0.0
220
0.0
230
1.0
 40
0.2857142857142857
 41
0.0
 42
1.570796326794897
  0
ELLIPSE
  5
2CC
330
1F
100
AcDbEntity
  8
0-8_取手W
  6
Continuous
 62
     7
370
     9
100
AcDbEllipse
 10
-2140.299671069995
 20
2138.000148463893
 30
0.0
 11
1.071565949253925E-15
 21
-17.49999999999986
 31
0.0
210
0.0
220
0.0
230
1.0
 40
0.2857142857142857
 41
1.570796326794897
 42
3.141592653589793
  0
ARC
  5
2CD
330
1F
100
AcDbEntity
  8
0-8_取手W
  6
Continuous
 62
     7
370
     9
100
AcDbCircle
 10
-2145.299671069995
 20
2271.000148463893
 30
0.0
 40
1.0
100
AcDbArc
 50
90.0
 51
180.0
  0
LINE
  5
2CE
330
1F
100
AcDbEntity
  8
0-8_取手W
  6
Continuous
 62
     7
370
     9
100
AcDbLine
 10
-2146.299671069995
 20
2255.500148463894
 30
0.0
 11
-2146.299671069995
 21
2271.000148463893
 31
0.0
  0
ARC
  5
2CF
330
1F
100
AcDbEntity
  8
0-8_取手W
  6
Continuous
 62
     7
370
     9
100
AcDbCircle
 10
-2145.299671069995
 20
2255.500148463894
 30
0.0
 40
1.0
100
AcDbArc
 50
180.0
 51
270.0
  0
ARC
  5
2D0
330
1F
100
AcDbEntity
  8
0-8_取手W
  6
Continuous
 62
     7
370
     9
100
AcDbCircle
 10
-2135.299671069996
 20
2255.500148463894
 30
0.0
 40
1.0
100
AcDbArc
 50
270.0
 51
0.0
  0
LINE
  5
2D1
330
1F
100
AcDbEntity
  8
0-8_取手W
  6
Continuous
 62
     7
370
     9
100
AcDbLine
 10
-2134.299671069996
 20
2255.500148463894
 30
0.0
 11
-2134.299671069996
 21
2271.000148463893
 31
0.0
  0
ARC
  5
2D2
330
1F
100
AcDbEntity
  8
0-8_取手W
  6
Continuous
 62
     7
370
     9
100
AcDbCircle
 10
-2135.299671069996
 20
2271.000148463893
 30
0.0
 40
1.0
100
AcDbArc
 50
0.0
 51
90.00000000000001
  0
ARC
  5
2D3
330
1F
100
AcDbEntity
  8
0-8_取手W
  6
Continuous
 62
     7
370
     9
100
AcDbCircle
 10
-2145.299671069995
 20
2154.500148463894
 30
0.0
 40
1.0
100
AcDbArc
 50
90.0
 51
180.0
  0
LINE
  5
2D4
330
1F
100
AcDbEntity
  8
0-8_取手W
  6
Continuous
 62
     7
370
     9
100
AcDbLine
 10
-2146.299671069995
 20
2139.000148463893
 30
0.0
 11
-2146.299671069995
 21
2154.500148463894
 31
0.0
  0
ARC
  5
2D5
330
1F
100
AcDbEntity
  8
0-8_取手W
  6
Continuous
 62
     7
370
     9
100
AcDbCircle
 10
-2135.299671069996
 20
2154.500148463894
 30
0.0
 40
1.0
100
AcDbArc
 50
0.0
 51
90.00000000000001
  0
LINE
  5
2D6
330
1F
100
AcDbEntity
  8
0-8_取手W
  6
Continuous
 62
     7
370
     9
100
AcDbLine
 10
-2134.299671069996
 20
2139.000148463893
 30
0.0
 11
-2134.299671069996
 21
2154.500148463894
 31
0.0
  0
ARC
  5
2D7
330
1F
100
AcDbEntity
  8
0-8_取手W
  6
Continuous
 62
     7
370
     9
100
AcDbCircle
 10
-2135.299671069996
 20
2139.000148463893
 30
0.0
 40
1.0
100
AcDbArc
 50
270.0
 51
0.0
  0
ARC
  5
2D8
330
1F
100
AcDbEntity
  8
0-8_取手W
  6
Continuous
 62
     7
370
     9
100
AcDbCircle
 10
-2145.299671069995
 20
2139.000148463893
 30
0.0
 40
1.0
100
AcDbArc
 50
180.0
 51
270.0
  0
ELLIPSE
  5
2D9
330
1F
100
AcDbEntity
  8
0-8_取手W
  6
Continuous
 62
     7
370
     9
100
AcDbEllipse
 10
-2140.299671069995
 20
2272.000148463893
 30
0.0
 11
1.071565949253925E-15
 21
17.49999999999986
 31
0.0
210
0.0
220
0.0
230
1.0
 40
0.2857142857142857
 41
1.570796326794897
 42
3.141592653589793
  0
LINE
  5
2DA
330
1F
100
AcDbEntity
  8
0-1_通り芯
  6
JWW_CENTER1
 62
   120
370
     5
100
AcDbLine
 10
-2057.299671069995
 20
2282.000148463894
 30
0.0
 11
-2057.299671069995
 21
2128.000148463894
 31
0.0
  0
LINE
  5
2DB
330
1F
100
AcDbEntity
  8
0-1_通り芯
  6
JWW_CENTER1
 62
   120
370
     5
100
AcDbLine
 10
-2042.299671069996
 20
2205.000148463894
 30
0.0
 11
-2072.299671069994
 21
2205.000148463894
 31
0.0
  0
LINE
  5
2DC
330
1F
100
AcDbEntity
  8
0-8_取手W
  6
Continuous
 62
    92
370
    13
100
AcDbLine
 10
-2052.299671069995
 20
2272.000148463893
 30
0.0
 11
-2062.299671069995
 21
2272.000148463893
 31
0.0
  0
LINE
  5
2DD
330
1F
100
AcDbEntity
  8
0-8_取手W
  6
Continuous
 62
    92
370
    13
100
AcDbLine
 10
-2062.299671069995
 20
2138.000148463893
 30
0.0
 11
-2052.299671069995
 21
2138.000148463893
 31
0.0
  0
LINE
  5
2DE
330
1F
100
AcDbEntity
  8
0-8_取手W
  6
Continuous
 62
    92
370
    13
100
AcDbLine
 10
-2062.299671069995
 20
2272.000148463893
 30
0.0
 11
-2062.299671069995
 21
2138.000148463893
 31
0.0
  0
LINE
  5
2DF
330
1F
100
AcDbEntity
  8
0-8_取手W
  6
Continuous
 62
    92
370
    13
100
AcDbLine
 10
-2052.299671069995
 20
2272.000148463893
 30
0.0
 11
-2052.299671069995
 21
2138.000148463893
 31
0.0
  0
ELLIPSE
  5
2E0
330
1F
100
AcDbEntity
  8
0-8_取手W
  6
Continuous
 62
     7
370
     9
100
AcDbEllipse
 10
-2057.299671069995
 20
2272.000148463893
 30
0.0
 11
1.071565949253925E-15
 21
17.49999999999986
 31
0.0
210
0.0
220
0.0
230
1.0
 40
0.2857142857142857
 41
3.141592653589793
 42
4.71238898038469
  0
ELLIPSE
  5
2E1
330
1F
100
AcDbEntity
  8
0-8_取手W
  6
Continuous
 62
     7
370
     9
100
AcDbEllipse
 10
-2057.299671069995
 20
2138.000148463893
 30
0.0
 11
1.071565949253925E-15
 21
17.49999999999986
 31
0.0
210
0.0
220
0.0
230
1.0
 40
0.2857142857142857
 41
0.0
 42
1.570796326794897
  0
ELLIPSE
  5
2E2
330
1F
100
AcDbEntity
  8
0-8_取手W
  6
Continuous
 62
     7
370
     9
100
AcDbEllipse
 10
-2057.299671069995
 20
2138.000148463893
 30
0.0
 11
1.071565949253925E-15
 21
-17.49999999999986
 31
0.0
210
0.0
220
0.0
230
1.0
 40
0.2857142857142857
 41
1.570796326794897
 42
3.141592653589793
  0
ARC
  5
2E3
330
1F
100
AcDbEntity
  8
0-8_取手W
  6
Continuous
 62
     7
370
     9
100
AcDbCircle
 10
-2062.299671069995
 20
2271.000148463893
 30
0.0
 40
1.0
100
AcDbArc
 50
90.0
 51
180.0
  0
LINE
  5
2E4
330
1F
100
AcDbEntity
  8
0-8_取手W
  6
Continuous
 62
     7
370
     9
100
AcDbLine
 10
-2063.299671069995
 20
2255.500148463894
 30
0.0
 11
-2063.299671069995
 21
2271.000148463893
 31
0.0
  0
ARC
  5
2E5
330
1F
100
AcDbEntity
  8
0-8_取手W
  6
Continuous
 62
     7
370
     9
100
AcDbCircle
 10
-2062.299671069995
 20
2255.500148463894
 30
0.0
 40
1.0
100
AcDbArc
 50
180.0
 51
270.0
  0
ARC
  5
2E6
330
1F
100
AcDbEntity
  8
0-8_取手W
  6
Continuous
 62
     7
370
     9
100
AcDbCircle
 10
-2052.299671069995
 20
2255.500148463894
 30
0.0
 40
1.0
100
AcDbArc
 50
270.0
 51
0.0
  0
LINE
  5
2E7
330
1F
100
AcDbEntity
  8
0-8_取手W
  6
Continuous
 62
     7
370
     9
100
AcDbLine
 10
-2051.299671069995
 20
2255.500148463894
 30
0.0
 11
-2051.299671069995
 21
2271.000148463893
 31
0.0
  0
ARC
  5
2E8
330
1F
100
AcDbEntity
  8
0-8_取手W
  6
Continuous
 62
     7
370
     9
100
AcDbCircle
 10
-2052.299671069995
 20
2271.000148463893
 30
0.0
 40
1.0
100
AcDbArc
 50
0.0
 51
90.00000000000001
  0
ARC
  5
2E9
330
1F
100
AcDbEntity
  8
0-8_取手W
  6
Continuous
 62
     7
370
     9
100
AcDbCircle
 10
-2062.299671069995
 20
2154.500148463894
 30
0.0
 40
1.0
100
AcDbArc
 50
90.0
 51
180.0
  0
LINE
  5
2EA
330
1F
100
AcDbEntity
  8
0-8_取手W
  6
Continuous
 62
     7
370
     9
100
AcDbLine
 10
-2063.299671069995
 20
2139.000148463893
 30
0.0
 11
-2063.299671069995
 21
2154.500148463894
 31
0.0
  0
ARC
  5
2EB
330
1F
100
AcDbEntity
  8
0-8_取手W
  6
Continuous
 62
     7
370
     9
100
AcDbCircle
 10
-2052.299671069995
 20
2154.500148463894
 30
0.0
 40
1.0
100
AcDbArc
 50
0.0
 51
90.00000000000001
  0
LINE
  5
2EC
330
1F
100
AcDbEntity
  8
0-8_取手W
  6
Continuous
 62
     7
370
     9
100
AcDbLine
 10
-2051.299671069995
 20
2139.000148463893
 30
0.0
 11
-2051.299671069995
 21
2154.500148463894
 31
0.0
  0
ARC
  5
2ED
330
1F
100
AcDbEntity
  8
0-8_取手W
  6
Continuous
 62
     7
370
     9
100
AcDbCircle
 10
-2052.299671069995
 20
2139.000148463893
 30
0.0
 40
1.0
100
AcDbArc
 50
270.0
 51
0.0
  0
ARC
  5
2EE
330
1F
100
AcDbEntity
  8
0-8_取手W
  6
Continuous
 62
     7
370
     9
100
AcDbCircle
 10
-2062.299671069995
 20
2139.000148463893
 30
0.0
 40
1.0
100
AcDbArc
 50
180.0
 51
270.0
  0
ELLIPSE
  5
2EF
330
1F
100
AcDbEntity
  8
0-8_取手W
  6
Continuous
 62
     7
370
     9
100
AcDbEllipse
 10
-2057.299671069995
 20
2272.000148463893
 30
0.0
 11
1.071565949253925E-15
 21
17.49999999999986
 31
0.0
210
0.0
220
0.0
230
1.0
 40
0.2857142857142857
 41
1.570796326794897
 42
3.141592653589793
  0
ARC
  5
2F0
330
1F
100
AcDbEntity
  8
0-7_取手GEK
  6
Continuous
 62
    92
370
    13
100
AcDbCircle
 10
-2144.299671069994
 20
2270.000148463892
 30
0.0
 40
1.0
100
AcDbArc
 50
90.0
 51
180.0
  0
LINE
  5
2F1
330
1F
100
AcDbEntity
  8
0-7_取手GEK
  6
Continuous
 62
    92
370
    13
100
AcDbLine
 10
-2136.299671069997
 20
2271.000148463894
 30
0.0
 11
-2144.299671069994
 21
2271.000148463894
 31
0.0
  0
ARC
  5
2F2
330
1F
100
AcDbEntity
  8
0-7_取手GEK
  6
Continuous
 62
    92
370
    13
100
AcDbCircle
 10
-2136.299671069997
 20
2270.000148463892
 30
0.0
 40
1.0
100
AcDbArc
 50
0.0
 51
90.00000000000001
  0
LINE
  5
2F3
330
1F
100
AcDbEntity
  8
0-7_取手GEK
  6
Continuous
 62
    92
370
    13
100
AcDbLine
 10
-2135.299671069996
 20
2138.000148463894
 30
0.0
 11
-2135.299671069996
 21
2270.000148463892
 31
0.0
  0
ARC
  5
2F4
330
1F
100
AcDbEntity
  8
0-7_取手GEK
  6
Continuous
 62
    92
370
    13
100
AcDbCircle
 10
-2136.299671069997
 20
2138.000148463894
 30
0.0
 40
1.0
100
AcDbArc
 50
270.0
 51
0.0
  0
LINE
  5
2F5
330
1F
100
AcDbEntity
  8
0-7_取手GEK
  6
Continuous
 62
    92
370
    13
100
AcDbLine
 10
-2144.299671069994
 20
2137.000148463893
 30
0.0
 11
-2136.299671069997
 21
2137.000148463893
 31
0.0
  0
LINE
  5
2F6
330
1F
100
AcDbEntity
  8
0-7_取手GEK
  6
Continuous
 62
    92
370
    13
100
AcDbLine
 10
-2145.299671069995
 20
2138.000148463894
 30
0.0
 11
-2145.299671069995
 21
2270.000148463892
 31
0.0
  0
ARC
  5
2F7
330
1F
100
AcDbEntity
  8
0-7_取手GEK
  6
Continuous
 62
    92
370
    13
100
AcDbCircle
 10
-2144.299671069994
 20
2138.000148463894
 30
0.0
 40
1.0
100
AcDbArc
 50
180.0
 51
270.0
  0
ARC
  5
2F8
330
1F
100
AcDbEntity
  8
0-7_取手GEK
  6
Continuous
 62
     7
370
     9
100
AcDbCircle
 10
-2145.299671069995
 20
2268.000148463893
 30
0.0
 40
1.0
100
AcDbArc
 50
90.0
 51
180.0
  0
ARC
  5
2F9
330
1F
100
AcDbEntity
  8
0-7_取手GEK
  6
Continuous
 62
     7
370
     9
100
AcDbCircle
 10
-2135.299671069996
 20
2268.000148463893
 30
0.0
 40
1.0
100
AcDbArc
 50
0.0
 51
90.00000000000001
  0
LINE
  5
2FA
330
1F
100
AcDbEntity
  8
0-7_取手GEK
  6
Continuous
 62
     7
370
     9
100
AcDbLine
 10
-2134.299671069995
 20
2250.000148463893
 30
0.0
 11
-2134.299671069995
 21
2268.000148463893
 31
0.0
  0
ARC
  5
2FB
330
1F
100
AcDbEntity
  8
0-7_取手GEK
  6
Continuous
 62
     7
370
     9
100
AcDbCircle
 10
-2135.299671069996
 20
2250.000148463893
 30
0.0
 40
1.0
100
AcDbArc
 50
270.0
 51
0.0
  0
LINE
  5
2FC
330
1F
100
AcDbEntity
  8
0-7_取手GEK
  6
Continuous
 62
     7
370
     9
100
AcDbLine
 10
-2146.299671069996
 20
2250.000148463893
 30
0.0
 11
-2146.299671069996
 21
2268.000148463893
 31
0.0
  0
ARC
  5
2FD
330
1F
100
AcDbEntity
  8
0-7_取手GEK
  6
Continuous
 62
     7
370
     9
100
AcDbCircle
 10
-2145.299671069995
 20
2250.000148463893
 30
0.0
 40
1.0
100
AcDbArc
 50
180.0
 51
270.0
  0
ARC
  5
2FE
330
1F
100
AcDbEntity
  8
0-7_取手GEK
  6
Continuous
 62
     7
370
     9
100
AcDbCircle
 10
-2145.299671069995
 20
2158.000148463893
 30
0.0
 40
1.0
100
AcDbArc
 50
90.0
 51
180.0
  0
ARC
  5
2FF
330
1F
100
AcDbEntity
  8
0-7_取手GEK
  6
Continuous
 62
     7
370
     9
100
AcDbCircle
 10
-2135.299671069996
 20
2158.000148463893
 30
0.0
 40
1.0
100
AcDbArc
 50
0.0
 51
90.00000000000001
  0
LINE
  5
300
330
1F
100
AcDbEntity
  8
0-7_取手GEK
  6
Continuous
 62
     7
370
     9
100
AcDbLine
 10
-2134.299671069995
 20
2140.000148463894
 30
0.0
 11
-2134.299671069995
 21
2158.000148463893
 31
0.0
  0
ARC
  5
301
330
1F
100
AcDbEntity
  8
0-7_取手GEK
  6
Continuous
 62
     7
370
     9
100
AcDbCircle
 10
-2135.299671069996
 20
2140.000148463894
 30
0.0
 40
1.0
100
AcDbArc
 50
270.0
 51
0.0
  0
LINE
  5
302
330
1F
100
AcDbEntity
  8
0-7_取手GEK
  6
Continuous
 62
     7
370
     9
100
AcDbLine
 10
-2146.299671069996
 20
2140.000148463894
 30
0.0
 11
-2146.299671069996
 21
2158.000148463893
 31
0.0
  0
ARC
  5
303
330
1F
100
AcDbEntity
  8
0-7_取手GEK
  6
Continuous
 62
     7
370
     9
100
AcDbCircle
 10
-2145.299671069995
 20
2140.000148463894
 30
0.0
 40
1.0
100
AcDbArc
 50
180.0
 51
270.0
  0
ARC
  5
304
330
1F
100
AcDbEntity
  8
0-7_取手GEK
  6
Continuous
 62
    92
370
    13
100
AcDbCircle
 10
-2061.299671069994
 20
2270.000148463892
 30
0.0
 40
1.0
100
AcDbArc
 50
90.0
 51
180.0
  0
LINE
  5
305
330
1F
100
AcDbEntity
  8
0-7_取手GEK
  6
Continuous
 62
    92
370
    13
100
AcDbLine
 10
-2053.299671069996
 20
2271.000148463894
 30
0.0
 11
-2061.299671069994
 21
2271.000148463894
 31
0.0
  0
ARC
  5
306
330
1F
100
AcDbEntity
  8
0-7_取手GEK
  6
Continuous
 62
    92
370
    13
100
AcDbCircle
 10
-2053.299671069996
 20
2270.000148463892
 30
0.0
 40
1.0
100
AcDbArc
 50
0.0
 51
90.00000000000001
  0
LINE
  5
307
330
1F
100
AcDbEntity
  8
0-7_取手GEK
  6
Continuous
 62
    92
370
    13
100
AcDbLine
 10
-2052.299671069995
 20
2138.000148463894
 30
0.0
 11
-2052.299671069995
 21
2270.000148463892
 31
0.0
  0
ARC
  5
308
330
1F
100
AcDbEntity
  8
0-7_取手GEK
  6
Continuous
 62
    92
370
    13
100
AcDbCircle
 10
-2053.299671069996
 20
2138.000148463894
 30
0.0
 40
1.0
100
AcDbArc
 50
270.0
 51
0.0
  0
LINE
  5
309
330
1F
100
AcDbEntity
  8
0-7_取手GEK
  6
Continuous
 62
    92
370
    13
100
AcDbLine
 10
-2061.299671069994
 20
2137.000148463893
 30
0.0
 11
-2053.299671069996
 21
2137.000148463893
 31
0.0
  0
LINE
  5
30A
330
1F
100
AcDbEntity
  8
0-7_取手GEK
  6
Continuous
 62
    92
370
    13
100
AcDbLine
 10
-2062.299671069995
 20
2138.000148463894
 30
0.0
 11
-2062.299671069995
 21
2270.000148463892
 31
0.0
  0
ARC
  5
30B
330
1F
100
AcDbEntity
  8
0-7_取手GEK
  6
Continuous
 62
    92
370
    13
100
AcDbCircle
 10
-2061.299671069994
 20
2138.000148463894
 30
0.0
 40
1.0
100
AcDbArc
 50
180.0
 51
270.0
  0
ARC
  5
30C
330
1F
100
AcDbEntity
  8
0-7_取手GEK
  6
Continuous
 62
     7
370
     9
100
AcDbCircle
 10
-2062.299671069995
 20
2268.000148463893
 30
0.0
 40
1.0
100
AcDbArc
 50
90.0
 51
180.0
  0
ARC
  5
30D
330
1F
100
AcDbEntity
  8
0-7_取手GEK
  6
Continuous
 62
     7
370
     9
100
AcDbCircle
 10
-2052.299671069995
 20
2268.000148463893
 30
0.0
 40
1.0
100
AcDbArc
 50
0.0
 51
90.00000000000001
  0
LINE
  5
30E
330
1F
100
AcDbEntity
  8
0-7_取手GEK
  6
Continuous
 62
     7
370
     9
100
AcDbLine
 10
-2051.299671069994
 20
2250.000148463893
 30
0.0
 11
-2051.299671069994
 21
2268.000148463893
 31
0.0
  0
ARC
  5
30F
330
1F
100
AcDbEntity
  8
0-7_取手GEK
  6
Continuous
 62
     7
370
     9
100
AcDbCircle
 10
-2052.299671069995
 20
2250.000148463893
 30
0.0
 40
1.0
100
AcDbArc
 50
270.0
 51
0.0
  0
LINE
  5
310
330
1F
100
AcDbEntity
  8
0-7_取手GEK
  6
Continuous
 62
     7
370
     9
100
AcDbLine
 10
-2063.299671069995
 20
2250.000148463893
 30
0.0
 11
-2063.299671069995
 21
2268.000148463893
 31
0.0
  0
ARC
  5
311
330
1F
100
AcDbEntity
  8
0-7_取手GEK
  6
Continuous
 62
     7
370
     9
100
AcDbCircle
 10
-2062.299671069995
 20
2250.000148463893
 30
0.0
 40
1.0
100
AcDbArc
 50
180.0
 51
270.0
  0
ARC
  5
312
330
1F
100
AcDbEntity
  8
0-7_取手GEK
  6
Continuous
 62
     7
370
     9
100
AcDbCircle
 10
-2062.299671069995
 20
2158.000148463893
 30
0.0
 40
1.0
100
AcDbArc
 50
90.0
 51
180.0
  0
ARC
  5
313
330
1F
100
AcDbEntity
  8
0-7_取手GEK
  6
Continuous
 62
     7
370
     9
100
AcDbCircle
 10
-2052.299671069995
 20
2158.000148463893
 30
0.0
 40
1.0
100
AcDbArc
 50
0.0
 51
90.00000000000001
  0
LINE
  5
314
330
1F
100
AcDbEntity
  8
0-7_取手GEK
  6
Continuous
 62
     7
370
     9
100
AcDbLine
 10
-2051.299671069994
 20
2140.000148463894
 30
0.0
 11
-2051.299671069994
 21
2158.000148463893
 31
0.0
  0
ARC
  5
315
330
1F
100
AcDbEntity
  8
0-7_取手GEK
  6
Continuous
 62
     7
370
     9
100
AcDbCircle
 10
-2052.299671069995
 20
2140.000148463894
 30
0.0
 40
1.0
100
AcDbArc
 50
270.0
 51
0.0
  0
LINE
  5
316
330
1F
100
AcDbEntity
  8
0-7_取手GEK
  6
Continuous
 62
     7
370
     9
100
AcDbLine
 10
-2063.299671069995
 20
2140.000148463894
 30
0.0
 11
-2063.299671069995
 21
2158.000148463893
 31
0.0
  0
ARC
  5
317
330
1F
100
AcDbEntity
  8
0-7_取手GEK
  6
Continuous
 62
     7
370
     9
100
AcDbCircle
 10
-2062.299671069995
 20
2140.000148463894
 30
0.0
 40
1.0
100
AcDbArc
 50
180.0
 51
270.0
  0
LINE
  5
318
330
1F
100
AcDbEntity
  8
0-1_通り芯
  6
JWW_CENTER1
 62
   120
370
     5
100
AcDbLine
 10
91.30008511929901
 20
2282.000148463894
 30
0.0
 11
91.30008511929901
 21
2128.000148463894
 31
0.0
  0
LINE
  5
319
330
1F
100
AcDbEntity
  8
0-1_通り芯
  6
JWW_CENTER1
 62
   120
370
     5
100
AcDbLine
 10
106.3000851192982
 20
2205.000148463894
 30
0.0
 11
76.30008511929987
 21
2205.000148463894
 31
0.0
  0
LINE
  5
31A
330
1F
100
AcDbEntity
  8
0-8_取手W
  6
Continuous
 62
    92
370
    13
100
AcDbLine
 10
96.30008511929873
 20
2272.000148463893
 30
0.0
 11
86.3000851192993
 21
2272.000148463893
 31
0.0
  0
LINE
  5
31B
330
1F
100
AcDbEntity
  8
0-8_取手W
  6
Continuous
 62
    92
370
    13
100
AcDbLine
 10
86.3000851192993
 20
2138.000148463893
 30
0.0
 11
96.30008511929873
 21
2138.000148463893
 31
0.0
  0
LINE
  5
31C
330
1F
100
AcDbEntity
  8
0-8_取手W
  6
Continuous
 62
    92
370
    13
100
AcDbLine
 10
86.3000851192993
 20
2272.000148463893
 30
0.0
 11
86.3000851192993
 21
2138.000148463893
 31
0.0
  0
LINE
  5
31D
330
1F
100
AcDbEntity
  8
0-8_取手W
  6
Continuous
 62
    92
370
    13
100
AcDbLine
 10
96.30008511929873
 20
2272.000148463893
 30
0.0
 11
96.30008511929873
 21
2138.000148463893
 31
0.0
  0
ELLIPSE
  5
31E
330
1F
100
AcDbEntity
  8
0-8_取手W
  6
Continuous
 62
     7
370
     9
100
AcDbEllipse
 10
91.30008511929901
 20
2272.000148463893
 30
0.0
 11
1.071565949253925E-15
 21
17.49999999999986
 31
0.0
210
0.0
220
0.0
230
1.0
 40
0.2857142857142857
 41
3.141592653589793
 42
4.71238898038469
  0
ELLIPSE
  5
31F
330
1F
100
AcDbEntity
  8
0-8_取手W
  6
Continuous
 62
     7
370
     9
100
AcDbEllipse
 10
91.30008511929901
 20
2138.000148463893
 30
0.0
 11
1.071565949253925E-15
 21
17.49999999999986
 31
0.0
210
0.0
220
0.0
230
1.0
 40
0.2857142857142857
 41
0.0
 42
1.570796326794897
  0
ELLIPSE
  5
320
330
1F
100
AcDbEntity
  8
0-8_取手W
  6
Continuous
 62
     7
370
     9
100
AcDbEllipse
 10
91.30008511929901
 20
2138.000148463893
 30
0.0
 11
1.071565949253925E-15
 21
-17.49999999999986
 31
0.0
210
0.0
220
0.0
230
1.0
 40
0.2857142857142857
 41
1.570796326794897
 42
3.141592653589793
  0
ARC
  5
321
330
1F
100
AcDbEntity
  8
0-8_取手W
  6
Continuous
 62
     7
370
     9
100
AcDbCircle
 10
86.3000851192993
 20
2271.000148463893
 30
0.0
 40
1.0
100
AcDbArc
 50
90.0
 51
180.0
  0
LINE
  5
322
330
1F
100
AcDbEntity
  8
0-8_取手W
  6
Continuous
 62
     7
370
     9
100
AcDbLine
 10
85.30008511929935
 20
2255.500148463894
 30
0.0
 11
85.30008511929935
 21
2271.000148463893
 31
0.0
  0
ARC
  5
323
330
1F
100
AcDbEntity
  8
0-8_取手W
  6
Continuous
 62
     7
370
     9
100
AcDbCircle
 10
86.3000851192993
 20
2255.500148463894
 30
0.0
 40
1.0
100
AcDbArc
 50
180.0
 51
270.0
  0
ARC
  5
324
330
1F
100
AcDbEntity
  8
0-8_取手W
  6
Continuous
 62
     7
370
     9
100
AcDbCircle
 10
96.30008511929873
 20
2255.500148463894
 30
0.0
 40
1.0
100
AcDbArc
 50
270.0
 51
0.0
  0
LINE
  5
325
330
1F
100
AcDbEntity
  8
0-8_取手W
  6
Continuous
 62
     7
370
     9
100
AcDbLine
 10
97.30008511929867
 20
2255.500148463894
 30
0.0
 11
97.30008511929867
 21
2271.000148463893
 31
0.0
  0
ARC
  5
326
330
1F
100
AcDbEntity
  8
0-8_取手W
  6
Continuous
 62
     7
370
     9
100
AcDbCircle
 10
96.30008511929873
 20
2271.000148463893
 30
0.0
 40
1.0
100
AcDbArc
 50
0.0
 51
90.00000000000001
  0
ARC
  5
327
330
1F
100
AcDbEntity
  8
0-8_取手W
  6
Continuous
 62
     7
370
     9
100
AcDbCircle
 10
86.3000851192993
 20
2154.500148463894
 30
0.0
 40
1.0
100
AcDbArc
 50
90.0
 51
180.0
  0
LINE
  5
328
330
1F
100
AcDbEntity
  8
0-8_取手W
  6
Continuous
 62
     7
370
     9
100
AcDbLine
 10
85.30008511929935
 20
2139.000148463893
 30
0.0
 11
85.30008511929935
 21
2154.500148463894
 31
0.0
  0
ARC
  5
329
330
1F
100
AcDbEntity
  8
0-8_取手W
  6
Continuous
 62
     7
370
     9
100
AcDbCircle
 10
96.30008511929873
 20
2154.500148463894
 30
0.0
 40
1.0
100
AcDbArc
 50
0.0
 51
90.00000000000001
  0
LINE
  5
32A
330
1F
100
AcDbEntity
  8
0-8_取手W
  6
Continuous
 62
     7
370
     9
100
AcDbLine
 10
97.30008511929867
 20
2139.000148463893
 30
0.0
 11
97.30008511929867
 21
2154.500148463894
 31
0.0
  0
ARC
  5
32B
330
1F
100
AcDbEntity
  8
0-8_取手W
  6
Continuous
 62
     7
370
     9
100
AcDbCircle
 10
96.30008511929873
 20
2139.000148463893
 30
0.0
 40
1.0
100
AcDbArc
 50
270.0
 51
0.0
  0
ARC
  5
32C
330
1F
100
AcDbEntity
  8
0-8_取手W
  6
Continuous
 62
     7
370
     9
100
AcDbCircle
 10
86.3000851192993
 20
2139.000148463893
 30
0.0
 40
1.0
100
AcDbArc
 50
180.0
 51
270.0
  0
ELLIPSE
  5
32D
330
1F
100
AcDbEntity
  8
0-8_取手W
  6
Continuous
 62
     7
370
     9
100
AcDbEllipse
 10
91.30008511929901
 20
2272.000148463893
 30
0.0
 11
1.071565949253925E-15
 21
17.49999999999986
 31
0.0
210
0.0
220
0.0
230
1.0
 40
0.2857142857142857
 41
1.570796326794897
 42
3.141592653589793
  0
LINE
  5
32E
330
1F
100
AcDbEntity
  8
0-1_通り芯
  6
JWW_CENTER1
 62
   120
370
     5
100
AcDbLine
 10
174.3000851192994
 20
2282.000148463894
 30
0.0
 11
174.3000851192994
 21
2128.000148463894
 31
0.0
  0
LINE
  5
32F
330
1F
100
AcDbEntity
  8
0-1_通り芯
  6
JWW_CENTER1
 62
   120
370
     5
100
AcDbLine
 10
189.3000851192986
 20
2205.000148463894
 30
0.0
 11
159.3000851193003
 21
2205.000148463894
 31
0.0
  0
LINE
  5
330
330
1F
100
AcDbEntity
  8
0-8_取手W
  6
Continuous
 62
    92
370
    13
100
AcDbLine
 10
179.3000851192991
 20
2272.000148463893
 30
0.0
 11
169.3000851192997
 21
2272.000148463893
 31
0.0
  0
LINE
  5
331
330
1F
100
AcDbEntity
  8
0-8_取手W
  6
Continuous
 62
    92
370
    13
100
AcDbLine
 10
169.3000851192997
 20
2138.000148463893
 30
0.0
 11
179.3000851192991
 21
2138.000148463893
 31
0.0
  0
LINE
  5
332
330
1F
100
AcDbEntity
  8
0-8_取手W
  6
Continuous
 62
    92
370
    13
100
AcDbLine
 10
169.3000851192997
 20
2272.000148463893
 30
0.0
 11
169.3000851192997
 21
2138.000148463893
 31
0.0
  0
LINE
  5
333
330
1F
100
AcDbEntity
  8
0-8_取手W
  6
Continuous
 62
    92
370
    13
100
AcDbLine
 10
179.3000851192991
 20
2272.000148463893
 30
0.0
 11
179.3000851192991
 21
2138.000148463893
 31
0.0
  0
ELLIPSE
  5
334
330
1F
100
AcDbEntity
  8
0-8_取手W
  6
Continuous
 62
     7
370
     9
100
AcDbEllipse
 10
174.3000851192994
 20
2272.000148463893
 30
0.0
 11
1.071565949253925E-15
 21
17.49999999999986
 31
0.0
210
0.0
220
0.0
230
1.0
 40
0.2857142857142857
 41
3.141592653589793
 42
4.71238898038469
  0
ELLIPSE
  5
335
330
1F
100
AcDbEntity
  8
0-8_取手W
  6
Continuous
 62
     7
370
     9
100
AcDbEllipse
 10
174.3000851192994
 20
2138.000148463893
 30
0.0
 11
1.071565949253925E-15
 21
17.49999999999986
 31
0.0
210
0.0
220
0.0
230
1.0
 40
0.2857142857142857
 41
0.0
 42
1.570796326794897
  0
ELLIPSE
  5
336
330
1F
100
AcDbEntity
  8
0-8_取手W
  6
Continuous
 62
     7
370
     9
100
AcDbEllipse
 10
174.3000851192994
 20
2138.000148463893
 30
0.0
 11
1.071565949253925E-15
 21
-17.49999999999986
 31
0.0
210
0.0
220
0.0
230
1.0
 40
0.2857142857142857
 41
1.570796326794897
 42
3.141592653589793
  0
ARC
  5
337
330
1F
100
AcDbEntity
  8
0-8_取手W
  6
Continuous
 62
     7
370
     9
100
AcDbCircle
 10
169.3000851192997
 20
2271.000148463893
 30
0.0
 40
1.0
100
AcDbArc
 50
90.0
 51
180.0
  0
LINE
  5
338
330
1F
100
AcDbEntity
  8
0-8_取手W
  6
Continuous
 62
     7
370
     9
100
AcDbLine
 10
168.3000851192998
 20
2255.500148463894
 30
0.0
 11
168.3000851192998
 21
2271.000148463893
 31
0.0
  0
ARC
  5
339
330
1F
100
AcDbEntity
  8
0-8_取手W
  6
Continuous
 62
     7
370
     9
100
AcDbCircle
 10
169.3000851192997
 20
2255.500148463894
 30
0.0
 40
1.0
100
AcDbArc
 50
180.0
 51
270.0
  0
ARC
  5
33A
330
1F
100
AcDbEntity
  8
0-8_取手W
  6
Continuous
 62
     7
370
     9
100
AcDbCircle
 10
179.3000851192991
 20
2255.500148463894
 30
0.0
 40
1.0
100
AcDbArc
 50
270.0
 51
0.0
  0
LINE
  5
33B
330
1F
100
AcDbEntity
  8
0-8_取手W
  6
Continuous
 62
     7
370
     9
100
AcDbLine
 10
180.3000851192991
 20
2255.500148463894
 30
0.0
 11
180.3000851192991
 21
2271.000148463893
 31
0.0
  0
ARC
  5
33C
330
1F
100
AcDbEntity
  8
0-8_取手W
  6
Continuous
 62
     7
370
     9
100
AcDbCircle
 10
179.3000851192991
 20
2271.000148463893
 30
0.0
 40
1.0
100
AcDbArc
 50
0.0
 51
90.00000000000001
  0
ARC
  5
33D
330
1F
100
AcDbEntity
  8
0-8_取手W
  6
Continuous
 62
     7
370
     9
100
AcDbCircle
 10
169.3000851192997
 20
2154.500148463894
 30
0.0
 40
1.0
100
AcDbArc
 50
90.0
 51
180.0
  0
LINE
  5
33E
330
1F
100
AcDbEntity
  8
0-8_取手W
  6
Continuous
 62
     7
370
     9
100
AcDbLine
 10
168.3000851192998
 20
2139.000148463893
 30
0.0
 11
168.3000851192998
 21
2154.500148463894
 31
0.0
  0
ARC
  5
33F
330
1F
100
AcDbEntity
  8
0-8_取手W
  6
Continuous
 62
     7
370
     9
100
AcDbCircle
 10
179.3000851192991
 20
2154.500148463894
 30
0.0
 40
1.0
100
AcDbArc
 50
0.0
 51
90.00000000000001
  0
LINE
  5
340
330
1F
100
AcDbEntity
  8
0-8_取手W
  6
Continuous
 62
     7
370
     9
100
AcDbLine
 10
180.3000851192991
 20
2139.000148463893
 30
0.0
 11
180.3000851192991
 21
2154.500148463894
 31
0.0
  0
ARC
  5
341
330
1F
100
AcDbEntity
  8
0-8_取手W
  6
Continuous
 62
     7
370
     9
100
AcDbCircle
 10
179.3000851192991
 20
2139.000148463893
 30
0.0
 40
1.0
100
AcDbArc
 50
270.0
 51
0.0
  0
ARC
  5
342
330
1F
100
AcDbEntity
  8
0-8_取手W
  6
Continuous
 62
     7
370
     9
100
AcDbCircle
 10
169.3000851192997
 20
2139.000148463893
 30
0.0
 40
1.0
100
AcDbArc
 50
180.0
 51
270.0
  0
ELLIPSE
  5
343
330
1F
100
AcDbEntity
  8
0-8_取手W
  6
Continuous
 62
     7
370
     9
100
AcDbEllipse
 10
174.3000851192994
 20
2272.000148463893
 30
0.0
 11
1.071565949253925E-15
 21
17.49999999999986
 31
0.0
210
0.0
220
0.0
230
1.0
 40
0.2857142857142857
 41
1.570796326794897
 42
3.141592653589793
  0
LINE
  5
344
330
1F
100
AcDbEntity
  8
0-1_通り芯
  6
JWW_CENTER1
 62
   120
370
     5
100
AcDbLine
 10
2322.900212468328
 20
2282.000148463894
 30
0.0
 11
2322.900212468328
 21
2128.000148463894
 31
0.0
  0
LINE
  5
345
330
1F
100
AcDbEntity
  8
0-1_通り芯
  6
JWW_CENTER1
 62
   120
370
     5
100
AcDbLine
 10
2337.900212468327
 20
2205.000148463894
 30
0.0
 11
2307.900212468329
 21
2205.000148463894
 31
0.0
  0
LINE
  5
346
330
1F
100
AcDbEntity
  8
0-8_取手W
  6
Continuous
 62
    92
370
    13
100
AcDbLine
 10
2327.900212468327
 20
2272.000148463893
 30
0.0
 11
2317.900212468328
 21
2272.000148463893
 31
0.0
  0
LINE
  5
347
330
1F
100
AcDbEntity
  8
0-8_取手W
  6
Continuous
 62
    92
370
    13
100
AcDbLine
 10
2317.900212468328
 20
2138.000148463893
 30
0.0
 11
2327.900212468327
 21
2138.000148463893
 31
0.0
  0
LINE
  5
348
330
1F
100
AcDbEntity
  8
0-8_取手W
  6
Continuous
 62
    92
370
    13
100
AcDbLine
 10
2317.900212468328
 20
2272.000148463893
 30
0.0
 11
2317.900212468328
 21
2138.000148463893
 31
0.0
  0
LINE
  5
349
330
1F
100
AcDbEntity
  8
0-8_取手W
  6
Continuous
 62
    92
370
    13
100
AcDbLine
 10
2327.900212468327
 20
2272.000148463893
 30
0.0
 11
2327.900212468327
 21
2138.000148463893
 31
0.0
  0
ELLIPSE
  5
34A
330
1F
100
AcDbEntity
  8
0-8_取手W
  6
Continuous
 62
     7
370
     9
100
AcDbEllipse
 10
2322.900212468328
 20
2272.000148463893
 30
0.0
 11
1.071565949253925E-15
 21
17.49999999999986
 31
0.0
210
0.0
220
0.0
230
1.0
 40
0.2857142857142857
 41
3.141592653589793
 42
4.71238898038469
  0
ELLIPSE
  5
34B
330
1F
100
AcDbEntity
  8
0-8_取手W
  6
Continuous
 62
     7
370
     9
100
AcDbEllipse
 10
2322.900212468328
 20
2138.000148463893
 30
0.0
 11
1.071565949253925E-15
 21
17.49999999999986
 31
0.0
210
0.0
220
0.0
230
1.0
 40
0.2857142857142857
 41
0.0
 42
1.570796326794897
  0
ELLIPSE
  5
34C
330
1F
100
AcDbEntity
  8
0-8_取手W
  6
Continuous
 62
     7
370
     9
100
AcDbEllipse
 10
2322.900212468328
 20
2138.000148463893
 30
0.0
 11
1.071565949253925E-15
 21
-17.49999999999986
 31
0.0
210
0.0
220
0.0
230
1.0
 40
0.2857142857142857
 41
1.570796326794897
 42
3.141592653589793
  0
ARC
  5
34D
330
1F
100
AcDbEntity
  8
0-8_取手W
  6
Continuous
 62
     7
370
     9
100
AcDbCircle
 10
2317.900212468328
 20
2271.000148463893
 30
0.0
 40
1.0
100
AcDbArc
 50
90.0
 51
180.0
  0
LINE
  5
34E
330
1F
100
AcDbEntity
  8
0-8_取手W
  6
Continuous
 62
     7
370
     9
100
AcDbLine
 10
2316.900212468328
 20
2255.500148463894
 30
0.0
 11
2316.900212468328
 21
2271.000148463893
 31
0.0
  0
ARC
  5
34F
330
1F
100
AcDbEntity
  8
0-8_取手W
  6
Continuous
 62
     7
370
     9
100
AcDbCircle
 10
2317.900212468328
 20
2255.500148463894
 30
0.0
 40
1.0
100
AcDbArc
 50
180.0
 51
270.0
  0
ARC
  5
350
330
1F
100
AcDbEntity
  8
0-8_取手W
  6
Continuous
 62
     7
370
     9
100
AcDbCircle
 10
2327.900212468327
 20
2255.500148463894
 30
0.0
 40
1.0
100
AcDbArc
 50
270.0
 51
0.0
  0
LINE
  5
351
330
1F
100
AcDbEntity
  8
0-8_取手W
  6
Continuous
 62
     7
370
     9
100
AcDbLine
 10
2328.900212468327
 20
2255.500148463894
 30
0.0
 11
2328.900212468327
 21
2271.000148463893
 31
0.0
  0
ARC
  5
352
330
1F
100
AcDbEntity
  8
0-8_取手W
  6
Continuous
 62
     7
370
     9
100
AcDbCircle
 10
2327.900212468327
 20
2271.000148463893
 30
0.0
 40
1.0
100
AcDbArc
 50
0.0
 51
90.00000000000001
  0
ARC
  5
353
330
1F
100
AcDbEntity
  8
0-8_取手W
  6
Continuous
 62
     7
370
     9
100
AcDbCircle
 10
2317.900212468328
 20
2154.500148463894
 30
0.0
 40
1.0
100
AcDbArc
 50
90.0
 51
180.0
  0
LINE
  5
354
330
1F
100
AcDbEntity
  8
0-8_取手W
  6
Continuous
 62
     7
370
     9
100
AcDbLine
 10
2316.900212468328
 20
2139.000148463893
 30
0.0
 11
2316.900212468328
 21
2154.500148463894
 31
0.0
  0
ARC
  5
355
330
1F
100
AcDbEntity
  8
0-8_取手W
  6
Continuous
 62
     7
370
     9
100
AcDbCircle
 10
2327.900212468327
 20
2154.500148463894
 30
0.0
 40
1.0
100
AcDbArc
 50
0.0
 51
90.00000000000001
  0
LINE
  5
356
330
1F
100
AcDbEntity
  8
0-8_取手W
  6
Continuous
 62
     7
370
     9
100
AcDbLine
 10
2328.900212468327
 20
2139.000148463893
 30
0.0
 11
2328.900212468327
 21
2154.500148463894
 31
0.0
  0
ARC
  5
357
330
1F
100
AcDbEntity
  8
0-8_取手W
  6
Continuous
 62
     7
370
     9
100
AcDbCircle
 10
2327.900212468327
 20
2139.000148463893
 30
0.0
 40
1.0
100
AcDbArc
 50
270.0
 51
0.0
  0
ARC
  5
358
330
1F
100
AcDbEntity
  8
0-8_取手W
  6
Continuous
 62
     7
370
     9
100
AcDbCircle
 10
2317.900212468328
 20
2139.000148463893
 30
0.0
 40
1.0
100
AcDbArc
 50
180.0
 51
270.0
  0
ELLIPSE
  5
359
330
1F
100
AcDbEntity
  8
0-8_取手W
  6
Continuous
 62
     7
370
     9
100
AcDbEllipse
 10
2322.900212468328
 20
2272.000148463893
 30
0.0
 11
1.071565949253925E-15
 21
17.49999999999986
 31
0.0
210
0.0
220
0.0
230
1.0
 40
0.2857142857142857
 41
1.570796326794897
 42
3.141592653589793
  0
LINE
  5
35A
330
1F
100
AcDbEntity
  8
0-1_通り芯
  6
JWW_CENTER1
 62
   120
370
     5
100
AcDbLine
 10
2405.900212468328
 20
2282.000148463894
 30
0.0
 11
2405.900212468328
 21
2128.000148463894
 31
0.0
  0
LINE
  5
35B
330
1F
100
AcDbEntity
  8
0-1_通り芯
  6
JWW_CENTER1
 62
   120
370
     5
100
AcDbLine
 10
2420.900212468327
 20
2205.000148463894
 30
0.0
 11
2390.900212468329
 21
2205.000148463894
 31
0.0
  0
LINE
  5
35C
330
1F
100
AcDbEntity
  8
0-8_取手W
  6
Continuous
 62
    92
370
    13
100
AcDbLine
 10
2410.900212468327
 20
2272.000148463893
 30
0.0
 11
2400.900212468328
 21
2272.000148463893
 31
0.0
  0
LINE
  5
35D
330
1F
100
AcDbEntity
  8
0-8_取手W
  6
Continuous
 62
    92
370
    13
100
AcDbLine
 10
2400.900212468328
 20
2138.000148463893
 30
0.0
 11
2410.900212468327
 21
2138.000148463893
 31
0.0
  0
LINE
  5
35E
330
1F
100
AcDbEntity
  8
0-8_取手W
  6
Continuous
 62
    92
370
    13
100
AcDbLine
 10
2400.900212468328
 20
2272.000148463893
 30
0.0
 11
2400.900212468328
 21
2138.000148463893
 31
0.0
  0
LINE
  5
35F
330
1F
100
AcDbEntity
  8
0-8_取手W
  6
Continuous
 62
    92
370
    13
100
AcDbLine
 10
2410.900212468327
 20
2272.000148463893
 30
0.0
 11
2410.900212468327
 21
2138.000148463893
 31
0.0
  0
ELLIPSE
  5
360
330
1F
100
AcDbEntity
  8
0-8_取手W
  6
Continuous
 62
     7
370
     9
100
AcDbEllipse
 10
2405.900212468328
 20
2272.000148463893
 30
0.0
 11
1.071565949253925E-15
 21
17.49999999999986
 31
0.0
210
0.0
220
0.0
230
1.0
 40
0.2857142857142857
 41
3.141592653589793
 42
4.71238898038469
  0
ELLIPSE
  5
361
330
1F
100
AcDbEntity
  8
0-8_取手W
  6
Continuous
 62
     7
370
     9
100
AcDbEllipse
 10
2405.900212468328
 20
2138.000148463893
 30
0.0
 11
1.071565949253925E-15
 21
17.49999999999986
 31
0.0
210
0.0
220
0.0
230
1.0
 40
0.2857142857142857
 41
0.0
 42
1.570796326794897
  0
ELLIPSE
  5
362
330
1F
100
AcDbEntity
  8
0-8_取手W
  6
Continuous
 62
     7
370
     9
100
AcDbEllipse
 10
2405.900212468328
 20
2138.000148463893
 30
0.0
 11
1.071565949253925E-15
 21
-17.49999999999986
 31
0.0
210
0.0
220
0.0
230
1.0
 40
0.2857142857142857
 41
1.570796326794897
 42
3.141592653589793
  0
ARC
  5
363
330
1F
100
AcDbEntity
  8
0-8_取手W
  6
Continuous
 62
     7
370
     9
100
AcDbCircle
 10
2400.900212468328
 20
2271.000148463893
 30
0.0
 40
1.0
100
AcDbArc
 50
90.0
 51
180.0
  0
LINE
  5
364
330
1F
100
AcDbEntity
  8
0-8_取手W
  6
Continuous
 62
     7
370
     9
100
AcDbLine
 10
2399.900212468329
 20
2255.500148463894
 30
0.0
 11
2399.900212468329
 21
2271.000148463893
 31
0.0
  0
ARC
  5
365
330
1F
100
AcDbEntity
  8
0-8_取手W
  6
Continuous
 62
     7
370
     9
100
AcDbCircle
 10
2400.900212468328
 20
2255.500148463894
 30
0.0
 40
1.0
100
AcDbArc
 50
180.0
 51
270.0
  0
ARC
  5
366
330
1F
100
AcDbEntity
  8
0-8_取手W
  6
Continuous
 62
     7
370
     9
100
AcDbCircle
 10
2410.900212468327
 20
2255.500148463894
 30
0.0
 40
1.0
100
AcDbArc
 50
270.0
 51
0.0
  0
LINE
  5
367
330
1F
100
AcDbEntity
  8
0-8_取手W
  6
Continuous
 62
     7
370
     9
100
AcDbLine
 10
2411.900212468328
 20
2255.500148463894
 30
0.0
 11
2411.900212468328
 21
2271.000148463893
 31
0.0
  0
ARC
  5
368
330
1F
100
AcDbEntity
  8
0-8_取手W
  6
Continuous
 62
     7
370
     9
100
AcDbCircle
 10
2410.900212468327
 20
2271.000148463893
 30
0.0
 40
1.0
100
AcDbArc
 50
0.0
 51
90.00000000000001
  0
ARC
  5
369
330
1F
100
AcDbEntity
  8
0-8_取手W
  6
Continuous
 62
     7
370
     9
100
AcDbCircle
 10
2400.900212468328
 20
2154.500148463894
 30
0.0
 40
1.0
100
AcDbArc
 50
90.0
 51
180.0
  0
LINE
  5
36A
330
1F
100
AcDbEntity
  8
0-8_取手W
  6
Continuous
 62
     7
370
     9
100
AcDbLine
 10
2399.900212468329
 20
2139.000148463893
 30
0.0
 11
2399.900212468329
 21
2154.500148463894
 31
0.0
  0
ARC
  5
36B
330
1F
100
AcDbEntity
  8
0-8_取手W
  6
Continuous
 62
     7
370
     9
100
AcDbCircle
 10
2410.900212468327
 20
2154.500148463894
 30
0.0
 40
1.0
100
AcDbArc
 50
0.0
 51
90.00000000000001
  0
LINE
  5
36C
330
1F
100
AcDbEntity
  8
0-8_取手W
  6
Continuous
 62
     7
370
     9
100
AcDbLine
 10
2411.900212468328
 20
2139.000148463893
 30
0.0
 11
2411.900212468328
 21
2154.500148463894
 31
0.0
  0
ARC
  5
36D
330
1F
100
AcDbEntity
  8
0-8_取手W
  6
Continuous
 62
     7
370
     9
100
AcDbCircle
 10
2410.900212468327
 20
2139.000148463893
 30
0.0
 40
1.0
100
AcDbArc
 50
270.0
 51
0.0
  0
ARC
  5
36E
330
1F
100
AcDbEntity
  8
0-8_取手W
  6
Continuous
 62
     7
370
     9
100
AcDbCircle
 10
2400.900212468328
 20
2139.000148463893
 30
0.0
 40
1.0
100
AcDbArc
 50
180.0
 51
270.0
  0
ELLIPSE
  5
36F
330
1F
100
AcDbEntity
  8
0-8_取手W
  6
Continuous
 62
     7
370
     9
100
AcDbEllipse
 10
2405.900212468328
 20
2272.000148463893
 30
0.0
 11
1.071565949253925E-15
 21
17.49999999999986
 31
0.0
210
0.0
220
0.0
230
1.0
 40
0.2857142857142857
 41
1.570796326794897
 42
3.141592653589793
  0
LINE
  5
370
330
1F
100
AcDbEntity
  8
0-1_通り芯
  6
JWW_CENTER1
 62
   120
370
     5
100
AcDbLine
 10
4554.500339817358
 20
2282.000148463894
 30
0.0
 11
4554.500339817358
 21
2128.000148463894
 31
0.0
  0
LINE
  5
371
330
1F
100
AcDbEntity
  8
0-1_通り芯
  6
JWW_CENTER1
 62
   120
370
     5
100
AcDbLine
 10
4569.500339817357
 20
2205.000148463894
 30
0.0
 11
4539.500339817359
 21
2205.000148463894
 31
0.0
  0
LINE
  5
372
330
1F
100
AcDbEntity
  8
0-8_取手W
  6
Continuous
 62
    92
370
    13
100
AcDbLine
 10
4559.500339817357
 20
2272.000148463893
 30
0.0
 11
4549.500339817358
 21
2272.000148463893
 31
0.0
  0
LINE
  5
373
330
1F
100
AcDbEntity
  8
0-8_取手W
  6
Continuous
 62
    92
370
    13
100
AcDbLine
 10
4549.500339817358
 20
2138.000148463893
 30
0.0
 11
4559.500339817357
 21
2138.000148463893
 31
0.0
  0
LINE
  5
374
330
1F
100
AcDbEntity
  8
0-8_取手W
  6
Continuous
 62
    92
370
    13
100
AcDbLine
 10
4549.500339817358
 20
2272.000148463893
 30
0.0
 11
4549.500339817358
 21
2138.000148463893
 31
0.0
  0
LINE
  5
375
330
1F
100
AcDbEntity
  8
0-8_取手W
  6
Continuous
 62
    92
370
    13
100
AcDbLine
 10
4559.500339817357
 20
2272.000148463893
 30
0.0
 11
4559.500339817357
 21
2138.000148463893
 31
0.0
  0
ELLIPSE
  5
376
330
1F
100
AcDbEntity
  8
0-8_取手W
  6
Continuous
 62
     7
370
     9
100
AcDbEllipse
 10
4554.500339817358
 20
2272.000148463893
 30
0.0
 11
1.071565949253925E-15
 21
17.49999999999986
 31
0.0
210
0.0
220
0.0
230
1.0
 40
0.2857142857142857
 41
3.141592653589793
 42
4.71238898038469
  0
ELLIPSE
  5
377
330
1F
100
AcDbEntity
  8
0-8_取手W
  6
Continuous
 62
     7
370
     9
100
AcDbEllipse
 10
4554.500339817358
 20
2138.000148463893
 30
0.0
 11
1.071565949253925E-15
 21
17.49999999999986
 31
0.0
210
0.0
220
0.0
230
1.0
 40
0.2857142857142857
 41
0.0
 42
1.570796326794897
  0
ELLIPSE
  5
378
330
1F
100
AcDbEntity
  8
0-8_取手W
  6
Continuous
 62
     7
370
     9
100
AcDbEllipse
 10
4554.500339817358
 20
2138.000148463893
 30
0.0
 11
1.071565949253925E-15
 21
-17.49999999999986
 31
0.0
210
0.0
220
0.0
230
1.0
 40
0.2857142857142857
 41
1.570796326794897
 42
3.141592653589793
  0
ARC
  5
379
330
1F
100
AcDbEntity
  8
0-8_取手W
  6
Continuous
 62
     7
370
     9
100
AcDbCircle
 10
4549.500339817358
 20
2271.000148463893
 30
0.0
 40
1.0
100
AcDbArc
 50
90.0
 51
180.0
  0
LINE
  5
37A
330
1F
100
AcDbEntity
  8
0-8_取手W
  6
Continuous
 62
     7
370
     9
100
AcDbLine
 10
4548.500339817358
 20
2255.500148463894
 30
0.0
 11
4548.500339817358
 21
2271.000148463893
 31
0.0
  0
ARC
  5
37B
330
1F
100
AcDbEntity
  8
0-8_取手W
  6
Continuous
 62
     7
370
     9
100
AcDbCircle
 10
4549.500339817358
 20
2255.500148463894
 30
0.0
 40
1.0
100
AcDbArc
 50
180.0
 51
270.0
  0
ARC
  5
37C
330
1F
100
AcDbEntity
  8
0-8_取手W
  6
Continuous
 62
     7
370
     9
100
AcDbCircle
 10
4559.500339817357
 20
2255.500148463894
 30
0.0
 40
1.0
100
AcDbArc
 50
270.0
 51
0.0
  0
LINE
  5
37D
330
1F
100
AcDbEntity
  8
0-8_取手W
  6
Continuous
 62
     7
370
     9
100
AcDbLine
 10
4560.500339817358
 20
2255.500148463894
 30
0.0
 11
4560.500339817358
 21
2271.000148463893
 31
0.0
  0
ARC
  5
37E
330
1F
100
AcDbEntity
  8
0-8_取手W
  6
Continuous
 62
     7
370
     9
100
AcDbCircle
 10
4559.500339817357
 20
2271.000148463893
 30
0.0
 40
1.0
100
AcDbArc
 50
0.0
 51
90.00000000000001
  0
ARC
  5
37F
330
1F
100
AcDbEntity
  8
0-8_取手W
  6
Continuous
 62
     7
370
     9
100
AcDbCircle
 10
4549.500339817358
 20
2154.500148463894
 30
0.0
 40
1.0
100
AcDbArc
 50
90.0
 51
180.0
  0
LINE
  5
380
330
1F
100
AcDbEntity
  8
0-8_取手W
  6
Continuous
 62
     7
370
     9
100
AcDbLine
 10
4548.500339817358
 20
2139.000148463893
 30
0.0
 11
4548.500339817358
 21
2154.500148463894
 31
0.0
  0
ARC
  5
381
330
1F
100
AcDbEntity
  8
0-8_取手W
  6
Continuous
 62
     7
370
     9
100
AcDbCircle
 10
4559.500339817357
 20
2154.500148463894
 30
0.0
 40
1.0
100
AcDbArc
 50
0.0
 51
90.00000000000001
  0
LINE
  5
382
330
1F
100
AcDbEntity
  8
0-8_取手W
  6
Continuous
 62
     7
370
     9
100
AcDbLine
 10
4560.500339817358
 20
2139.000148463893
 30
0.0
 11
4560.500339817358
 21
2154.500148463894
 31
0.0
  0
ARC
  5
383
330
1F
100
AcDbEntity
  8
0-8_取手W
  6
Continuous
 62
     7
370
     9
100
AcDbCircle
 10
4559.500339817357
 20
2139.000148463893
 30
0.0
 40
1.0
100
AcDbArc
 50
270.0
 51
0.0
  0
ARC
  5
384
330
1F
100
AcDbEntity
  8
0-8_取手W
  6
Continuous
 62
     7
370
     9
100
AcDbCircle
 10
4549.500339817358
 20
2139.000148463893
 30
0.0
 40
1.0
100
AcDbArc
 50
180.0
 51
270.0
  0
ELLIPSE
  5
385
330
1F
100
AcDbEntity
  8
0-8_取手W
  6
Continuous
 62
     7
370
     9
100
AcDbEllipse
 10
4554.500339817358
 20
2272.000148463893
 30
0.0
 11
1.071565949253925E-15
 21
17.49999999999986
 31
0.0
210
0.0
220
0.0
230
1.0
 40
0.2857142857142857
 41
1.570796326794897
 42
3.141592653589793
  0
LINE
  5
386
330
1F
100
AcDbEntity
  8
0-1_通り芯
  6
JWW_CENTER1
 62
   120
370
     5
100
AcDbLine
 10
4637.500339817359
 20
2282.000148463894
 30
0.0
 11
4637.500339817359
 21
2128.000148463894
 31
0.0
  0
LINE
  5
387
330
1F
100
AcDbEntity
  8
0-1_通り芯
  6
JWW_CENTER1
 62
   120
370
     5
100
AcDbLine
 10
4652.500339817358
 20
2205.000148463894
 30
0.0
 11
4622.500339817359
 21
2205.000148463894
 31
0.0
  0
LINE
  5
388
330
1F
100
AcDbEntity
  8
0-8_取手W
  6
Continuous
 62
    92
370
    13
100
AcDbLine
 10
4642.500339817358
 20
2272.000148463893
 30
0.0
 11
4632.500339817359
 21
2272.000148463893
 31
0.0
  0
LINE
  5
389
330
1F
100
AcDbEntity
  8
0-8_取手W
  6
Continuous
 62
    92
370
    13
100
AcDbLine
 10
4632.500339817359
 20
2138.000148463893
 30
0.0
 11
4642.500339817358
 21
2138.000148463893
 31
0.0
  0
LINE
  5
38A
330
1F
100
AcDbEntity
  8
0-8_取手W
  6
Continuous
 62
    92
370
    13
100
AcDbLine
 10
4632.500339817359
 20
2272.000148463893
 30
0.0
 11
4632.500339817359
 21
2138.000148463893
 31
0.0
  0
LINE
  5
38B
330
1F
100
AcDbEntity
  8
0-8_取手W
  6
Continuous
 62
    92
370
    13
100
AcDbLine
 10
4642.500339817358
 20
2272.000148463893
 30
0.0
 11
4642.500339817358
 21
2138.000148463893
 31
0.0
  0
ELLIPSE
  5
38C
330
1F
100
AcDbEntity
  8
0-8_取手W
  6
Continuous
 62
     7
370
     9
100
AcDbEllipse
 10
4637.500339817359
 20
2272.000148463893
 30
0.0
 11
1.071565949253925E-15
 21
17.49999999999986
 31
0.0
210
0.0
220
0.0
230
1.0
 40
0.2857142857142857
 41
3.141592653589793
 42
4.71238898038469
  0
ELLIPSE
  5
38D
330
1F
100
AcDbEntity
  8
0-8_取手W
  6
Continuous
 62
     7
370
     9
100
AcDbEllipse
 10
4637.500339817359
 20
2138.000148463893
 30
0.0
 11
1.071565949253925E-15
 21
17.49999999999986
 31
0.0
210
0.0
220
0.0
230
1.0
 40
0.2857142857142857
 41
0.0
 42
1.570796326794897
  0
ELLIPSE
  5
38E
330
1F
100
AcDbEntity
  8
0-8_取手W
  6
Continuous
 62
     7
370
     9
100
AcDbEllipse
 10
4637.500339817359
 20
2138.000148463893
 30
0.0
 11
1.071565949253925E-15
 21
-17.49999999999986
 31
0.0
210
0.0
220
0.0
230
1.0
 40
0.2857142857142857
 41
1.570796326794897
 42
3.141592653589793
  0
ARC
  5
38F
330
1F
100
AcDbEntity
  8
0-8_取手W
  6
Continuous
 62
     7
370
     9
100
AcDbCircle
 10
4632.500339817359
 20
2271.000148463893
 30
0.0
 40
1.0
100
AcDbArc
 50
90.0
 51
180.0
  0
LINE
  5
390
330
1F
100
AcDbEntity
  8
0-8_取手W
  6
Continuous
 62
     7
370
     9
100
AcDbLine
 10
4631.500339817359
 20
2255.500148463894
 30
0.0
 11
4631.500339817359
 21
2271.000148463893
 31
0.0
  0
ARC
  5
391
330
1F
100
AcDbEntity
  8
0-8_取手W
  6
Continuous
 62
     7
370
     9
100
AcDbCircle
 10
4632.500339817359
 20
2255.500148463894
 30
0.0
 40
1.0
100
AcDbArc
 50
180.0
 51
270.0
  0
ARC
  5
392
330
1F
100
AcDbEntity
  8
0-8_取手W
  6
Continuous
 62
     7
370
     9
100
AcDbCircle
 10
4642.500339817358
 20
2255.500148463894
 30
0.0
 40
1.0
100
AcDbArc
 50
270.0
 51
0.0
  0
LINE
  5
393
330
1F
100
AcDbEntity
  8
0-8_取手W
  6
Continuous
 62
     7
370
     9
100
AcDbLine
 10
4643.500339817358
 20
2255.500148463894
 30
0.0
 11
4643.500339817358
 21
2271.000148463893
 31
0.0
  0
ARC
  5
394
330
1F
100
AcDbEntity
  8
0-8_取手W
  6
Continuous
 62
     7
370
     9
100
AcDbCircle
 10
4642.500339817358
 20
2271.000148463893
 30
0.0
 40
1.0
100
AcDbArc
 50
0.0
 51
90.00000000000001
  0
ARC
  5
395
330
1F
100
AcDbEntity
  8
0-8_取手W
  6
Continuous
 62
     7
370
     9
100
AcDbCircle
 10
4632.500339817359
 20
2154.500148463894
 30
0.0
 40
1.0
100
AcDbArc
 50
90.0
 51
180.0
  0
LINE
  5
396
330
1F
100
AcDbEntity
  8
0-8_取手W
  6
Continuous
 62
     7
370
     9
100
AcDbLine
 10
4631.500339817359
 20
2139.000148463893
 30
0.0
 11
4631.500339817359
 21
2154.500148463894
 31
0.0
  0
ARC
  5
397
330
1F
100
AcDbEntity
  8
0-8_取手W
  6
Continuous
 62
     7
370
     9
100
AcDbCircle
 10
4642.500339817358
 20
2154.500148463894
 30
0.0
 40
1.0
100
AcDbArc
 50
0.0
 51
90.00000000000001
  0
LINE
  5
398
330
1F
100
AcDbEntity
  8
0-8_取手W
  6
Continuous
 62
     7
370
     9
100
AcDbLine
 10
4643.500339817358
 20
2139.000148463893
 30
0.0
 11
4643.500339817358
 21
2154.500148463894
 31
0.0
  0
ARC
  5
399
330
1F
100
AcDbEntity
  8
0-8_取手W
  6
Continuous
 62
     7
370
     9
100
AcDbCircle
 10
4642.500339817358
 20
2139.000148463893
 30
0.0
 40
1.0
100
AcDbArc
 50
270.0
 51
0.0
  0
ARC
  5
39A
330
1F
100
AcDbEntity
  8
0-8_取手W
  6
Continuous
 62
     7
370
     9
100
AcDbCircle
 10
4632.500339817359
 20
2139.000148463893
 30
0.0
 40
1.0
100
AcDbArc
 50
180.0
 51
270.0
  0
ELLIPSE
  5
39B
330
1F
100
AcDbEntity
  8
0-8_取手W
  6
Continuous
 62
     7
370
     9
100
AcDbEllipse
 10
4637.500339817359
 20
2272.000148463893
 30
0.0
 11
1.071565949253925E-15
 21
17.49999999999986
 31
0.0
210
0.0
220
0.0
230
1.0
 40
0.2857142857142857
 41
1.570796326794897
 42
3.141592653589793
  0
ARC
  5
39C
330
1F
100
AcDbEntity
  8
0-7_取手GEK
  6
Continuous
 62
    92
370
    13
100
AcDbCircle
 10
87.30008511930009
 20
2270.000148463892
 30
0.0
 40
1.0
100
AcDbArc
 50
90.0
 51
180.0
  0
LINE
  5
39D
330
1F
100
AcDbEntity
  8
0-7_取手GEK
  6
Continuous
 62
    92
370
    13
100
AcDbLine
 10
95.30008511929793
 20
2271.000148463894
 30
0.0
 11
87.30008511930009
 21
2271.000148463894
 31
0.0
  0
ARC
  5
39E
330
1F
100
AcDbEntity
  8
0-7_取手GEK
  6
Continuous
 62
    92
370
    13
100
AcDbCircle
 10
95.30008511929793
 20
2270.000148463892
 30
0.0
 40
1.0
100
AcDbArc
 50
0.0
 51
90.00000000000001
  0
LINE
  5
39F
330
1F
100
AcDbEntity
  8
0-7_取手GEK
  6
Continuous
 62
    92
370
    13
100
AcDbLine
 10
96.30008511929873
 20
2138.000148463894
 30
0.0
 11
96.30008511929873
 21
2270.000148463892
 31
0.0
  0
ARC
  5
3A0
330
1F
100
AcDbEntity
  8
0-7_取手GEK
  6
Continuous
 62
    92
370
    13
100
AcDbCircle
 10
95.30008511929793
 20
2138.000148463894
 30
0.0
 40
1.0
100
AcDbArc
 50
270.0
 51
0.0
  0
LINE
  5
3A1
330
1F
100
AcDbEntity
  8
0-7_取手GEK
  6
Continuous
 62
    92
370
    13
100
AcDbLine
 10
87.30008511930009
 20
2137.000148463893
 30
0.0
 11
95.30008511929793
 21
2137.000148463893
 31
0.0
  0
LINE
  5
3A2
330
1F
100
AcDbEntity
  8
0-7_取手GEK
  6
Continuous
 62
    92
370
    13
100
AcDbLine
 10
86.3000851192993
 20
2138.000148463894
 30
0.0
 11
86.3000851192993
 21
2270.000148463892
 31
0.0
  0
ARC
  5
3A3
330
1F
100
AcDbEntity
  8
0-7_取手GEK
  6
Continuous
 62
    92
370
    13
100
AcDbCircle
 10
87.30008511930009
 20
2138.000148463894
 30
0.0
 40
1.0
100
AcDbArc
 50
180.0
 51
270.0
  0
ARC
  5
3A4
330
1F
100
AcDbEntity
  8
0-7_取手GEK
  6
Continuous
 62
     7
370
     9
100
AcDbCircle
 10
86.3000851192993
 20
2268.000148463893
 30
0.0
 40
1.0
100
AcDbArc
 50
90.0
 51
180.0
  0
ARC
  5
3A5
330
1F
100
AcDbEntity
  8
0-7_取手GEK
  6
Continuous
 62
     7
370
     9
100
AcDbCircle
 10
96.30008511929873
 20
2268.000148463893
 30
0.0
 40
1.0
100
AcDbArc
 50
0.0
 51
90.00000000000001
  0
LINE
  5
3A6
330
1F
100
AcDbEntity
  8
0-7_取手GEK
  6
Continuous
 62
     7
370
     9
100
AcDbLine
 10
97.30008511929952
 20
2250.000148463893
 30
0.0
 11
97.30008511929952
 21
2268.000148463893
 31
0.0
  0
ARC
  5
3A7
330
1F
100
AcDbEntity
  8
0-7_取手GEK
  6
Continuous
 62
     7
370
     9
100
AcDbCircle
 10
96.30008511929873
 20
2250.000148463893
 30
0.0
 40
1.0
100
AcDbArc
 50
270.0
 51
0.0
  0
LINE
  5
3A8
330
1F
100
AcDbEntity
  8
0-7_取手GEK
  6
Continuous
 62
     7
370
     9
100
AcDbLine
 10
85.3000851192985
 20
2250.000148463893
 30
0.0
 11
85.3000851192985
 21
2268.000148463893
 31
0.0
  0
ARC
  5
3A9
330
1F
100
AcDbEntity
  8
0-7_取手GEK
  6
Continuous
 62
     7
370
     9
100
AcDbCircle
 10
86.3000851192993
 20
2250.000148463893
 30
0.0
 40
1.0
100
AcDbArc
 50
180.0
 51
270.0
  0
ARC
  5
3AA
330
1F
100
AcDbEntity
  8
0-7_取手GEK
  6
Continuous
 62
     7
370
     9
100
AcDbCircle
 10
86.3000851192993
 20
2158.000148463893
 30
0.0
 40
1.0
100
AcDbArc
 50
90.0
 51
180.0
  0
ARC
  5
3AB
330
1F
100
AcDbEntity
  8
0-7_取手GEK
  6
Continuous
 62
     7
370
     9
100
AcDbCircle
 10
96.30008511929873
 20
2158.000148463893
 30
0.0
 40
1.0
100
AcDbArc
 50
0.0
 51
90.00000000000001
  0
LINE
  5
3AC
330
1F
100
AcDbEntity
  8
0-7_取手GEK
  6
Continuous
 62
     7
370
     9
100
AcDbLine
 10
97.30008511929952
 20
2140.000148463894
 30
0.0
 11
97.30008511929952
 21
2158.000148463893
 31
0.0
  0
ARC
  5
3AD
330
1F
100
AcDbEntity
  8
0-7_取手GEK
  6
Continuous
 62
     7
370
     9
100
AcDbCircle
 10
96.30008511929873
 20
2140.000148463894
 30
0.0
 40
1.0
100
AcDbArc
 50
270.0
 51
0.0
  0
LINE
  5
3AE
330
1F
100
AcDbEntity
  8
0-7_取手GEK
  6
Continuous
 62
     7
370
     9
100
AcDbLine
 10
85.3000851192985
 20
2140.000148463894
 30
0.0
 11
85.3000851192985
 21
2158.000148463893
 31
0.0
  0
ARC
  5
3AF
330
1F
100
AcDbEntity
  8
0-7_取手GEK
  6
Continuous
 62
     7
370
     9
100
AcDbCircle
 10
86.3000851192993
 20
2140.000148463894
 30
0.0
 40
1.0
100
AcDbArc
 50
180.0
 51
270.0
  0
ARC
  5
3B0
330
1F
100
AcDbEntity
  8
0-7_取手GEK
  6
Continuous
 62
    92
370
    13
100
AcDbCircle
 10
170.3000851193005
 20
2270.000148463892
 30
0.0
 40
1.0
100
AcDbArc
 50
90.0
 51
180.0
  0
LINE
  5
3B1
330
1F
100
AcDbEntity
  8
0-7_取手GEK
  6
Continuous
 62
    92
370
    13
100
AcDbLine
 10
178.3000851192983
 20
2271.000148463894
 30
0.0
 11
170.3000851193005
 21
2271.000148463894
 31
0.0
  0
ARC
  5
3B2
330
1F
100
AcDbEntity
  8
0-7_取手GEK
  6
Continuous
 62
    92
370
    13
100
AcDbCircle
 10
178.3000851192983
 20
2270.000148463892
 30
0.0
 40
1.0
100
AcDbArc
 50
0.0
 51
90.00000000000001
  0
LINE
  5
3B3
330
1F
100
AcDbEntity
  8
0-7_取手GEK
  6
Continuous
 62
    92
370
    13
100
AcDbLine
 10
179.3000851192991
 20
2138.000148463894
 30
0.0
 11
179.3000851192991
 21
2270.000148463892
 31
0.0
  0
ARC
  5
3B4
330
1F
100
AcDbEntity
  8
0-7_取手GEK
  6
Continuous
 62
    92
370
    13
100
AcDbCircle
 10
178.3000851192983
 20
2138.000148463894
 30
0.0
 40
1.0
100
AcDbArc
 50
270.0
 51
0.0
  0
LINE
  5
3B5
330
1F
100
AcDbEntity
  8
0-7_取手GEK
  6
Continuous
 62
    92
370
    13
100
AcDbLine
 10
170.3000851193005
 20
2137.000148463893
 30
0.0
 11
178.3000851192983
 21
2137.000148463893
 31
0.0
  0
LINE
  5
3B6
330
1F
100
AcDbEntity
  8
0-7_取手GEK
  6
Continuous
 62
    92
370
    13
100
AcDbLine
 10
169.3000851192997
 20
2138.000148463894
 30
0.0
 11
169.3000851192997
 21
2270.000148463892
 31
0.0
  0
ARC
  5
3B7
330
1F
100
AcDbEntity
  8
0-7_取手GEK
  6
Continuous
 62
    92
370
    13
100
AcDbCircle
 10
170.3000851193005
 20
2138.000148463894
 30
0.0
 40
1.0
100
AcDbArc
 50
180.0
 51
270.0
  0
ARC
  5
3B8
330
1F
100
AcDbEntity
  8
0-7_取手GEK
  6
Continuous
 62
     7
370
     9
100
AcDbCircle
 10
169.3000851192997
 20
2268.000148463893
 30
0.0
 40
1.0
100
AcDbArc
 50
90.0
 51
180.0
  0
ARC
  5
3B9
330
1F
100
AcDbEntity
  8
0-7_取手GEK
  6
Continuous
 62
     7
370
     9
100
AcDbCircle
 10
179.3000851192991
 20
2268.000148463893
 30
0.0
 40
1.0
100
AcDbArc
 50
0.0
 51
90.00000000000001
  0
LINE
  5
3BA
330
1F
100
AcDbEntity
  8
0-7_取手GEK
  6
Continuous
 62
     7
370
     9
100
AcDbLine
 10
180.3000851192999
 20
2250.000148463893
 30
0.0
 11
180.3000851192999
 21
2268.000148463893
 31
0.0
  0
ARC
  5
3BB
330
1F
100
AcDbEntity
  8
0-7_取手GEK
  6
Continuous
 62
     7
370
     9
100
AcDbCircle
 10
179.3000851192991
 20
2250.000148463893
 30
0.0
 40
1.0
100
AcDbArc
 50
270.0
 51
0.0
  0
LINE
  5
3BC
330
1F
100
AcDbEntity
  8
0-7_取手GEK
  6
Continuous
 62
     7
370
     9
100
AcDbLine
 10
168.3000851192989
 20
2250.000148463893
 30
0.0
 11
168.3000851192989
 21
2268.000148463893
 31
0.0
  0
ARC
  5
3BD
330
1F
100
AcDbEntity
  8
0-7_取手GEK
  6
Continuous
 62
     7
370
     9
100
AcDbCircle
 10
169.3000851192997
 20
2250.000148463893
 30
0.0
 40
1.0
100
AcDbArc
 50
180.0
 51
270.0
  0
ARC
  5
3BE
330
1F
100
AcDbEntity
  8
0-7_取手GEK
  6
Continuous
 62
     7
370
     9
100
AcDbCircle
 10
169.3000851192997
 20
2158.000148463893
 30
0.0
 40
1.0
100
AcDbArc
 50
90.0
 51
180.0
  0
ARC
  5
3BF
330
1F
100
AcDbEntity
  8
0-7_取手GEK
  6
Continuous
 62
     7
370
     9
100
AcDbCircle
 10
179.3000851192991
 20
2158.000148463893
 30
0.0
 40
1.0
100
AcDbArc
 50
0.0
 51
90.00000000000001
  0
LINE
  5
3C0
330
1F
100
AcDbEntity
  8
0-7_取手GEK
  6
Continuous
 62
     7
370
     9
100
AcDbLine
 10
180.3000851192999
 20
2140.000148463894
 30
0.0
 11
180.3000851192999
 21
2158.000148463893
 31
0.0
  0
ARC
  5
3C1
330
1F
100
AcDbEntity
  8
0-7_取手GEK
  6
Continuous
 62
     7
370
     9
100
AcDbCircle
 10
179.3000851192991
 20
2140.000148463894
 30
0.0
 40
1.0
100
AcDbArc
 50
270.0
 51
0.0
  0
LINE
  5
3C2
330
1F
100
AcDbEntity
  8
0-7_取手GEK
  6
Continuous
 62
     7
370
     9
100
AcDbLine
 10
168.3000851192989
 20
2140.000148463894
 30
0.0
 11
168.3000851192989
 21
2158.000148463893
 31
0.0
  0
ARC
  5
3C3
330
1F
100
AcDbEntity
  8
0-7_取手GEK
  6
Continuous
 62
     7
370
     9
100
AcDbCircle
 10
169.3000851192997
 20
2140.000148463894
 30
0.0
 40
1.0
100
AcDbArc
 50
180.0
 51
270.0
  0
ARC
  5
3C4
330
1F
100
AcDbEntity
  8
0-7_取手GEK
  6
Continuous
 62
    92
370
    13
100
AcDbCircle
 10
2318.900212468329
 20
2270.000148463892
 30
0.0
 40
1.0
100
AcDbArc
 50
90.0
 51
180.0
  0
LINE
  5
3C5
330
1F
100
AcDbEntity
  8
0-7_取手GEK
  6
Continuous
 62
    92
370
    13
100
AcDbLine
 10
2326.900212468327
 20
2271.000148463894
 30
0.0
 11
2318.900212468329
 21
2271.000148463894
 31
0.0
  0
ARC
  5
3C6
330
1F
100
AcDbEntity
  8
0-7_取手GEK
  6
Continuous
 62
    92
370
    13
100
AcDbCircle
 10
2326.900212468327
 20
2270.000148463892
 30
0.0
 40
1.0
100
AcDbArc
 50
0.0
 51
90.00000000000001
  0
LINE
  5
3C7
330
1F
100
AcDbEntity
  8
0-7_取手GEK
  6
Continuous
 62
    92
370
    13
100
AcDbLine
 10
2327.900212468327
 20
2138.000148463894
 30
0.0
 11
2327.900212468327
 21
2270.000148463892
 31
0.0
  0
ARC
  5
3C8
330
1F
100
AcDbEntity
  8
0-7_取手GEK
  6
Continuous
 62
    92
370
    13
100
AcDbCircle
 10
2326.900212468327
 20
2138.000148463894
 30
0.0
 40
1.0
100
AcDbArc
 50
270.0
 51
0.0
  0
LINE
  5
3C9
330
1F
100
AcDbEntity
  8
0-7_取手GEK
  6
Continuous
 62
    92
370
    13
100
AcDbLine
 10
2318.900212468329
 20
2137.000148463893
 30
0.0
 11
2326.900212468327
 21
2137.000148463893
 31
0.0
  0
LINE
  5
3CA
330
1F
100
AcDbEntity
  8
0-7_取手GEK
  6
Continuous
 62
    92
370
    13
100
AcDbLine
 10
2317.900212468328
 20
2138.000148463894
 30
0.0
 11
2317.900212468328
 21
2270.000148463892
 31
0.0
  0
ARC
  5
3CB
330
1F
100
AcDbEntity
  8
0-7_取手GEK
  6
Continuous
 62
    92
370
    13
100
AcDbCircle
 10
2318.900212468329
 20
2138.000148463894
 30
0.0
 40
1.0
100
AcDbArc
 50
180.0
 51
270.0
  0
ARC
  5
3CC
330
1F
100
AcDbEntity
  8
0-7_取手GEK
  6
Continuous
 62
     7
370
     9
100
AcDbCircle
 10
2317.900212468328
 20
2268.000148463893
 30
0.0
 40
1.0
100
AcDbArc
 50
90.0
 51
180.0
  0
ARC
  5
3CD
330
1F
100
AcDbEntity
  8
0-7_取手GEK
  6
Continuous
 62
     7
370
     9
100
AcDbCircle
 10
2327.900212468327
 20
2268.000148463893
 30
0.0
 40
1.0
100
AcDbArc
 50
0.0
 51
90.00000000000001
  0
LINE
  5
3CE
330
1F
100
AcDbEntity
  8
0-7_取手GEK
  6
Continuous
 62
     7
370
     9
100
AcDbLine
 10
2328.900212468328
 20
2250.000148463893
 30
0.0
 11
2328.900212468328
 21
2268.000148463893
 31
0.0
  0
ARC
  5
3CF
330
1F
100
AcDbEntity
  8
0-7_取手GEK
  6
Continuous
 62
     7
370
     9
100
AcDbCircle
 10
2327.900212468327
 20
2250.000148463893
 30
0.0
 40
1.0
100
AcDbArc
 50
270.0
 51
0.0
  0
LINE
  5
3D0
330
1F
100
AcDbEntity
  8
0-7_取手GEK
  6
Continuous
 62
     7
370
     9
100
AcDbLine
 10
2316.900212468327
 20
2250.000148463893
 30
0.0
 11
2316.900212468327
 21
2268.000148463893
 31
0.0
  0
ARC
  5
3D1
330
1F
100
AcDbEntity
  8
0-7_取手GEK
  6
Continuous
 62
     7
370
     9
100
AcDbCircle
 10
2317.900212468328
 20
2250.000148463893
 30
0.0
 40
1.0
100
AcDbArc
 50
180.0
 51
270.0
  0
ARC
  5
3D2
330
1F
100
AcDbEntity
  8
0-7_取手GEK
  6
Continuous
 62
     7
370
     9
100
AcDbCircle
 10
2317.900212468328
 20
2158.000148463893
 30
0.0
 40
1.0
100
AcDbArc
 50
90.0
 51
180.0
  0
ARC
  5
3D3
330
1F
100
AcDbEntity
  8
0-7_取手GEK
  6
Continuous
 62
     7
370
     9
100
AcDbCircle
 10
2327.900212468327
 20
2158.000148463893
 30
0.0
 40
1.0
100
AcDbArc
 50
0.0
 51
90.00000000000001
  0
LINE
  5
3D4
330
1F
100
AcDbEntity
  8
0-7_取手GEK
  6
Continuous
 62
     7
370
     9
100
AcDbLine
 10
2328.900212468328
 20
2140.000148463894
 30
0.0
 11
2328.900212468328
 21
2158.000148463893
 31
0.0
  0
ARC
  5
3D5
330
1F
100
AcDbEntity
  8
0-7_取手GEK
  6
Continuous
 62
     7
370
     9
100
AcDbCircle
 10
2327.900212468327
 20
2140.000148463894
 30
0.0
 40
1.0
100
AcDbArc
 50
270.0
 51
0.0
  0
LINE
  5
3D6
330
1F
100
AcDbEntity
  8
0-7_取手GEK
  6
Continuous
 62
     7
370
     9
100
AcDbLine
 10
2316.900212468327
 20
2140.000148463894
 30
0.0
 11
2316.900212468327
 21
2158.000148463893
 31
0.0
  0
ARC
  5
3D7
330
1F
100
AcDbEntity
  8
0-7_取手GEK
  6
Continuous
 62
     7
370
     9
100
AcDbCircle
 10
2317.900212468328
 20
2140.000148463894
 30
0.0
 40
1.0
100
AcDbArc
 50
180.0
 51
270.0
  0
ARC
  5
3D8
330
1F
100
AcDbEntity
  8
0-7_取手GEK
  6
Continuous
 62
    92
370
    13
100
AcDbCircle
 10
2401.900212468329
 20
2270.000148463892
 30
0.0
 40
1.0
100
AcDbArc
 50
90.0
 51
180.0
  0
LINE
  5
3D9
330
1F
100
AcDbEntity
  8
0-7_取手GEK
  6
Continuous
 62
    92
370
    13
100
AcDbLine
 10
2409.900212468327
 20
2271.000148463894
 30
0.0
 11
2401.900212468329
 21
2271.000148463894
 31
0.0
  0
ARC
  5
3DA
330
1F
100
AcDbEntity
  8
0-7_取手GEK
  6
Continuous
 62
    92
370
    13
100
AcDbCircle
 10
2409.900212468327
 20
2270.000148463892
 30
0.0
 40
1.0
100
AcDbArc
 50
0.0
 51
90.00000000000001
  0
LINE
  5
3DB
330
1F
100
AcDbEntity
  8
0-7_取手GEK
  6
Continuous
 62
    92
370
    13
100
AcDbLine
 10
2410.900212468327
 20
2138.000148463894
 30
0.0
 11
2410.900212468327
 21
2270.000148463892
 31
0.0
  0
ARC
  5
3DC
330
1F
100
AcDbEntity
  8
0-7_取手GEK
  6
Continuous
 62
    92
370
    13
100
AcDbCircle
 10
2409.900212468327
 20
2138.000148463894
 30
0.0
 40
1.0
100
AcDbArc
 50
270.0
 51
0.0
  0
LINE
  5
3DD
330
1F
100
AcDbEntity
  8
0-7_取手GEK
  6
Continuous
 62
    92
370
    13
100
AcDbLine
 10
2401.900212468329
 20
2137.000148463893
 30
0.0
 11
2409.900212468327
 21
2137.000148463893
 31
0.0
  0
LINE
  5
3DE
330
1F
100
AcDbEntity
  8
0-7_取手GEK
  6
Continuous
 62
    92
370
    13
100
AcDbLine
 10
2400.900212468328
 20
2138.000148463894
 30
0.0
 11
2400.900212468328
 21
2270.000148463892
 31
0.0
  0
ARC
  5
3DF
330
1F
100
AcDbEntity
  8
0-7_取手GEK
  6
Continuous
 62
    92
370
    13
100
AcDbCircle
 10
2401.900212468329
 20
2138.000148463894
 30
0.0
 40
1.0
100
AcDbArc
 50
180.0
 51
270.0
  0
ARC
  5
3E0
330
1F
100
AcDbEntity
  8
0-7_取手GEK
  6
Continuous
 62
     7
370
     9
100
AcDbCircle
 10
2400.900212468328
 20
2268.000148463893
 30
0.0
 40
1.0
100
AcDbArc
 50
90.0
 51
180.0
  0
ARC
  5
3E1
330
1F
100
AcDbEntity
  8
0-7_取手GEK
  6
Continuous
 62
     7
370
     9
100
AcDbCircle
 10
2410.900212468327
 20
2268.000148463893
 30
0.0
 40
1.0
100
AcDbArc
 50
0.0
 51
90.00000000000001
  0
LINE
  5
3E2
330
1F
100
AcDbEntity
  8
0-7_取手GEK
  6
Continuous
 62
     7
370
     9
100
AcDbLine
 10
2411.900212468329
 20
2250.000148463893
 30
0.0
 11
2411.900212468329
 21
2268.000148463893
 31
0.0
  0
ARC
  5
3E3
330
1F
100
AcDbEntity
  8
0-7_取手GEK
  6
Continuous
 62
     7
370
     9
100
AcDbCircle
 10
2410.900212468327
 20
2250.000148463893
 30
0.0
 40
1.0
100
AcDbArc
 50
270.0
 51
0.0
  0
LINE
  5
3E4
330
1F
100
AcDbEntity
  8
0-7_取手GEK
  6
Continuous
 62
     7
370
     9
100
AcDbLine
 10
2399.900212468328
 20
2250.000148463893
 30
0.0
 11
2399.900212468328
 21
2268.000148463893
 31
0.0
  0
ARC
  5
3E5
330
1F
100
AcDbEntity
  8
0-7_取手GEK
  6
Continuous
 62
     7
370
     9
100
AcDbCircle
 10
2400.900212468328
 20
2250.000148463893
 30
0.0
 40
1.0
100
AcDbArc
 50
180.0
 51
270.0
  0
ARC
  5
3E6
330
1F
100
AcDbEntity
  8
0-7_取手GEK
  6
Continuous
 62
     7
370
     9
100
AcDbCircle
 10
2400.900212468328
 20
2158.000148463893
 30
0.0
 40
1.0
100
AcDbArc
 50
90.0
 51
180.0
  0
ARC
  5
3E7
330
1F
100
AcDbEntity
  8
0-7_取手GEK
  6
Continuous
 62
     7
370
     9
100
AcDbCircle
 10
2410.900212468327
 20
2158.000148463893
 30
0.0
 40
1.0
100
AcDbArc
 50
0.0
 51
90.00000000000001
  0
LINE
  5
3E8
330
1F
100
AcDbEntity
  8
0-7_取手GEK
  6
Continuous
 62
     7
370
     9
100
AcDbLine
 10
2411.900212468329
 20
2140.000148463894
 30
0.0
 11
2411.900212468329
 21
2158.000148463893
 31
0.0
  0
ARC
  5
3E9
330
1F
100
AcDbEntity
  8
0-7_取手GEK
  6
Continuous
 62
     7
370
     9
100
AcDbCircle
 10
2410.900212468327
 20
2140.000148463894
 30
0.0
 40
1.0
100
AcDbArc
 50
270.0
 51
0.0
  0
LINE
  5
3EA
330
1F
100
AcDbEntity
  8
0-7_取手GEK
  6
Continuous
 62
     7
370
     9
100
AcDbLine
 10
2399.900212468328
 20
2140.000148463894
 30
0.0
 11
2399.900212468328
 21
2158.000148463893
 31
0.0
  0
ARC
  5
3EB
330
1F
100
AcDbEntity
  8
0-7_取手GEK
  6
Continuous
 62
     7
370
     9
100
AcDbCircle
 10
2400.900212468328
 20
2140.000148463894
 30
0.0
 40
1.0
100
AcDbArc
 50
180.0
 51
270.0
  0
ARC
  5
3EC
330
1F
100
AcDbEntity
  8
0-7_取手GEK
  6
Continuous
 62
    92
370
    13
100
AcDbCircle
 10
4550.500339817359
 20
2270.000148463892
 30
0.0
 40
1.0
100
AcDbArc
 50
90.0
 51
180.0
  0
LINE
  5
3ED
330
1F
100
AcDbEntity
  8
0-7_取手GEK
  6
Continuous
 62
    92
370
    13
100
AcDbLine
 10
4558.500339817357
 20
2271.000148463894
 30
0.0
 11
4550.500339817359
 21
2271.000148463894
 31
0.0
  0
ARC
  5
3EE
330
1F
100
AcDbEntity
  8
0-7_取手GEK
  6
Continuous
 62
    92
370
    13
100
AcDbCircle
 10
4558.500339817357
 20
2270.000148463892
 30
0.0
 40
1.0
100
AcDbArc
 50
0.0
 51
90.00000000000001
  0
LINE
  5
3EF
330
1F
100
AcDbEntity
  8
0-7_取手GEK
  6
Continuous
 62
    92
370
    13
100
AcDbLine
 10
4559.500339817357
 20
2138.000148463894
 30
0.0
 11
4559.500339817357
 21
2270.000148463892
 31
0.0
  0
ARC
  5
3F0
330
1F
100
AcDbEntity
  8
0-7_取手GEK
  6
Continuous
 62
    92
370
    13
100
AcDbCircle
 10
4558.500339817357
 20
2138.000148463894
 30
0.0
 40
1.0
100
AcDbArc
 50
270.0
 51
0.0
  0
LINE
  5
3F1
330
1F
100
AcDbEntity
  8
0-7_取手GEK
  6
Continuous
 62
    92
370
    13
100
AcDbLine
 10
4550.500339817359
 20
2137.000148463893
 30
0.0
 11
4558.500339817357
 21
2137.000148463893
 31
0.0
  0
LINE
  5
3F2
330
1F
100
AcDbEntity
  8
0-7_取手GEK
  6
Continuous
 62
    92
370
    13
100
AcDbLine
 10
4549.500339817358
 20
2138.000148463894
 30
0.0
 11
4549.500339817358
 21
2270.000148463892
 31
0.0
  0
ARC
  5
3F3
330
1F
100
AcDbEntity
  8
0-7_取手GEK
  6
Continuous
 62
    92
370
    13
100
AcDbCircle
 10
4550.500339817359
 20
2138.000148463894
 30
0.0
 40
1.0
100
AcDbArc
 50
180.0
 51
270.0
  0
ARC
  5
3F4
330
1F
100
AcDbEntity
  8
0-7_取手GEK
  6
Continuous
 62
     7
370
     9
100
AcDbCircle
 10
4549.500339817358
 20
2268.000148463893
 30
0.0
 40
1.0
100
AcDbArc
 50
90.0
 51
180.0
  0
ARC
  5
3F5
330
1F
100
AcDbEntity
  8
0-7_取手GEK
  6
Continuous
 62
     7
370
     9
100
AcDbCircle
 10
4559.500339817357
 20
2268.000148463893
 30
0.0
 40
1.0
100
AcDbArc
 50
0.0
 51
90.00000000000001
  0
LINE
  5
3F6
330
1F
100
AcDbEntity
  8
0-7_取手GEK
  6
Continuous
 62
     7
370
     9
100
AcDbLine
 10
4560.500339817359
 20
2250.000148463893
 30
0.0
 11
4560.500339817359
 21
2268.000148463893
 31
0.0
  0
ARC
  5
3F7
330
1F
100
AcDbEntity
  8
0-7_取手GEK
  6
Continuous
 62
     7
370
     9
100
AcDbCircle
 10
4559.500339817357
 20
2250.000148463893
 30
0.0
 40
1.0
100
AcDbArc
 50
270.0
 51
0.0
  0
LINE
  5
3F8
330
1F
100
AcDbEntity
  8
0-7_取手GEK
  6
Continuous
 62
     7
370
     9
100
AcDbLine
 10
4548.500339817358
 20
2250.000148463893
 30
0.0
 11
4548.500339817358
 21
2268.000148463893
 31
0.0
  0
ARC
  5
3F9
330
1F
100
AcDbEntity
  8
0-7_取手GEK
  6
Continuous
 62
     7
370
     9
100
AcDbCircle
 10
4549.500339817358
 20
2250.000148463893
 30
0.0
 40
1.0
100
AcDbArc
 50
180.0
 51
270.0
  0
ARC
  5
3FA
330
1F
100
AcDbEntity
  8
0-7_取手GEK
  6
Continuous
 62
     7
370
     9
100
AcDbCircle
 10
4549.500339817358
 20
2158.000148463893
 30
0.0
 40
1.0
100
AcDbArc
 50
90.0
 51
180.0
  0
ARC
  5
3FB
330
1F
100
AcDbEntity
  8
0-7_取手GEK
  6
Continuous
 62
     7
370
     9
100
AcDbCircle
 10
4559.500339817357
 20
2158.000148463893
 30
0.0
 40
1.0
100
AcDbArc
 50
0.0
 51
90.00000000000001
  0
LINE
  5
3FC
330
1F
100
AcDbEntity
  8
0-7_取手GEK
  6
Continuous
 62
     7
370
     9
100
AcDbLine
 10
4560.500339817359
 20
2140.000148463894
 30
0.0
 11
4560.500339817359
 21
2158.000148463893
 31
0.0
  0
ARC
  5
3FD
330
1F
100
AcDbEntity
  8
0-7_取手GEK
  6
Continuous
 62
     7
370
     9
100
AcDbCircle
 10
4559.500339817357
 20
2140.000148463894
 30
0.0
 40
1.0
100
AcDbArc
 50
270.0
 51
0.0
  0
LINE
  5
3FE
330
1F
100
AcDbEntity
  8
0-7_取手GEK
  6
Continuous
 62
     7
370
     9
100
AcDbLine
 10
4548.500339817358
 20
2140.000148463894
 30
0.0
 11
4548.500339817358
 21
2158.000148463893
 31
0.0
  0
ARC
  5
3FF
330
1F
100
AcDbEntity
  8
0-7_取手GEK
  6
Continuous
 62
     7
370
     9
100
AcDbCircle
 10
4549.500339817358
 20
2140.000148463894
 30
0.0
 40
1.0
100
AcDbArc
 50
180.0
 51
270.0
  0
ARC
  5
400
330
1F
100
AcDbEntity
  8
0-7_取手GEK
  6
Continuous
 62
    92
370
    13
100
AcDbCircle
 10
4633.500339817359
 20
2270.000148463892
 30
0.0
 40
1.0
100
AcDbArc
 50
90.0
 51
180.0
  0
LINE
  5
401
330
1F
100
AcDbEntity
  8
0-7_取手GEK
  6
Continuous
 62
    92
370
    13
100
AcDbLine
 10
4641.500339817357
 20
2271.000148463894
 30
0.0
 11
4633.500339817359
 21
2271.000148463894
 31
0.0
  0
ARC
  5
402
330
1F
100
AcDbEntity
  8
0-7_取手GEK
  6
Continuous
 62
    92
370
    13
100
AcDbCircle
 10
4641.500339817357
 20
2270.000148463892
 30
0.0
 40
1.0
100
AcDbArc
 50
0.0
 51
90.00000000000001
  0
LINE
  5
403
330
1F
100
AcDbEntity
  8
0-7_取手GEK
  6
Continuous
 62
    92
370
    13
100
AcDbLine
 10
4642.500339817358
 20
2138.000148463894
 30
0.0
 11
4642.500339817358
 21
2270.000148463892
 31
0.0
  0
ARC
  5
404
330
1F
100
AcDbEntity
  8
0-7_取手GEK
  6
Continuous
 62
    92
370
    13
100
AcDbCircle
 10
4641.500339817357
 20
2138.000148463894
 30
0.0
 40
1.0
100
AcDbArc
 50
270.0
 51
0.0
  0
LINE
  5
405
330
1F
100
AcDbEntity
  8
0-7_取手GEK
  6
Continuous
 62
    92
370
    13
100
AcDbLine
 10
4633.500339817359
 20
2137.000148463893
 30
0.0
 11
4641.500339817357
 21
2137.000148463893
 31
0.0
  0
LINE
  5
406
330
1F
100
AcDbEntity
  8
0-7_取手GEK
  6
Continuous
 62
    92
370
    13
100
AcDbLine
 10
4632.500339817359
 20
2138.000148463894
 30
0.0
 11
4632.500339817359
 21
2270.000148463892
 31
0.0
  0
ARC
  5
407
330
1F
100
AcDbEntity
  8
0-7_取手GEK
  6
Continuous
 62
    92
370
    13
100
AcDbCircle
 10
4633.500339817359
 20
2138.000148463894
 30
0.0
 40
1.0
100
AcDbArc
 50
180.0
 51
270.0
  0
ARC
  5
408
330
1F
100
AcDbEntity
  8
0-7_取手GEK
  6
Continuous
 62
     7
370
     9
100
AcDbCircle
 10
4632.500339817359
 20
2268.000148463893
 30
0.0
 40
1.0
100
AcDbArc
 50
90.0
 51
180.0
  0
ARC
  5
409
330
1F
100
AcDbEntity
  8
0-7_取手GEK
  6
Continuous
 62
     7
370
     9
100
AcDbCircle
 10
4642.500339817358
 20
2268.000148463893
 30
0.0
 40
1.0
100
AcDbArc
 50
0.0
 51
90.00000000000001
  0
LINE
  5
40A
330
1F
100
AcDbEntity
  8
0-7_取手GEK
  6
Continuous
 62
     7
370
     9
100
AcDbLine
 10
4643.500339817359
 20
2250.000148463893
 30
0.0
 11
4643.500339817359
 21
2268.000148463893
 31
0.0
  0
ARC
  5
40B
330
1F
100
AcDbEntity
  8
0-7_取手GEK
  6
Continuous
 62
     7
370
     9
100
AcDbCircle
 10
4642.500339817358
 20
2250.000148463893
 30
0.0
 40
1.0
100
AcDbArc
 50
270.0
 51
0.0
  0
LINE
  5
40C
330
1F
100
AcDbEntity
  8
0-7_取手GEK
  6
Continuous
 62
     7
370
     9
100
AcDbLine
 10
4631.500339817358
 20
2250.000148463893
 30
0.0
 11
4631.500339817358
 21
2268.000148463893
 31
0.0
  0
ARC
  5
40D
330
1F
100
AcDbEntity
  8
0-7_取手GEK
  6
Continuous
 62
     7
370
     9
100
AcDbCircle
 10
4632.500339817359
 20
2250.000148463893
 30
0.0
 40
1.0
100
AcDbArc
 50
180.0
 51
270.0
  0
ARC
  5
40E
330
1F
100
AcDbEntity
  8
0-7_取手GEK
  6
Continuous
 62
     7
370
     9
100
AcDbCircle
 10
4632.500339817359
 20
2158.000148463893
 30
0.0
 40
1.0
100
AcDbArc
 50
90.0
 51
180.0
  0
ARC
  5
40F
330
1F
100
AcDbEntity
  8
0-7_取手GEK
  6
Continuous
 62
     7
370
     9
100
AcDbCircle
 10
4642.500339817358
 20
2158.000148463893
 30
0.0
 40
1.0
100
AcDbArc
 50
0.0
 51
90.00000000000001
  0
LINE
  5
410
330
1F
100
AcDbEntity
  8
0-7_取手GEK
  6
Continuous
 62
     7
370
     9
100
AcDbLine
 10
4643.500339817359
 20
2140.000148463894
 30
0.0
 11
4643.500339817359
 21
2158.000148463893
 31
0.0
  0
ARC
  5
411
330
1F
100
AcDbEntity
  8
0-7_取手GEK
  6
Continuous
 62
     7
370
     9
100
AcDbCircle
 10
4642.500339817358
 20
2140.000148463894
 30
0.0
 40
1.0
100
AcDbArc
 50
270.0
 51
0.0
  0
LINE
  5
412
330
1F
100
AcDbEntity
  8
0-7_取手GEK
  6
Continuous
 62
     7
370
     9
100
AcDbLine
 10
4631.500339817358
 20
2140.000148463894
 30
0.0
 11
4631.500339817358
 21
2158.000148463893
 31
0.0
  0
ARC
  5
413
330
1F
100
AcDbEntity
  8
0-7_取手GEK
  6
Continuous
 62
     7
370
     9
100
AcDbCircle
 10
4632.500339817359
 20
2140.000148463894
 30
0.0
 40
1.0
100
AcDbArc
 50
180.0
 51
270.0
  0
LINE
  5
414
330
1F
100
AcDbEntity
  8
0-0_補助線
  6
JWW_HOJO
 62
   120
370
     5
100
AcDbLine
 10
-5490.000018557987
 20
-2166.750165011431
 30
0.0
 11
-3258.399798419024
 21
-2166.750165011431
 31
0.0
  0
LINE
  5
415
330
1F
100
AcDbEntity
  8
0-0_補助線
  6
JWW_HOJO
 62
   120
370
     5
100
AcDbLine
 10
-3258.399798419024
 20
-2124.750165011432
 30
0.0
 11
-1026.799671069995
 21
-2124.750165011432
 31
0.0
  0
LINE
  5
416
330
1F
100
AcDbEntity
  8
0-0_補助線
  6
JWW_HOJO
 62
   120
370
     5
100
AcDbLine
 10
-5490.000018557987
 20
1892.000148463894
 30
0.0
 11
-3258.399798419024
 21
1892.000148463894
 31
0.0
  0
LINE
  5
417
330
1F
100
AcDbEntity
  8
0-0_補助線
  6
JWW_HOJO
 62
   120
370
     5
100
AcDbLine
 10
-3258.399798419024
 20
2205.000148463894
 30
0.0
 11
5699.998762800888
 21
2205.000148463894
 31
0.0
  0
LWPOLYLINE
  5
418
330
1F
100
AcDbEntity
  8
0-A_文字
  6
Continuous
 62
     7
370
     9
100
AcDbPolyline
 90
        4
 70
     1
 43
6.0
 10
4640.500339817358
 20
2205.000148463894
 42
0.4142135623731
 10
4637.500339817359
 20
2208.000148463894
 42
0.4142135623731
 10
4634.500339817359
 20
2205.000148463894
 42
0.4142135623731
 10
4637.500339817359
 20
2202.000148463894
 42
0.4142135623731
  0
LWPOLYLINE
  5
419
330
1F
100
AcDbEntity
  8
0-A_文字
  6
Continuous
 62
     7
370
     9
100
AcDbPolyline
 90
        4
 70
     1
 43
6.0
 10
4557.500339817358
 20
2205.000148463894
 42
0.4142135623731
 10
4554.500339817358
 20
2208.000148463894
 42
0.4142135623731
 10
4551.500339817358
 20
2205.000148463894
 42
0.4142135623731
 10
4554.500339817358
 20
2202.000148463894
 42
0.4142135623731
  0
LWPOLYLINE
  5
41A
330
1F
100
AcDbEntity
  8
0-A_文字
  6
Continuous
 62
     7
370
     9
100
AcDbPolyline
 90
        4
 70
     1
 43
6.0
 10
2408.900212468328
 20
2205.000148463894
 42
0.4142135623731
 10
2405.900212468328
 20
2208.000148463894
 42
0.4142135623731
 10
2402.900212468328
 20
2205.000148463894
 42
0.4142135623731
 10
2405.900212468328
 20
2202.000148463894
 42
0.4142135623731
  0
LWPOLYLINE
  5
41B
330
1F
100
AcDbEntity
  8
0-A_文字
  6
Continuous
 62
     7
370
     9
100
AcDbPolyline
 90
        4
 70
     1
 43
6.0
 10
2325.900212468328
 20
2205.000148463894
 42
0.4142135623731
 10
2322.900212468328
 20
2208.000148463894
 42
0.4142135623731
 10
2319.900212468328
 20
2205.000148463894
 42
0.4142135623731
 10
2322.900212468328
 20
2202.000148463894
 42
0.4142135623731
  0
LWPOLYLINE
  5
41C
330
1F
100
AcDbEntity
  8
0-A_文字
  6
Continuous
 62
     7
370
     9
100
AcDbPolyline
 90
        4
 70
     1
 43
6.0
 10
177.3000851192994
 20
2205.000148463894
 42
0.4142135623731
 10
174.3000851192994
 20
2208.000148463894
 42
0.4142135623731
 10
171.3000851192994
 20
2205.000148463894
 42
0.4142135623731
 10
174.3000851192994
 20
2202.000148463894
 42
0.4142135623731
  0
LWPOLYLINE
  5
41D
330
1F
100
AcDbEntity
  8
0-A_文字
  6
Continuous
 62
     7
370
     9
100
AcDbPolyline
 90
        4
 70
     1
 43
6.0
 10
94.30008511929901
 20
2205.000148463894
 42
0.4142135623731
 10
91.30008511929901
 20
2208.000148463894
 42
0.4142135623731
 10
88.30008511929901
 20
2205.000148463894
 42
0.4142135623731
 10
91.30008511929901
 20
2202.000148463894
 42
0.4142135623731
  0
LWPOLYLINE
  5
41E
330
1F
100
AcDbEntity
  8
0-A_文字
  6
Continuous
 62
     7
370
     9
100
AcDbPolyline
 90
        4
 70
     1
 43
6.0
 10
-2054.299671069995
 20
2205.000148463894
 42
0.4142135623731
 10
-2057.299671069995
 20
2208.000148463894
 42
0.4142135623731
 10
-2060.299671069995
 20
2205.000148463894
 42
0.4142135623731
 10
-2057.299671069995
 20
2202.000148463894
 42
0.4142135623731
  0
LWPOLYLINE
  5
41F
330
1F
100
AcDbEntity
  8
0-A_文字
  6
Continuous
 62
     7
370
     9
100
AcDbPolyline
 90
        4
 70
     1
 43
6.0
 10
-2137.299671069996
 20
2205.000148463894
 42
0.4142135623731
 10
-2140.299671069995
 20
2208.000148463894
 42
0.4142135623731
 10
-2143.299671069995
 20
2205.000148463894
 42
0.4142135623731
 10
-2140.299671069995
 20
2202.000148463894
 42
0.4142135623731
  0
LWPOLYLINE
  5
420
330
1F
100
AcDbEntity
  8
0-A_文字
  6
Continuous
 62
     7
370
     9
100
AcDbPolyline
 90
        4
 70
     1
 43
6.0
 10
-4285.899798419024
 20
1892.000148463894
 42
0.4142135623731
 10
-4288.899798419023
 20
1895.000148463894
 42
0.4142135623731
 10
-4291.899798419023
 20
1892.000148463894
 42
0.4142135623731
 10
-4288.899798419023
 20
1889.000148463894
 42
0.4142135623731
  0
LWPOLYLINE
  5
421
330
1F
100
AcDbEntity
  8
0-A_文字
  6
Continuous
 62
     7
370
     9
100
AcDbPolyline
 90
        4
 70
     1
 43
6.0
 10
-4368.899798419024
 20
1892.000148463894
 42
0.4142135623731
 10
-4371.899798419024
 20
1895.000148463894
 42
0.4142135623731
 10
-4374.899798419024
 20
1892.000148463894
 42
0.4142135623731
 10
-4371.899798419024
 20
1889.000148463894
 42
0.4142135623731
  0
LWPOLYLINE
  5
422
330
1F
100
AcDbEntity
  8
0-A_文字
  6
Continuous
 62
     7
370
     9
100
AcDbPolyline
 90
        4
 70
     1
 43
6.0
 10
-4368.899798419024
 20
-2166.750165011431
 42
0.4142135623731
 10
-4371.899798419024
 20
-2163.750165011431
 42
0.4142135623731
 10
-4374.899798419024
 20
-2166.750165011431
 42
0.4142135623731
 10
-4371.899798419024
 20
-2169.750165011431
 42
0.4142135623731
  0
LWPOLYLINE
  5
423
330
1F
100
AcDbEntity
  8
0-A_文字
  6
Continuous
 62
     7
370
     9
100
AcDbPolyline
 90
        4
 70
     1
 43
6.0
 10
-4285.899798419024
 20
-2166.750165011431
 42
0.4142135623731
 10
-4288.899798419023
 20
-2163.750165011431
 42
0.4142135623731
 10
-4291.899798419023
 20
-2166.750165011431
 42
0.4142135623731
 10
-4288.899798419023
 20
-2169.750165011431
 42
0.4142135623731
  0
LWPOLYLINE
  5
424
330
1F
100
AcDbEntity
  8
0-A_文字
  6
Continuous
 62
     7
370
     9
100
AcDbPolyline
 90
        4
 70
     1
 43
6.0
 10
-2137.299671069996
 20
-2124.750165011432
 42
0.4142135623731
 10
-2140.299671069995
 20
-2121.750165011432
 42
0.4142135623731
 10
-2143.299671069995
 20
-2124.750165011432
 42
0.4142135623731
 10
-2140.299671069995
 20
-2127.750165011431
 42
0.4142135623731
  0
LWPOLYLINE
  5
425
330
1F
100
AcDbEntity
  8
0-A_文字
  6
Continuous
 62
     7
370
     9
100
AcDbPolyline
 90
        4
 70
     1
 43
6.0
 10
-2054.299671069995
 20
-2124.750165011432
 42
0.4142135623731
 10
-2057.299671069995
 20
-2121.750165011432
 42
0.4142135623731
 10
-2060.299671069995
 20
-2124.750165011432
 42
0.4142135623731
 10
-2057.299671069995
 20
-2127.750165011431
 42
0.4142135623731
  0
TEXT
  5
426
330
1F
100
AcDbEntity
  8
0-A_文字
  6
Continuous
 62
     7
370
     9
100
AcDbText
 10
-2905.049671069996
 20
4032.689901024072
 30
0.0
 40
68.58
  1
Ｆ－ＦＴ／Ｆ－ＦＹ　Ｈ＝４尺
 41
1.154761904761905
  7
ＭＳ ゴシック
100
AcDbText
  0
TEXT
  5
427
330
1F
100
AcDbEntity
  8
0-A_文字
  6
Continuous
 62
     7
370
     9
100
AcDbText
 10
-673.4499148807006
 20
4032.689901024072
 30
0.0
 40
68.58
  1
Ｆ－ＦＴ／Ｆ－ＦＹ　Ｈ＝６尺
 41
1.154761904761905
  7
ＭＳ ゴシック
100
AcDbText
  0
TEXT
  5
428
330
1F
100
AcDbEntity
  8
0-A_文字
  6
Continuous
 62
     7
370
     9
100
AcDbText
 10
1558.150212468329
 20
4032.689901024072
 30
0.0
 40
68.58
  1
Ｆ－ＦＴ／Ｆ－ＦＹ　Ｈ＝７尺
 41
1.154761904761905
  7
ＭＳ ゴシック
100
AcDbText
  0
TEXT
  5
429
330
1F
100
AcDbEntity
  8
0-A_文字
  6
Continuous
 62
     7
370
     9
100
AcDbText
 10
3789.750339817358
 20
4032.689901024072
 30
0.0
 40
68.58
  1
Ｆ－ＦＴ／Ｆ－ＦＹ　Ｈ＝８尺
 41
1.154761904761905
  7
ＭＳ ゴシック
100
AcDbText
  0
TEXT
  5
42A
330
1F
100
AcDbEntity
  8
0-B_寸法
  6
Continuous
 62
     7
370
    70
100
AcDbText
 10
3903.425339817357
 20
2172.750148463894
 30
0.0
 40
57.15000000000001
  1
ＤＨ＝2,284
 50
90.0
 41
0.9999999999999999
  7
ＭＳ ゴシック
100
AcDbText
  0
TEXT
  5
42B
330
1F
100
AcDbEntity
  8
0-B_寸法
  6
Continuous
 62
     7
370
    70
100
AcDbText
 10
1671.825212468328
 20
2012.250148463893
 30
0.0
 40
57.15000000000001
  1
ＤＨ＝1,983
 50
90.0
 41
0.9999999999999999
  7
ＭＳ ゴシック
100
AcDbText
  0
TEXT
  5
42C
330
1F
100
AcDbEntity
  8
0-B_寸法
  6
Continuous
 62
     7
370
    70
100
AcDbText
 10
-559.7749148807009
 20
1897.250148463894
 30
0.0
 40
57.15000000000001
  1
ＤＨ＝1,733
 50
90.0
 41
0.9999999999999999
  7
ＭＳ ゴシック
100
AcDbText
  0
TEXT
  5
42D
330
1F
100
AcDbEntity
  8
0-B_寸法
  6
Continuous
 62
     7
370
    70
100
AcDbText
 10
-2791.374671069995
 20
1598.250148463894
 30
0.0
 40
57.15000000000001
  1
ＤＨ＝1,135
 50
90.0
 41
1.0
  7
ＭＳ ゴシック
100
AcDbText
  0
TEXT
  5
42E
330
1F
100
AcDbEntity
  8
0-B_寸法
  6
Continuous
 62
     7
370
    70
100
AcDbText
 10
-5022.974798419024
 20
1458.250148463894
 30
0.0
 40
57.15000000000001
  1
ＤＨ＝780
 50
90.0
 41
0.9999999999999998
  7
ＭＳ ゴシック
100
AcDbText
  0
TEXT
  5
42F
330
1F
100
AcDbEntity
  8
0-B_寸法
  6
Continuous
 62
     7
370
    70
100
AcDbText
 10
-4291.426300679595
 20
1074.026222176111
 30
0.0
 40
57.15000000000001
  1
2
 41
0.9999999999999998
  7
ＭＳ ゴシック
100
AcDbText
  0
TEXT
  5
430
330
1F
100
AcDbEntity
  8
0-B_寸法
  6
Continuous
 62
     7
370
    70
100
AcDbText
 10
-2059.826173330567
 20
1074.026222176111
 30
0.0
 40
57.15000000000001
  1
2
 41
0.9999999999999998
  7
ＭＳ ゴシック
100
AcDbText
  0
TEXT
  5
431
330
1F
100
AcDbEntity
  8
0-B_寸法
  6
Continuous
 62
     7
370
    70
100
AcDbText
 10
171.7735828587274
 20
1074.026222176111
 30
0.0
 40
57.15000000000001
  1
2
 41
0.9999999999999998
  7
ＭＳ ゴシック
100
AcDbText
  0
TEXT
  5
432
330
1F
100
AcDbEntity
  8
0-B_寸法
  6
Continuous
 62
     7
370
    70
100
AcDbText
 10
2403.373710207756
 20
1074.026222176111
 30
0.0
 40
57.15000000000001
  1
2
 41
0.9999999999999998
  7
ＭＳ ゴシック
100
AcDbText
  0
TEXT
  5
433
330
1F
100
AcDbEntity
  8
0-B_寸法
  6
Continuous
 62
     7
370
    70
100
AcDbText
 10
4634.973837556785
 20
1074.026222176111
 30
0.0
 40
57.15000000000001
  1
2
 41
0.9999999999999998
  7
ＭＳ ゴシック
100
AcDbText
  0
TEXT
  5
434
330
1F
100
AcDbEntity
  8
0-B_寸法
  6
Continuous
 62
     7
370
    70
100
AcDbText
 10
-4610.899798419024
 20
943.5751484638936
 30
0.0
 40
57.15000000000001
  1
DW=334
 41
0.9999999999999999
  7
ＭＳ ゴシック
100
AcDbText
  0
TEXT
  5
435
330
1F
100
AcDbEntity
  8
0-B_寸法
  6
Continuous
 62
     7
370
    70
100
AcDbText
 10
-4274.899798419023
 20
943.5751484638936
 30
0.0
 40
57.15000000000001
  1
DW=334
 41
0.9999999999999999
  7
ＭＳ ゴシック
100
AcDbText
  0
TEXT
  5
436
330
1F
100
AcDbEntity
  8
0-B_寸法
  6
Continuous
 62
     7
370
    70
100
AcDbText
 10
-2379.299671069995
 20
943.5751484638936
 30
0.0
 40
57.15000000000001
  1
DW=334
 41
0.9999999999999999
  7
ＭＳ ゴシック
100
AcDbText
  0
TEXT
  5
437
330
1F
100
AcDbEntity
  8
0-B_寸法
  6
Continuous
 62
     7
370
    70
100
AcDbText
 10
-2043.299671069995
 20
943.5751484638936
 30
0.0
 40
57.15000000000001
  1
DW=334
 41
0.9999999999999999
  7
ＭＳ ゴシック
100
AcDbText
  0
TEXT
  5
438
330
1F
100
AcDbEntity
  8
0-B_寸法
  6
Continuous
 62
     7
370
    70
100
AcDbText
 10
-147.699914880701
 20
943.5751484638936
 30
0.0
 40
57.15000000000001
  1
DW=334
 41
0.9999999999999999
  7
ＭＳ ゴシック
100
AcDbText
  0
TEXT
  5
439
330
1F
100
AcDbEntity
  8
0-B_寸法
  6
Continuous
 62
     7
370
    70
100
AcDbText
 10
188.3000851192995
 20
943.5751484638936
 30
0.0
 40
57.15000000000001
  1
DW=334
 41
0.9999999999999999
  7
ＭＳ ゴシック
100
AcDbText
  0
TEXT
  5
43A
330
1F
100
AcDbEntity
  8
0-B_寸法
  6
Continuous
 62
     7
370
    70
100
AcDbText
 10
2083.900212468328
 20
943.5751484638936
 30
0.0
 40
57.15000000000001
  1
DW=334
 41
0.9999999999999999
  7
ＭＳ ゴシック
100
AcDbText
  0
TEXT
  5
43B
330
1F
100
AcDbEntity
  8
0-B_寸法
  6
Continuous
 62
     7
370
    70
100
AcDbText
 10
2419.900212468328
 20
943.5751484638936
 30
0.0
 40
57.15000000000001
  1
DW=334
 41
0.9999999999999999
  7
ＭＳ ゴシック
100
AcDbText
  0
TEXT
  5
43C
330
1F
100
AcDbEntity
  8
0-B_寸法
  6
Continuous
 62
     7
370
    70
100
AcDbText
 10
4315.500339817357
 20
943.5751484638936
 30
0.0
 40
57.15000000000001
  1
DW=334
 41
0.9999999999999999
  7
ＭＳ ゴシック
100
AcDbText
  0
TEXT
  5
43D
330
1F
100
AcDbEntity
  8
0-B_寸法
  6
Continuous
 62
     7
370
    70
100
AcDbText
 10
4651.500339817358
 20
943.5751484638936
 30
0.0
 40
57.15000000000001
  1
DW=334
 41
0.9999999999999999
  7
ＭＳ ゴシック
100
AcDbText
  0
TEXT
  5
43E
330
1F
100
AcDbEntity
  8
0-B_寸法
  6
Continuous
 62
     7
370
    70
100
AcDbText
 10
-2791.374671069995
 20
-1930.500165011432
 30
0.0
 40
57.15000000000001
  1
ＤＨ＝1,135
 50
90.0
 41
0.9999999999999999
  7
ＭＳ ゴシック
100
AcDbText
  0
TEXT
  5
43F
330
1F
100
AcDbEntity
  8
0-B_寸法
  6
Continuous
 62
     7
370
    70
100
AcDbText
 10
-5022.974798419024
 20
-2070.500165011431
 30
0.0
 40
57.15000000000001
  1
ＤＨ＝780
 50
90.0
 41
0.9999999999999998
  7
ＭＳ ゴシック
100
AcDbText
  0
TEXT
  5
440
330
1F
100
AcDbEntity
  8
0-B_寸法
  6
Continuous
 62
     7
370
    70
100
AcDbText
 10
-4291.426300679595
 20
-2470.724091299215
 30
0.0
 40
57.15000000000001
  1
2
 41
0.9999999999999998
  7
ＭＳ ゴシック
100
AcDbText
  0
TEXT
  5
441
330
1F
100
AcDbEntity
  8
0-B_寸法
  6
Continuous
 62
     7
370
    70
100
AcDbText
 10
-2059.826173330567
 20
-2470.724091299215
 30
0.0
 40
57.15000000000001
  1
2
 41
0.9999999999999998
  7
ＭＳ ゴシック
100
AcDbText
  0
TEXT
  5
442
330
1F
100
AcDbEntity
  8
0-B_寸法
  6
Continuous
 62
     7
370
    70
100
AcDbText
 10
-4610.899798419024
 20
-2601.175165011432
 30
0.0
 40
57.15000000000001
  1
DW=334
 41
0.9999999999999999
  7
ＭＳ ゴシック
100
AcDbText
  0
TEXT
  5
443
330
1F
100
AcDbEntity
  8
0-B_寸法
  6
Continuous
 62
     7
370
    70
100
AcDbText
 10
-4274.899798419023
 20
-2601.175165011432
 30
0.0
 40
57.15000000000001
  1
DW=334
 41
0.9999999999999999
  7
ＭＳ ゴシック
100
AcDbText
  0
TEXT
  5
444
330
1F
100
AcDbEntity
  8
0-B_寸法
  6
Continuous
 62
     7
370
    70
100
AcDbText
 10
-2379.299671069995
 20
-2601.175165011432
 30
0.0
 40
57.15000000000001
  1
DW=334
 41
0.9999999999999999
  7
ＭＳ ゴシック
100
AcDbText
  0
TEXT
  5
445
330
1F
100
AcDbEntity
  8
0-B_寸法
  6
Continuous
 62
     7
370
    70
100
AcDbText
 10
-2043.299671069995
 20
-2601.175165011432
 30
0.0
 40
57.15000000000001
  1
DW=334
 41
0.9999999999999999
  7
ＭＳ ゴシック
100
AcDbText
  0
TEXT
  5
446
330
1F
100
AcDbEntity
  8
F-A_文字
  6
Continuous
 62
     7
370
     9
100
AcDbText
 10
-5890.000039177972
 20
4038.075148463894
 30
0.0
 40
57.15000000000001
  1
デザイン
 41
0.9999999999999998
  7
ＭＳ ゴシック
100
AcDbText
  0
TEXT
  5
447
330
1F
100
AcDbEntity
  8
F-A_文字
  6
Continuous
 62
     7
370
     9
100
AcDbText
 10
-5852.500004381747
 20
2050.8250008248
 30
0.0
 40
57.15000000000001
  1
姿　図
 41
0.9999999999999999
  7
ＭＳ ゴシック
100
AcDbText
  0
TEXT
  5
448
330
1F
100
AcDbEntity
  8
F-A_文字
  6
Continuous
 62
     7
370
     9
100
AcDbText
 10
-5890.000004381747
 20
57.57493236644844
 30
0.0
 40
57.15000000000001
  1
デザイン
 41
0.9999999999999998
  7
ＭＳ ゴシック
100
AcDbText
  0
TEXT
  5
449
330
1F
100
AcDbEntity
  8
F-A_文字
  6
Continuous
 62
     7
370
     9
100
AcDbText
 10
-5852.500120369163
 20
-1929.675165011432
 30
0.0
 40
57.15000000000001
  1
姿　図
 41
0.9999999999999999
  7
ＭＳ ゴシック
100
AcDbText
  0
TEXT
  5
44A
330
1F
100
AcDbEntity
  8
F-A_文字
  6
Continuous
 62
     7
370
     0
100
AcDbText
 10
-60.0001237199109
 20
-3871.539820871936
 30
0.0
 40
45.72
  1
図面名
  7
ＭＳ ゴシック
100
AcDbText
  0
TEXT
  5
44B
330
1F
100
AcDbEntity
  8
F-A_文字
  6
Continuous
 62
     7
370
     0
100
AcDbText
 10
2779.998729808911
 20
-3871.542460617774
 30
0.0
 40
45.72
  1
ＳＣＡＬＥ
  7
ＭＳ ゴシック
100
AcDbText
  0
TEXT
  5
44C
330
1F
100
AcDbEntity
  8
F-A_文字
  6
Continuous
 62
     7
370
     0
100
AcDbText
 10
4279.999224688556
 20
-3871.543854850754
 30
0.0
 40
45.72
  1
ＤＡＴＥ
  7
ＭＳ ゴシック
100
AcDbText
  0
TEXT
  5
44D
330
1F
100
AcDbEntity
  8
F-A_文字
  6
Continuous
 62
     7
370
     0
100
AcDbText
 10
1180.417701903719
 20
-3927.310161599839
 30
0.0
 40
68.58
  1
建具姿図
 41
1.125
  7
ＭＳ ゴシック
100
AcDbText
  0
TEXT
  5
44E
330
1F
100
AcDbEntity
  8
F-A_文字
  6
Continuous
 62
     7
370
     0
100
AcDbText
 10
3383.748977248734
 20
-3927.313115907308
 30
0.0
 40
68.58
  1
1/30
 41
1.125
  7
ＭＳ ゴシック
100
AcDbText
  0
TEXT
  5
44F
330
1F
100
AcDbEntity
  8
F-A_文字
  6
Continuous
 62
     7
370
     0
100
AcDbText
 10
349.9999175200594
 20
-3928.097291872502
 30
0.0
 40
66.06
  1
ＳＯＦＴＡＲＴ
 41
0.8333333333333334
  7
HG明朝B
100
AcDbText
  0
TEXT
  5
450
330
1F
100
AcDbEntity
  8
F-A_文字
  6
Continuous
 62
     7
370
     0
100
AcDbText
 10
-5247.547376752838
 20
-4027.30993607839
 30
0.0
 40
68.58
  1
ソフトアート　収納両開き戸　スマートタイプ　Ｆ－ＦＴ（扉縦木目柄）／Ｆ－ＦＹ（扉横木目柄）
 41
1.162962962962963
  7
ＭＳ ゴシック
100
AcDbText
  0
TEXT
  5
451
330
1F
100
AcDbEntity
  8
F-A_文字
  6
Continuous
 62
     7
370
     0
100
AcDbText
 10
2779.998729808911
 20
-4071.54246317786
 30
0.0
 40
45.72
  1
ＦＩＬＥ
  7
ＭＳ ゴシック
100
AcDbText
  0
TEXT
  5
452
330
1F
100
AcDbEntity
  8
F-A_文字
  6
Continuous
 62
     7
370
     0
100
AcDbText
 10
4279.999224688556
 20
-4071.543857410839
 30
0.0
 40
45.72
  1
ＮＯ．
  7
ＭＳ ゴシック
100
AcDbText
  0
TEXT
  5
453
330
1F
100
AcDbEntity
  8
F-A_文字
  6
Continuous
 62
     7
370
     0
100
AcDbText
 10
1234.998729808911
 20
-4080.540669266148
 30
0.0
 40
45.72
  1
株式
  7
ＭＳ ゴシック
100
AcDbText
  0
TEXT
  5
454
330
1F
100
AcDbEntity
  8
F-A_文字
  6
Continuous
 62
     7
370
     9
100
AcDbText
 10
4936.249033580831
 20
-4127.314512699985
 30
0.0
 40
68.58
  1
01
 41
1.083333333333333
  7
ＭＳ ゴシック
100
AcDbText
  0
TEXT
  5
455
330
1F
100
AcDbEntity
  8
F-A_文字
  6
Continuous
 62
     7
370
     0
100
AcDbText
 10
1444.998729808911
 20
-4138.082379523928
 30
0.0
 40
91.44
  1
ウッドワン・・・
 41
1.109375
  7
ＭＳ ゴシック
100
AcDbText
  0
TEXT
  5
456
330
1F
100
AcDbEntity
  8
F-A_文字
  6
Continuous
 62
     7
370
     0
100
AcDbText
 10
1234.998729808911
 20
-4152.540669266186
 30
0.0
 40
45.72
  1
会社
  7
ＭＳ ゴシック
100
AcDbText
  0
TEXT
  5
457
330
1F
100
AcDbEntity
  8
F-A_文字
  6
Continuous
 62
     7
370
     0
100
AcDbText
 10
5608.403311109712
 20
-4291.441419020919
 30
0.0
 40
68.58
  1
）
  7
ＭＳ ゴシック
100
AcDbText
  0
TEXT
  5
458
330
1F
100
AcDbEntity
  8
F-A_文字
  6
Continuous
 62
     7
370
     0
100
AcDbText
 10
5190.195950842071
 20
-4292.835443869856
 30
0.0
 40
68.58
  1
,
  7
ＭＳ ゴシック
100
AcDbText
  0
TEXT
  5
459
330
1F
100
AcDbEntity
  8
F-A_文字
  6
Continuous
 62
     7
370
     0
100
AcDbText
 10
4923.937261915373
 20
-4294.229467288283
 30
0.0
 40
68.58
  1
$y
 41
1.083333333333333
  7
ＭＳ ゴシック
100
AcDbText
  0
TEXT
  5
45A
330
1F
100
AcDbEntity
  8
F-A_文字
  6
Continuous
 62
     7
370
     0
100
AcDbText
 10
5078.673982954195
 20
-4294.229467288283
 30
0.0
 40
68.58
  1
$m
 41
1.083333333333333
  7
ＭＳ ゴシック
100
AcDbText
  0
TEXT
  5
45B
330
1F
100
AcDbEntity
  8
F-A_文字
  6
Continuous
 62
     7
370
     0
100
AcDbText
 10
5233.410715437103
 20
-4294.229467288283
 30
0.0
 40
68.58
  1
$d
 41
1.083333333333333
  7
ＭＳ ゴシック
100
AcDbText
  0
TEXT
  5
45C
330
1F
100
AcDbEntity
  8
F-A_文字
  6
Continuous
 62
     7
370
     0
100
AcDbText
 10
5388.147447920011
 20
-4294.229467288283
 30
0.0
 40
68.58
  1
印刷
 41
1.083333333333333
  7
ＭＳ ゴシック
100
AcDbText
  0
TEXT
  5
45D
330
1F
100
AcDbEntity
  8
F-A_文字
  6
Continuous
 62
     7
370
     0
100
AcDbText
 10
4784.033374252999
 20
-4295.623493567732
 30
0.0
 40
68.58
  1
（
  7
ＭＳ ゴシック
100
AcDbText
  0
TEXT
  5
45E
330
1F
100
AcDbEntity
  8
F-A_文字
  6
Continuous
 62
     7
370
     0
100
AcDbText
 10
5031.277143812345
 20
-4295.623493567732
 30
0.0
 40
68.58
  1
,
  7
ＭＳ ゴシック
100
AcDbText
  0
LINE
  5
45F
330
1F
100
AcDbEntity
  8
0-0_補助線
  6
JWW_HOJO
 62
   120
370
     5
100
AcDbLine
 10
-5999.99998453501
 20
670.5001831054692
 30
0.0
 11
5699.998762800888
 21
670.5001831054692
 31
0.0
  0
LINE
  5
460
330
1F
100
AcDbEntity
  8
0-0_補助線
  6
JWW_HOJO
 62
   120
370
     5
100
AcDbLine
 10
-5999.99998453501
 20
550.5001831054688
 30
0.0
 11
5699.998762800888
 21
550.5001831054688
 31
0.0
  0
LINE
  5
461
330
1F
100
AcDbEntity
  8
0-0_補助線
  6
JWW_HOJO
 62
   120
370
     5
100
AcDbLine
 10
-5999.99998453501
 20
430.5001831054688
 30
0.0
 11
5699.998762800888
 21
430.5001831054688
 31
0.0
  0
LINE
  5
462
330
1F
100
AcDbEntity
  8
0-0_補助線
  6
JWW_HOJO
 62
   120
370
     5
100
AcDbLine
 10
-5999.99998453501
 20
310.5001831054688
 30
0.0
 11
5699.998762800888
 21
310.5001831054688
 31
0.0
  0
LINE
  5
463
330
1F
100
AcDbEntity
  8
0-0_補助線
  6
JWW_HOJO
 62
   120
370
     5
100
AcDbLine
 10
-906.7996710699953
 20
4174.999769056166
 30
0.0
 11
-906.7996710699953
 21
-3790.000179909371
 31
0.0
  0
LINE
  5
464
330
1F
100
AcDbEntity
  8
0-0_補助線
  6
JWW_HOJO
 62
   120
370
     5
100
AcDbLine
 10
1324.8000851193
 20
4174.999769056166
 30
0.0
 11
1324.8000851193
 21
-3790.000179909371
 31
0.0
  0
LINE
  5
465
330
1F
100
AcDbEntity
  8
0-0_補助線
  6
JWW_HOJO
 62
   120
370
     5
100
AcDbLine
 10
3556.400212468328
 20
4174.999769056166
 30
0.0
 11
3556.400212468328
 21
-3790.000179909371
 31
0.0
  0
LINE
  5
466
330
1F
100
AcDbEntity
  8
0-0_補助線
  6
JWW_HOJO
 62
   120
370
     5
100
AcDbLine
 10
5699.998762800888
 20
-3310.000017526988
 30
0.0
 11
-5999.99998453501
 21
-3310.000017526988
 31
0.0
  0
LINE
  5
467
330
1F
100
AcDbEntity
  8
0-0_補助線
  6
JWW_HOJO
 62
   120
370
     5
100
AcDbLine
 10
5699.998762800888
 20
-3430.000017526988
 30
0.0
 11
-5999.99998453501
 21
-3430.000017526988
 31
0.0
  0
LINE
  5
468
330
1F
100
AcDbEntity
  8
0-0_補助線
  6
JWW_HOJO
 62
   120
370
     5
100
AcDbLine
 10
5699.998762800888
 20
-3550.000017526988
 30
0.0
 11
-5999.99998453501
 21
-3550.000017526988
 31
0.0
  0
LINE
  5
469
330
1F
100
AcDbEntity
  8
0-0_補助線
  6
JWW_HOJO
 62
   120
370
     5
100
AcDbLine
 10
5699.998762800888
 20
-3670.000017526988
 30
0.0
 11
-5999.99998453501
 21
-3670.000017526988
 31
0.0
  0
LINE
  5
46A
330
1F
100
AcDbEntity
  8
0-0_補助線
  6
JWW_HOJO
 62
   120
370
     5
100
AcDbLine
 10
-3138.399798419025
 20
4174.999769056166
 30
0.0
 11
-3138.399798419025
 21
-3790.000179909371
 31
0.0
  0
LINE
  5
46B
330
1F
100
AcDbEntity
  8
0-0_補助線
  6
JWW_HOJO
 62
   120
370
     5
100
AcDbLine
 10
-5370.000018557986
 20
4174.999769056166
 30
0.0
 11
-5370.000018557986
 21
-3790.000179909371
 31
0.0
  0
TEXT
  5
46C
330
1F
100
AcDbEntity
  8
0-A_文字
  6
Continuous
 62
     7
370
     9
100
AcDbText
 10
-5370.000018557986
 20
441.0751831054687
 30
0.0
 40
57.15000000000001
  1
※F-FTは縦木目柄、F-FYは横木目柄のデザインとなります。
 41
0.9999999999999999
  7
ＭＳ ゴシック
100
AcDbText
  0
TEXT
  5
46D
330
1F
100
AcDbEntity
  8
0-A_文字
  6
Continuous
 62
     7
370
     9
100
AcDbText
 10
-3138.399798419025
 20
441.0751831054687
 30
0.0
 40
57.15000000000001
  1
※F-FTは縦木目柄、F-FYは横木目柄のデザインとなります。
 41
0.9999999999999999
  7
ＭＳ ゴシック
100
AcDbText
  0
TEXT
  5
46E
330
1F
100
AcDbEntity
  8
0-A_文字
  6
Continuous
 62
     7
370
     9
100
AcDbText
 10
-906.7996710699953
 20
441.0751831054687
 30
0.0
 40
57.15000000000001
  1
※F-FTは縦木目柄、F-FYは横木目柄のデザインとなります。
 41
0.9999999999999999
  7
ＭＳ ゴシック
100
AcDbText
  0
TEXT
  5
46F
330
1F
100
AcDbEntity
  8
0-A_文字
  6
Continuous
 62
     7
370
     9
100
AcDbText
 10
1324.8000851193
 20
441.0751831054687
 30
0.0
 40
57.15000000000001
  1
※F-FTは縦木目柄、F-FYは横木目柄のデザインとなります。
 41
0.9999999999999999
  7
ＭＳ ゴシック
100
AcDbText
  0
TEXT
  5
470
330
1F
100
AcDbEntity
  8
0-A_文字
  6
Continuous
 62
     7
370
     9
100
AcDbText
 10
3556.400212468328
 20
441.0751831054687
 30
0.0
 40
57.15000000000001
  1
※F-FTは縦木目柄、F-FYは横木目柄のデザインとなります。
 41
0.9999999999999999
  7
ＭＳ ゴシック
100
AcDbText
  0
TEXT
  5
471
330
1F
100
AcDbEntity
  8
0-A_文字
  6
Continuous
 62
     7
370
     9
100
AcDbText
 10
-5370.000018557986
 20
-3419.425017526989
 30
0.0
 40
57.15000000000001
  1
※F-FTは縦木目柄、F-FYは横木目柄のデザインとなります。
 41
0.9999999999999999
  7
ＭＳ ゴシック
100
AcDbText
  0
TEXT
  5
472
330
1F
100
AcDbEntity
  8
0-A_文字
  6
Continuous
 62
     7
370
     9
100
AcDbText
 10
-3138.399798419025
 20
-3419.425017526989
 30
0.0
 40
57.15000000000001
  1
※F-FTは縦木目柄、F-FYは横木目柄のデザインとなります。
 41
0.9999999999999999
  7
ＭＳ ゴシック
100
AcDbText
  0
TEXT
  5
473
330
1F
100
AcDbEntity
  8
0-A_文字
  6
Continuous
 62
     7
370
     9
100
AcDbText
 10
-5136.649798419024
 20
4032.689901024072
 30
0.0
 40
68.58
  1
Ｆ－ＦＴ／Ｆ－ＦＹ　Ｈ＝３尺
 41
1.154761904761905
  7
ＭＳ ゴシック
100
AcDbText
  0
TEXT
  5
474
330
1F
100
AcDbEntity
  8
0-A_文字
  6
Continuous
 62
     7
370
     9
100
AcDbText
 10
-5215.399798419024
 20
52.18993236644843
 30
0.0
 40
68.58
  1
Ｆ－ＦＴ／Ｆ－ＦＹ　中連　Ｈ＝３尺
 41
1.156862745098039
  7
ＭＳ ゴシック
100
AcDbText
  0
TEXT
  5
475
330
1F
100
AcDbEntity
  8
0-A_文字
  6
Continuous
 62
     7
370
     9
100
AcDbText
 10
-2983.799671069995
 20
52.18993236644843
 30
0.0
 40
68.58
  1
Ｆ－ＦＴ／Ｆ－ＦＹ　中連　Ｈ＝４尺
 41
1.156862745098039
  7
ＭＳ ゴシック
100
AcDbText
  0
TEXT
  5
476
330
1F
100
AcDbEntity
  8
F-A_文字
  6
Continuous
 62
     7
370
     9
100
AcDbText
 10
3094.998977248734
 20
-4127.313118467413
 30
0.0
 40
68.58
  1
F06(X)-FTFY_B02
 41
1.155555555555557
  7
ＭＳ ゴシック
100
AcDbText
  0
TEXT
  5
477
330
1F
100
AcDbEntity
  8
F-A_文字
  6
Continuous
 62
     7
370
     0
100
AcDbText
 10
4778.749126529666
 20
-3919.814510139966
 30
0.0
 40
68.58
  1
2019.01.21
 41
1.15
  7
ＭＳ ゴシック
100
AcDbText
  0
ENDSEC
  0
SECTION
  2
OBJECTS
  0
DICTIONARY
  5
C
330
0
100
AcDbDictionary
281
     1
  3
ACAD_DETAILVIEWSTYLE
350
4AF
  3
ACAD_GROUP
350
D
  3
ACAD_LAYOUT
350
1A
  3
ACAD_MATERIAL
350
43
  3
ACAD_MLEADERSTYLE
350
6B
  3
ACAD_MLINESTYLE
350
17
  3
ACAD_PLOTSETTINGS
350
19
  3
ACAD_PLOTSTYLENAME
350
E
  3
ACAD_SCALELIST
350
47
  3
ACAD_SECTIONVIEWSTYLE
350
4B0
  3
ACAD_TABLESTYLE
350
69
  3
ACAD_VISUALSTYLE
350
2A
  3
ACDB_RECOMPOSE_DATA
350
4AC
  3
AcDbVariableDictionary
350
478
  0
SUN
  5
6D
330
29
100
AcDbSun
 90
        1
290
     0
 63
     7
421
 16777215
 40
1.0
291
     1
 91
  2455826
 92
 54000000
292
     0
 70
     2
 71
   256
280
     1
  0
DICTIONARY
  5
4AF
102
{ACAD_REACTORS
330
C
102
}
330
C
100
AcDbDictionary
281
     1
  0
DICTIONARY
  5
D
102
{ACAD_REACTORS
330
C
102
}
330
C
100
AcDbDictionary
281
     1
  0
DICTIONARY
  5
1A
102
{ACAD_REACTORS
330
C
102
}
330
C
100
AcDbDictionary
281
     1
  3
Layout1
350
1E
  3
Layout2
350
26
  3
Model
350
22
  0
DICTIONARY
  5
43
102
{ACAD_REACTORS
330
C
102
}
330
C
100
AcDbDictionary
281
     1
  3
ByBlock
350
45
  3
ByLayer
350
44
  3
Global
350
46
  0
DICTIONARY
  5
6B
102
{ACAD_REACTORS
330
C
102
}
330
C
100
AcDbDictionary
281
     1
  3
Standard
350
6C
  0
DICTIONARY
  5
17
102
{ACAD_REACTORS
330
C
102
}
330
C
100
AcDbDictionary
281
     1
  3
Standard
350
18
  0
DICTIONARY
  5
19
102
{ACAD_REACTORS
330
C
102
}
330
C
100
AcDbDictionary
281
     1
  0
ACDBDICTIONARYWDFLT
  5
E
102
{ACAD_REACTORS
330
C
102
}
330
C
100
AcDbDictionary
281
     1
  3
Normal
350
F
100
AcDbDictionaryWithDefault
340
F
  0
DICTIONARY
  5
47
102
{ACAD_REACTORS
330
C
102
}
330
C
100
AcDbDictionary
281
     1
  3
A0
350
48
  3
A1
350
49
  3
A2
350
4A
  3
A3
350
4B
  3
A4
350
4C
  3
A5
350
4D
  3
A6
350
4E
  3
A7
350
4F
  3
A8
350
50
  3
A9
350
51
  3
B0
350
52
  3
B1
350
53
  3
B2
350
54
  3
B3
350
55
  3
B4
350
56
  3
B5
350
57
  3
B6
350
58
  3
B7
350
59
  3
B8
350
5A
  3
B9
350
5B
  3
C0
350
5C
  3
C1
350
5D
  3
C2
350
5E
  3
C3
350
5F
  3
C4
350
60
  3
C5
350
61
  3
C6
350
62
  3
C7
350
63
  3
C8
350
64
  3
C9
350
65
  3
D0
350
66
  3
D1
350
67
  3
D2
350
68
  0
DICTIONARY
  5
4B0
102
{ACAD_REACTORS
330
C
102
}
330
C
100
AcDbDictionary
281
     1
  0
DICTIONARY
  5
69
102
{ACAD_REACTORS
330
C
102
}
330
C
100
AcDbDictionary
281
     1
  3
Standard
350
6A
  0
DICTIONARY
  5
2A
102
{ACAD_REACTORS
330
C
102
}
330
C
100
AcDbDictionary
281
     1
  3
2dWireframe
350
2F
  3
Basic
350
32
  3
Brighten
350
36
  3
ColorChange
350
3A
  3
Conceptual
350
34
  3
Dim
350
35
  3
EdgeColorOff
350
3D
  3
Facepattern
350
39
  3
Flat
350
2B
  3
FlatWithEdges
350
2C
  3
Gouraud
350
2D
  3
GouraudWithEdges
350
2E
  3
Hidden
350
31
  3
JitterOff
350
3B
  3
Linepattern
350
38
  3
OverhangOff
350
3C
  3
Realistic
350
33
  3
Shaded
350
42
  3
Shaded with edges
350
41
  3
Shades of Gray
350
3E
  3
Sketchy
350
3F
  3
Thicken
350
37
  3
Wireframe
350
30
  3
X-Ray
350
40
  0
XRECORD
  5
4AC
102
{ACAD_REACTORS
330
C
102
}
330
C
100
AcDbXrecord
280
     1
 90
        1
330
6A
  0
DICTIONARY
  5
478
102
{ACAD_REACTORS
330
C
102
}
330
C
100
AcDbDictionary
281
     1
  3
CANNOSCALE
350
479
  3
CENTEREXE
350
4B1
  3
CENTERLTYPEFILE
350
4B2
  3
CMLEADERSTYLE
350
4AE
  3
CTABLESTYLE
350
4AD
  0
LAYOUT
  5
1E
102
{ACAD_REACTORS
330
1A
102
}
330
1A
100
AcDbPlotSettings
  1

  2
none_device
  4

  6

 40
0.0
 41
0.0
 42
0.0
 43
0.0
 44
0.0
 45
0.0
 46
0.0
 47
0.0
 48
0.0
 49
0.0
140
0.0
141
0.0
142
1.0
143
1.0
 70
   688
 72
     1
 73
     0
 74
     5
  7

 75
    16
 76
     0
 77
     5
 78
   300
147
1.0
148
0.0
149
0.0
100
AcDbLayout
  1
Layout1
 70
     1
 71
     1
 10
0.0
 20
0.0
 11
420.0
 21
297.0
 12
0.0
 22
0.0
 32
0.0
 14
1.000000000000000E+20
 24
1.000000000000000E+20
 34
1.000000000000000E+20
 15
-1.000000000000000E+20
 25
-1.000000000000000E+20
 35
-1.000000000000000E+20
146
0.0
 13
0.0
 23
0.0
 33
0.0
 16
1.0
 26
0.0
 36
0.0
 17
0.0
 27
1.0
 37
0.0
 76
     0
330
1B
  0
LAYOUT
  5
26
102
{ACAD_REACTORS
330
1A
102
}
330
1A
100
AcDbPlotSettings
  1

  2
none_device
  4

  6

 40
0.0
 41
0.0
 42
0.0
 43
0.0
 44
0.0
 45
0.0
 46
0.0
 47
0.0
 48
0.0
 49
0.0
140
0.0
141
0.0
142
1.0
143
1.0
 70
   688
 72
     1
 73
     0
 74
     5
  7

 75
    16
 76
     0
 77
     5
 78
   300
147
1.0
148
0.0
149
0.0
100
AcDbLayout
  1
Layout2
 70
     1
 71
     2
 10
0.0
 20
0.0
 11
0.0
 21
0.0
 12
0.0
 22
0.0
 32
0.0
 14
0.0
 24
0.0
 34
0.0
 15
0.0
 25
0.0
 35
0.0
146
0.0
 13
0.0
 23
0.0
 33
0.0
 16
1.0
 26
0.0
 36
0.0
 17
0.0
 27
1.0
 37
0.0
 76
     0
330
23
  0
LAYOUT
  5
22
102
{ACAD_REACTORS
330
1A
102
}
330
1A
100
AcDbPlotSettings
  1

  2
none_device
  4
Letter_(8.50_x_11.00_Inches)
  6

 40
6.35
 41
6.35
 42
6.35000508
 43
6.35000508
 44
215.9
 45
279.4
 46
0.0
 47
0.0
 48
0.0
 49
0.0
140
0.0
141
0.0
142
1.0
143
1.0
 70
  1712
 72
     1
 73
     0
 74
     0
  7

 75
     0
 76
     0
 77
     5
 78
   300
147
1.0
148
0.0
149
0.0
100
AcDbLayout
  1
Model
 70
     1
 71
     0
 10
-6300.0
 20
-4455.0
 11
6300.0
 21
4455.0
 12
0.0
 22
0.0
 32
0.0
 14
-6300.0
 24
-4455.0
 34
0.0
 15
6300.0
 25
4455.0
 35
0.0
146
0.0
 13
0.0
 23
0.0
 33
0.0
 16
1.0
 26
0.0
 36
0.0
 17
0.0
 27
1.0
 37
0.0
 76
     0
330
1F
331
29
  0
MATERIAL
  5
45
102
{ACAD_REACTORS
330
43
102
}
330
43
100
AcDbMaterial
  1
ByBlock
 72
     1
 94
      127
  0
MATERIAL
  5
44
102
{ACAD_REACTORS
330
43
102
}
330
43
100
AcDbMaterial
  1
ByLayer
 72
     1
 94
      127
  0
MATERIAL
  5
46
102
{ACAD_REACTORS
330
43
102
}
330
43
100
AcDbMaterial
  1
Global
 72
     1
 94
      127
  0
MLEADERSTYLE
  5
6C
102
{ACAD_REACTORS
330
6B
102
}
330
6B
100
AcDbMLeaderStyle
179
     2
170
     2
171
     1
172
     0
 90
        2
 40
0.0
 41
0.0
173
     1
 91
-1056964608
340
14
 92
       -2
290
     1
 42
2.0
291
     1
 43
8.0
  3
Standard
341
0
 44
4.0
300

342
11
174
     1
178
     6
175
     1
176
     0
 93
-1056964608
 45
4.0
292
     0
297
     0
 46
4.0
343
0
 94
-1056964608
 47
1.0
 49
1.0
140
1.0
293
     1
141
0.0
294
     1
177
     0
142
1.0
295
     0
296
     0
143
3.75
271
     0
272
     9
273
     9
  0
MLINESTYLE
  5
18
102
{ACAD_REACTORS
330
17
102
}
330
17
100
AcDbMlineStyle
  2
Standard
 70
     0
  3

 62
   256
 51
90.0
 52
90.0
 71
     2
 49
0.5
 62
   256
  6
BYLAYER
 49
-0.5
 62
   256
  6
BYLAYER
  0
ACDBPLACEHOLDER
  5
F
102
{ACAD_REACTORS
330
E
102
}
330
E
  0
SCALE
  5
48
102
{ACAD_REACTORS
330
47
102
}
330
47
100
AcDbScale
 70
     0
300
1:1
140
1.0
141
1.0
290
     1
  0
SCALE
  5
49
102
{ACAD_REACTORS
330
47
102
}
330
47
100
AcDbScale
 70
     0
300
1:2
140
1.0
141
2.0
290
     0
  0
SCALE
  5
4A
102
{ACAD_REACTORS
330
47
102
}
330
47
100
AcDbScale
 70
     0
300
1:4
140
1.0
141
4.0
290
     0
  0
SCALE
  5
4B
102
{ACAD_REACTORS
330
47
102
}
330
47
100
AcDbScale
 70
     0
300
1:5
140
1.0
141
5.0
290
     0
  0
SCALE
  5
4C
102
{ACAD_REACTORS
330
47
102
}
330
47
100
AcDbScale
 70
     0
300
1:8
140
1.0
141
8.0
290
     0
  0
SCALE
  5
4D
102
{ACAD_REACTORS
330
47
102
}
330
47
100
AcDbScale
 70
     0
300
1:10
140
1.0
141
10.0
290
     0
  0
SCALE
  5
4E
102
{ACAD_REACTORS
330
47
102
}
330
47
100
AcDbScale
 70
     0
300
1:16
140
1.0
141
16.0
290
     0
  0
SCALE
  5
4F
102
{ACAD_REACTORS
330
47
102
}
330
47
100
AcDbScale
 70
     0
300
1:20
140
1.0
141
20.0
290
     0
  0
SCALE
  5
50
102
{ACAD_REACTORS
330
47
102
}
330
47
100
AcDbScale
 70
     0
300
1:30
140
1.0
141
30.0
290
     0
  0
SCALE
  5
51
102
{ACAD_REACTORS
330
47
102
}
330
47
100
AcDbScale
 70
     0
300
1:40
140
1.0
141
40.0
290
     0
  0
SCALE
  5
52
102
{ACAD_REACTORS
330
47
102
}
330
47
100
AcDbScale
 70
     0
300
1:50
140
1.0
141
50.0
290
     0
  0
SCALE
  5
53
102
{ACAD_REACTORS
330
47
102
}
330
47
100
AcDbScale
 70
     0
300
1:100
140
1.0
141
100.0
290
     0
  0
SCALE
  5
54
102
{ACAD_REACTORS
330
47
102
}
330
47
100
AcDbScale
 70
     0
300
2:1
140
2.0
141
1.0
290
     0
  0
SCALE
  5
55
102
{ACAD_REACTORS
330
47
102
}
330
47
100
AcDbScale
 70
     0
300
4:1
140
4.0
141
1.0
290
     0
  0
SCALE
  5
56
102
{ACAD_REACTORS
330
47
102
}
330
47
100
AcDbScale
 70
     0
300
8:1
140
8.0
141
1.0
290
     0
  0
SCALE
  5
57
102
{ACAD_REACTORS
330
47
102
}
330
47
100
AcDbScale
 70
     0
300
10:1
140
10.0
141
1.0
290
     0
  0
SCALE
  5
58
102
{ACAD_REACTORS
330
47
102
}
330
47
100
AcDbScale
 70
     0
300
100:1
140
100.0
141
1.0
290
     0
  0
SCALE
  5
59
102
{ACAD_REACTORS
330
47
102
}
330
47
100
AcDbScale
 70
     0
300
1/128" = 1'-0"
140
0.0078125
141
12.0
290
     0
  0
SCALE
  5
5A
102
{ACAD_REACTORS
330
47
102
}
330
47
100
AcDbScale
 70
     0
300
1/64" = 1'-0"
140
0.015625
141
12.0
290
     0
  0
SCALE
  5
5B
102
{ACAD_REACTORS
330
47
102
}
330
47
100
AcDbScale
 70
     0
300
1/32" = 1'-0"
140
0.03125
141
12.0
290
     0
  0
SCALE
  5
5C
102
{ACAD_REACTORS
330
47
102
}
330
47
100
AcDbScale
 70
     0
300
1/16" = 1'-0"
140
0.0625
141
12.0
290
     0
  0
SCALE
  5
5D
102
{ACAD_REACTORS
330
47
102
}
330
47
100
AcDbScale
 70
     0
300
3/32" = 1'-0"
140
0.09375
141
12.0
290
     0
  0
SCALE
  5
5E
102
{ACAD_REACTORS
330
47
102
}
330
47
100
AcDbScale
 70
     0
300
1/8" = 1'-0"
140
0.125
141
12.0
290
     0
  0
SCALE
  5
5F
102
{ACAD_REACTORS
330
47
102
}
330
47
100
AcDbScale
 70
     0
300
3/16" = 1'-0"
140
0.1875
141
12.0
290
     0
  0
SCALE
  5
60
102
{ACAD_REACTORS
330
47
102
}
330
47
100
AcDbScale
 70
     0
300
1/4" = 1'-0"
140
0.25
141
12.0
290
     0
  0
SCALE
  5
61
102
{ACAD_REACTORS
330
47
102
}
330
47
100
AcDbScale
 70
     0
300
3/8" = 1'-0"
140
0.375
141
12.0
290
     0
  0
SCALE
  5
62
102
{ACAD_REACTORS
330
47
102
}
330
47
100
AcDbScale
 70
     0
300
1/2" = 1'-0"
140
0.5
141
12.0
290
     0
  0
SCALE
  5
63
102
{ACAD_REACTORS
330
47
102
}
330
47
100
AcDbScale
 70
     0
300
3/4" = 1'-0"
140
0.75
141
12.0
290
     0
  0
SCALE
  5
64
102
{ACAD_REACTORS
330
47
102
}
330
47
100
AcDbScale
 70
     0
300
1" = 1'-0"
140
1.0
141
12.0
290
     0
  0
SCALE
  5
65
102
{ACAD_REACTORS
330
47
102
}
330
47
100
AcDbScale
 70
     0
300
1-1/2" = 1'-0"
140
1.5
141
12.0
290
     0
  0
SCALE
  5
66
102
{ACAD_REACTORS
330
47
102
}
330
47
100
AcDbScale
 70
     0
300
3" = 1'-0"
140
3.0
141
12.0
290
     0
  0
SCALE
  5
67
102
{ACAD_REACTORS
330
47
102
}
330
47
100
AcDbScale
 70
     0
300
6" = 1'-0"
140
6.0
141
12.0
290
     0
  0
SCALE
  5
68
102
{ACAD_REACTORS
330
47
102
}
330
47
100
AcDbScale
 70
     0
300
1'-0" = 1'-0"
140
12.0
141
12.0
290
     0
  0
TABLESTYLE
  5
6A
102
{ACAD_REACTORS
330
69
102
}
102
{ACAD_XDICTIONARY
360
4AA
102
}
330
69
100
AcDbTableStyle
  3
Standard
 70
     0
 71
     0
 40
0.06
 41
0.06
280
     0
281
     0
  7
Standard
140
4.5
170
     2
 62
     0
 63
   257
283
     0
 90
        4
 91
        0
  1

274
    -2
284
     1
 64
     0
275
    -2
285
     1
 65
     0
276
    -2
286
     1
 66
     0
277
    -2
287
     1
 67
     0
278
    -2
288
     1
 68
     0
279
    -2
289
     1
 69
     0
  7
Standard
140
6.0
170
     5
 62
     0
 63
   257
283
     0
 90
        4
 91
        0
  1

274
    -2
284
     1
 64
     0
275
    -2
285
     1
 65
     0
276
    -2
286
     1
 66
     0
277
    -2
287
     1
 67
     0
278
    -2
288
     1
 68
     0
279
    -2
289
     1
 69
     0
  7
Standard
140
4.5
170
     5
 62
     0
 63
   257
283
     0
 90
        4
 91
        0
  1

274
    -2
284
     1
 64
     0
275
    -2
285
     1
 65
     0
276
    -2
286
     1
 66
     0
277
    -2
287
     1
 67
     0
278
    -2
288
     1
 68
     0
279
    -2
289
     1
 69
     0
  0
VISUALSTYLE
  5
2F
102
{ACAD_REACTORS
330
2A
102
}
102
{ACAD_XDICTIONARY
360
482
102
}
330
2A
100
AcDbVisualStyle
  2
2dWireframe
 70
     4
177
     2
291
     0
 71
     0
176
     1
 72
     2
176
     1
 73
     0
176
     1
 90
        0
176
     1
 40
0.6
176
     1
 41
30.0
176
     1
 62
     5
 63
     7
421
 16777215
176
     1
 74
     1
176
     1
 91
        4
176
     1
 64
     7
176
     1
 65
   257
176
     1
 75
     1
176
     1
175
     1
176
     1
 42
1.0
176
     1
 92
        0
176
     1
 66
   257
176
     1
 43
1.0
176
     1
 76
     1
176
     1
 77
     6
176
     1
 78
     2
176
     1
 67
     7
176
     1
 79
     5
176
     1
170
     0
176
     1
171
     0
176
     1
290
     0
176
     1
 93
        1
176
     1
 44
0.0
176
     1
173
     0
176
     1
  0
VISUALSTYLE
  5
32
102
{ACAD_REACTORS
330
2A
102
}
102
{ACAD_XDICTIONARY
360
488
102
}
330
2A
100
AcDbVisualStyle
  2
Basic
 70
     7
177
     2
291
     1
 71
     1
176
     1
 72
     0
176
     1
 73
     1
176
     1
 90
        0
176
     1
 40
0.6
176
     1
 41
30.0
176
     1
 62
     5
 63
     7
421
 16777215
176
     1
 74
     0
176
     1
 91
        4
176
     1
 64
     7
176
     1
 65
   257
176
     1
 75
     1
176
     1
175
     1
176
     1
 42
1.0
176
     1
 92
        8
176
     1
 66
     7
176
     1
 43
1.0
176
     1
 76
     1
176
     1
 77
     6
176
     1
 78
     2
176
     1
 67
     7
176
     1
 79
     5
176
     1
170
     0
176
     1
171
     0
176
     1
290
     0
176
     1
 93
        1
176
     1
 44
0.0
176
     1
173
     0
176
     1
  0
VISUALSTYLE
  5
36
102
{ACAD_REACTORS
330
2A
102
}
102
{ACAD_XDICTIONARY
360
490
102
}
330
2A
100
AcDbVisualStyle
  2
Brighten
 70
    12
177
     2
291
     1
 71
     2
176
     1
 72
     2
176
     1
 73
     0
176
     1
 90
        0
176
     1
 40
0.6
176
     1
 41
30.0
176
     1
 62
     5
 63
     7
421
 16777215
176
     1
 74
     1
176
     1
 91
        4
176
     1
 64
     7
176
     1
 65
   257
176
     1
 75
     1
176
     1
175
     1
176
     1
 42
1.0
176
     1
 92
        8
176
     1
 66
     7
176
     1
 43
1.0
176
     1
 76
     1
176
     1
 77
     6
176
     1
 78
     2
176
     1
 67
     7
176
     1
 79
     5
176
     1
170
     0
176
     1
171
     0
176
     1
290
     0
176
     1
 93
        1
176
     1
 44
50.0
176
     1
173
     0
176
     1
  0
VISUALSTYLE
  5
3A
102
{ACAD_REACTORS
330
2A
102
}
102
{ACAD_XDICTIONARY
360
498
102
}
330
2A
100
AcDbVisualStyle
  2
ColorChange
 70
    16
177
     2
291
     1
 71
     2
176
     1
 72
     2
176
     1
 73
     3
176
     1
 90
        0
176
     1
 40
0.6
176
     1
 41
30.0
176
     1
 62
     5
 63
     8
421
  8421504
176
     1
 74
     1
176
     1
 91
        4
176
     1
 64
     7
176
     1
 65
   257
176
     1
 75
     1
176
     1
175
     1
176
     1
 42
1.0
176
     1
 92
        8
176
     1
 66
     8
424
  8421504
176
     1
 43
1.0
176
     1
 76
     1
176
     1
 77
     6
176
     1
 78
     2
176
     1
 67
     7
176
     1
 79
     5
176
     1
170
     0
176
     1
171
     0
176
     1
290
     0
176
     1
 93
        1
176
     1
 44
0.0
176
     1
173
     0
176
     1
  0
VISUALSTYLE
  5
34
102
{ACAD_REACTORS
330
2A
102
}
102
{ACAD_XDICTIONARY
360
48C
102
}
330
2A
100
AcDbVisualStyle
  2
Conceptual
 70
     9
177
     2
291
     0
 71
     3
176
     1
 72
     2
176
     1
 73
     0
176
     1
 90
        0
176
     1
 40
0.6
176
     1
 41
30.0
176
     1
 62
     5
 63
     7
421
 16777215
176
     1
 74
     2
176
     1
 91
        2
176
     1
 64
     7
176
     1
 65
   257
176
     1
 75
     1
176
     1
175
     1
176
     1
 42
179.0
176
     1
 92
        8
176
     1
 66
     7
176
     1
 43
1.0
176
     1
 76
     1
176
     1
 77
     6
176
     1
 78
     2
176
     1
 67
     7
176
     1
 79
     3
176
     1
170
     0
176
     1
171
     0
176
     1
290
     0
176
     1
 93
        1
176
     1
 44
0.0
176
     1
173
     0
176
     1
  0
VISUALSTYLE
  5
35
102
{ACAD_REACTORS
330
2A
102
}
102
{ACAD_XDICTIONARY
360
48E
102
}
330
2A
100
AcDbVisualStyle
  2
Dim
 70
    11
177
     2
291
     1
 71
     2
176
     1
 72
     2
176
     1
 73
     0
176
     1
 90
        0
176
     1
 40
0.6
176
     1
 41
30.0
176
     1
 62
     5
 63
     7
421
 16777215
176
     1
 74
     1
176
     1
 91
        4
176
     1
 64
     7
176
     1
 65
   257
176
     1
 75
     1
176
     1
175
     1
176
     1
 42
1.0
176
     1
 92
        8
176
     1
 66
     7
176
     1
 43
1.0
176
     1
 76
     1
176
     1
 77
     6
176
     1
 78
     2
176
     1
 67
     7
176
     1
 79
     5
176
     1
170
     0
176
     1
171
     0
176
     1
290
     0
176
     1
 93
        1
176
     1
 44
-50.0
176
     1
173
     0
176
     1
  0
VISUALSTYLE
  5
3D
102
{ACAD_REACTORS
330
2A
102
}
102
{ACAD_XDICTIONARY
360
49E
102
}
330
2A
100
AcDbVisualStyle
  2
EdgeColorOff
 70
    22
177
     2
291
     1
 71
     2
176
     0
 72
     2
176
     0
 73
     0
176
     0
 90
        0
176
     0
 40
0.6
176
     0
 41
30.0
176
     0
 62
     5
 63
     7
421
 16777215
176
     0
 74
     1
176
     0
 91
        4
176
     0
 64
     7
176
     0
 65
   257
176
     0
 75
     1
176
     0
175
     1
176
     0
 42
1.0
176
     0
 92
        8
176
     2
 66
     7
176
     0
 43
1.0
176
     0
 76
     1
176
     0
 77
     6
176
     0
 78
     2
176
     0
 67
     7
176
     0
 79
     5
176
     0
170
     0
176
     0
171
     0
176
     0
290
     0
176
     0
 93
        1
176
     0
 44
0.0
176
     0
173
     0
176
     0
  0
VISUALSTYLE
  5
39
102
{ACAD_REACTORS
330
2A
102
}
102
{ACAD_XDICTIONARY
360
496
102
}
330
2A
100
AcDbVisualStyle
  2
Facepattern
 70
    15
177
     2
291
     1
 71
     2
176
     1
 72
     2
176
     1
 73
     0
176
     1
 90
        0
176
     1
 40
0.6
176
     1
 41
30.0
176
     1
 62
     5
 63
     7
421
 16777215
176
     1
 74
     1
176
     1
 91
        4
176
     1
 64
     7
176
     1
 65
   257
176
     1
 75
     1
176
     1
175
     1
176
     1
 42
1.0
176
     1
 92
        8
176
     1
 66
     7
176
     1
 43
1.0
176
     1
 76
     1
176
     1
 77
     6
176
     1
 78
     2
176
     1
 67
     7
176
     1
 79
     5
176
     1
170
     0
176
     1
171
     0
176
     1
290
     0
176
     1
 93
        1
176
     1
 44
0.0
176
     1
173
     0
176
     1
  0
VISUALSTYLE
  5
2B
102
{ACAD_REACTORS
330
2A
102
}
102
{ACAD_XDICTIONARY
360
47A
102
}
330
2A
100
AcDbVisualStyle
  2
Flat
 70
     0
177
     2
291
     1
 71
     2
176
     1
 72
     1
176
     1
 73
     1
176
     1
 90
        2
176
     1
 40
0.6
176
     1
 41
30.0
176
     1
 62
     5
 63
     7
421
 16777215
176
     1
 74
     0
176
     1
 91
        0
176
     1
 64
     7
176
     1
 65
   257
176
     1
 75
     1
176
     1
175
     1
176
     1
 42
1.0
176
     1
 92
        8
176
     1
 66
     7
176
     1
 43
1.0
176
     1
 76
     1
176
     1
 77
     6
176
     1
 78
     2
176
     1
 67
     7
176
     1
 79
     5
176
     1
170
     0
176
     1
171
     0
176
     1
290
     0
176
     1
 93
       13
176
     1
 44
0.0
176
     1
173
     0
176
     1
  0
VISUALSTYLE
  5
2C
102
{ACAD_REACTORS
330
2A
102
}
102
{ACAD_XDICTIONARY
360
47C
102
}
330
2A
100
AcDbVisualStyle
  2
FlatWithEdges
 70
     1
177
     2
291
     1
 71
     2
176
     1
 72
     1
176
     1
 73
     1
176
     1
 90
        2
176
     1
 40
0.6
176
     1
 41
30.0
176
     1
 62
     5
 63
     7
421
 16777215
176
     1
 74
     1
176
     1
 91
        0
176
     1
 64
     7
176
     1
 65
   257
176
     1
 75
     1
176
     1
175
     1
176
     1
 42
1.0
176
     1
 92
        0
176
     1
 66
   257
176
     1
 43
1.0
176
     1
 76
     1
176
     1
 77
     6
176
     1
 78
     2
176
     1
 67
     7
176
     1
 79
     5
176
     1
170
     0
176
     1
171
     0
176
     1
290
     0
176
     1
 93
       13
176
     1
 44
0.0
176
     1
173
     0
176
     1
  0
VISUALSTYLE
  5
2D
102
{ACAD_REACTORS
330
2A
102
}
102
{ACAD_XDICTIONARY
360
47E
102
}
330
2A
100
AcDbVisualStyle
  2
Gouraud
 70
     2
177
     2
291
     1
 71
     2
176
     1
 72
     2
176
     1
 73
     1
176
     1
 90
        2
176
     1
 40
0.6
176
     1
 41
30.0
176
     1
 62
     5
 63
     7
421
 16777215
176
     1
 74
     0
176
     1
 91
        0
176
     1
 64
     7
176
     1
 65
   257
176
     1
 75
     1
176
     1
175
     1
176
     1
 42
1.0
176
     1
 92
        0
176
     1
 66
     7
176
     1
 43
1.0
176
     1
 76
     1
176
     1
 77
     6
176
     1
 78
     2
176
     1
 67
     7
176
     1
 79
     5
176
     1
170
     0
176
     1
171
     0
176
     1
290
     0
176
     1
 93
       13
176
     1
 44
0.0
176
     1
173
     0
176
     1
  0
VISUALSTYLE
  5
2E
102
{ACAD_REACTORS
330
2A
102
}
102
{ACAD_XDICTIONARY
360
480
102
}
330
2A
100
AcDbVisualStyle
  2
GouraudWithEdges
 70
     3
177
     2
291
     1
 71
     2
176
     1
 72
     2
176
     1
 73
     1
176
     1
 90
        2
176
     1
 40
0.6
176
     1
 41
30.0
176
     1
 62
     5
 63
     7
421
 16777215
176
     1
 74
     1
176
     1
 91
        0
176
     1
 64
     7
176
     1
 65
   257
176
     1
 75
     1
176
     1
175
     1
176
     1
 42
1.0
176
     1
 92
        0
176
     1
 66
   257
176
     1
 43
1.0
176
     1
 76
     1
176
     1
 77
     6
176
     1
 78
     2
176
     1
 67
     7
176
     1
 79
     5
176
     1
170
     0
176
     1
171
     0
176
     1
290
     0
176
     1
 93
       13
176
     1
 44
0.0
176
     1
173
     0
176
     1
  0
VISUALSTYLE
  5
31
102
{ACAD_REACTORS
330
2A
102
}
102
{ACAD_XDICTIONARY
360
486
102
}
330
2A
100
AcDbVisualStyle
  2
Hidden
 70
     6
177
     2
291
     0
 71
     1
176
     1
 72
     2
176
     1
 73
     2
176
     1
 90
        0
176
     1
 40
0.6
176
     1
 41
30.0
176
     1
 62
     5
 63
     7
421
 16777215
176
     1
 74
     2
176
     1
 91
        2
176
     1
 64
     7
176
     1
 65
   257
176
     1
 75
     2
176
     1
175
     1
176
     1
 42
40.0
176
     1
 92
        0
176
     1
 66
   257
176
     1
 43
1.0
176
     1
 76
     1
176
     1
 77
     6
176
     1
 78
     2
176
     1
 67
     7
176
     1
 79
     3
176
     1
170
     0
176
     1
171
     0
176
     1
290
     0
176
     1
 93
        1
176
     1
 44
0.0
176
     1
173
     0
176
     1
  0
VISUALSTYLE
  5
3B
102
{ACAD_REACTORS
330
2A
102
}
102
{ACAD_XDICTIONARY
360
49A
102
}
330
2A
100
AcDbVisualStyle
  2
JitterOff
 70
    20
177
     2
291
     1
 71
     2
176
     0
 72
     2
176
     0
 73
     0
176
     0
 90
        0
176
     0
 40
0.6
176
     0
 41
30.0
176
     0
 62
     5
 63
     7
421
 16777215
176
     0
 74
     1
176
     0
 91
        4
176
     0
 64
     7
176
     0
 65
   257
176
     0
 75
     1
176
     0
175
     1
176
     0
 42
1.0
176
     0
 92
       10
176
     2
 66
     7
176
     0
 43
1.0
176
     0
 76
     1
176
     0
 77
     6
176
     0
 78
     2
176
     0
 67
     7
176
     0
 79
     5
176
     0
170
     0
176
     0
171
     0
176
     0
290
     0
176
     0
 93
        1
176
     0
 44
0.0
176
     0
173
     0
176
     0
  0
VISUALSTYLE
  5
38
102
{ACAD_REACTORS
330
2A
102
}
102
{ACAD_XDICTIONARY
360
494
102
}
330
2A
100
AcDbVisualStyle
  2
Linepattern
 70
    14
177
     2
291
     1
 71
     2
176
     1
 72
     2
176
     1
 73
     0
176
     1
 90
        0
176
     1
 40
0.6
176
     1
 41
30.0
176
     1
 62
     5
 63
     7
421
 16777215
176
     1
 74
     1
176
     1
 91
        4
176
     1
 64
     7
176
     1
 65
   257
176
     1
 75
     7
176
     1
175
     7
176
     1
 42
1.0
176
     1
 92
        8
176
     1
 66
     7
176
     1
 43
1.0
176
     1
 76
     1
176
     1
 77
     6
176
     1
 78
     2
176
     1
 67
     7
176
     1
 79
     5
176
     1
170
     0
176
     1
171
     0
176
     1
290
     0
176
     1
 93
        1
176
     1
 44
0.0
176
     1
173
     0
176
     1
  0
VISUALSTYLE
  5
3C
102
{ACAD_REACTORS
330
2A
102
}
102
{ACAD_XDICTIONARY
360
49C
102
}
330
2A
100
AcDbVisualStyle
  2
OverhangOff
 70
    21
177
     2
291
     1
 71
     2
176
     0
 72
     2
176
     0
 73
     0
176
     0
 90
        0
176
     0
 40
0.6
176
     0
 41
30.0
176
     0
 62
     5
 63
     7
421
 16777215
176
     0
 74
     1
176
     0
 91
        4
176
     0
 64
     7
176
     0
 65
   257
176
     0
 75
     1
176
     0
175
     1
176
     0
 42
1.0
176
     0
 92
        9
176
     2
 66
     7
176
     0
 43
1.0
176
     0
 76
     1
176
     0
 77
     6
176
     0
 78
     2
176
     0
 67
     7
176
     0
 79
     5
176
     0
170
     0
176
     0
171
     0
176
     0
290
     0
176
     0
 93
        1
176
     0
 44
0.0
176
     0
173
     0
176
     0
  0
VISUALSTYLE
  5
33
102
{ACAD_REACTORS
330
2A
102
}
102
{ACAD_XDICTIONARY
360
48A
102
}
330
2A
100
AcDbVisualStyle
  2
Realistic
 70
     8
177
     2
291
     0
 71
     2
176
     1
 72
     3
176
     1
 73
     0
176
     1
 90
        2
176
     1
 40
0.6
176
     1
 41
30.0
176
     1
 62
     5
 63
     7
421
 16777215
176
     1
 74
     0
176
     1
 91
        0
176
     1
 64
     7
176
     1
 65
   257
176
     1
 75
     1
176
     1
175
     1
176
     1
 42
1.0
176
     1
 92
        8
176
     1
 66
   257
176
     1
 43
1.0
176
     1
 76
     1
176
     1
 77
     6
176
     1
 78
     2
176
     1
 67
     7
176
     1
 79
     3
176
     1
170
     0
176
     1
171
     0
176
     1
290
     0
176
     1
 93
       13
176
     1
 44
0.0
176
     1
173
     0
176
     1
  0
VISUALSTYLE
  5
42
102
{ACAD_REACTORS
330
2A
102
}
102
{ACAD_XDICTIONARY
360
4A8
102
}
330
2A
100
AcDbVisualStyle
  2
Shaded
 70
    27
177
     2
291
     0
 71
     2
176
     1
 72
     2
176
     1
 73
     1
176
     1
 90
        2
176
     1
 40
0.6
176
     1
 41
30.0
176
     1
 62
     5
 63
     7
421
 16777215
176
     1
 74
     0
176
     1
 91
        4
176
     1
 64
     7
176
     1
 65
   257
176
     1
 75
     1
176
     1
175
     1
176
     1
 42
1.0
176
     1
 92
        8
176
     1
 66
   257
176
     1
 43
1.0
176
     1
 76
     1
176
     1
 77
     6
176
     1
 78
     2
176
     1
 67
     8
425
  7895160
176
     1
 79
     3
176
     1
170
     0
176
     1
171
     0
176
     1
290
     0
176
     1
 93
        5
176
     1
 44
0.0
176
     1
173
     0
176
     1
  0
VISUALSTYLE
  5
41
102
{ACAD_REACTORS
330
2A
102
}
102
{ACAD_XDICTIONARY
360
4A6
102
}
330
2A
100
AcDbVisualStyle
  2
Shaded with edges
 70
    26
177
     2
291
     0
 71
     2
176
     1
 72
     2
176
     1
 73
     1
176
     1
 90
        2
176
     1
 40
0.6
176
     1
 41
30.0
176
     1
 62
     5
 63
     7
421
 16777215
176
     1
 74
     1
176
     1
 91
       10
176
     1
 64
     7
176
     1
 65
   257
176
     1
 75
     2
176
     1
175
     1
176
     1
 42
1.0
176
     1
 92
        8
176
     1
 66
   257
176
     1
 43
1.0
176
     1
 76
     1
176
     1
 77
     6
176
     1
 78
     2
176
     1
 67
     7
176
     1
 79
     3
176
     1
170
     0
176
     1
171
     0
176
     1
290
     0
176
     1
 93
        5
176
     1
 44
0.0
176
     1
173
     0
176
     1
  0
VISUALSTYLE
  5
3E
102
{ACAD_REACTORS
330
2A
102
}
102
{ACAD_XDICTIONARY
360
4A0
102
}
330
2A
100
AcDbVisualStyle
  2
Shades of Gray
 70
    23
177
     2
291
     0
 71
     2
176
     1
 72
     2
176
     1
 73
     3
176
     1
 90
        0
176
     1
 40
0.6
176
     1
 41
30.0
176
     1
 62
     5
 63
     7
421
 16777215
176
     1
 74
     2
176
     1
 91
        2
176
     1
 64
     7
176
     1
 65
     7
176
     1
 75
     1
176
     1
175
     1
176
     1
 42
40.0
176
     1
 92
        8
176
     1
 66
     7
176
     1
 43
1.0
176
     1
 76
     1
176
     1
 77
     6
176
     1
 78
     2
176
     1
 67
     7
176
     1
 79
     3
176
     1
170
     0
176
     1
171
     0
176
     1
290
     0
176
     1
 93
        1
176
     1
 44
0.0
176
     1
173
     0
176
     1
  0
VISUALSTYLE
  5
3F
102
{ACAD_REACTORS
330
2A
102
}
102
{ACAD_XDICTIONARY
360
4A2
102
}
330
2A
100
AcDbVisualStyle
  2
Sketchy
 70
    24
177
     2
291
     0
 71
     1
176
     1
 72
     2
176
     1
 73
     2
176
     1
 90
        0
176
     1
 40
0.6
176
     1
 41
30.0
176
     1
 62
     5
 63
     7
421
 16777215
176
     1
 74
     2
176
     1
 91
        2
176
     1
 64
     7
176
     1
 65
     7
176
     1
 75
     1
176
     1
175
     1
176
     1
 42
40.0
176
     1
 92
       11
176
     1
 66
     7
176
     1
 43
1.0
176
     1
 76
     1
176
     1
 77
     6
176
     1
 78
     2
176
     1
 67
     7
176
     1
 79
     6
176
     1
170
     0
176
     1
171
     0
176
     1
290
     0
176
     1
 93
        1
176
     1
 44
0.0
176
     1
173
     0
176
     1
  0
VISUALSTYLE
  5
37
102
{ACAD_REACTORS
330
2A
102
}
102
{ACAD_XDICTIONARY
360
492
102
}
330
2A
100
AcDbVisualStyle
  2
Thicken
 70
    13
177
     2
291
     1
 71
     2
176
     1
 72
     2
176
     1
 73
     0
176
     1
 90
        0
176
     1
 40
0.6
176
     1
 41
30.0
176
     1
 62
     5
 63
     7
421
 16777215
176
     1
 74
     1
176
     1
 91
        4
176
     1
 64
     7
176
     1
 65
   257
176
     1
 75
     1
176
     1
175
     1
176
     1
 42
1.0
176
     1
 92
       12
176
     1
 66
     7
176
     1
 43
1.0
176
     1
 76
     1
176
     1
 77
     6
176
     1
 78
     2
176
     1
 67
     7
176
     1
 79
     5
176
     1
170
     0
176
     1
171
     0
176
     1
290
     0
176
     1
 93
        1
176
     1
 44
0.0
176
     1
173
     0
176
     1
  0
VISUALSTYLE
  5
30
102
{ACAD_REACTORS
330
2A
102
}
102
{ACAD_XDICTIONARY
360
484
102
}
330
2A
100
AcDbVisualStyle
  2
Wireframe
 70
     5
177
     2
291
     0
 71
     0
176
     1
 72
     2
176
     1
 73
     0
176
     1
 90
        0
176
     1
 40
0.6
176
     1
 41
30.0
176
     1
 62
     5
 63
     7
421
 16777215
176
     1
 74
     1
176
     1
 91
        4
176
     1
 64
     7
176
     1
 65
   257
176
     1
 75
     1
176
     1
175
     1
176
     1
 42
1.0
176
     1
 92
        0
176
     1
 66
   257
176
     1
 43
1.0
176
     1
 76
     1
176
     1
 77
     6
176
     1
 78
     2
176
     1
 67
     7
176
     1
 79
     3
176
     1
170
     0
176
     1
171
     0
176
     1
290
     0
176
     1
 93
        1
176
     1
 44
0.0
176
     1
173
     0
176
     1
  0
VISUALSTYLE
  5
40
102
{ACAD_REACTORS
330
2A
102
}
102
{ACAD_XDICTIONARY
360
4A4
102
}
330
2A
100
AcDbVisualStyle
  2
X-Ray
 70
    25
177
     2
291
     0
 71
     2
176
     1
 72
     2
176
     1
 73
     1
176
     1
 90
        1
176
     1
 40
0.5
176
     1
 41
30.0
176
     1
 62
     5
 63
     7
421
 16777215
176
     1
 74
     1
176
     1
 91
        0
176
     1
 64
     7
176
     1
 65
   257
176
     1
 75
     1
176
     1
175
     1
176
     1
 42
1.0
176
     1
 92
        8
176
     1
 66
     7
176
     1
 43
1.0
176
     1
 76
     1
176
     1
 77
     6
176
     1
 78
     2
176
     1
 67
     7
176
     1
 79
     3
176
     1
170
     0
176
     1
171
     0
176
     1
290
     0
176
     1
 93
       13
176
     1
 44
0.0
176
     1
173
     0
176
     1
  0
DICTIONARYVAR
  5
479
102
{ACAD_REACTORS
330
478
102
}
330
478
100
DictionaryVariables
280
     0
  1
1:1
  0
DICTIONARYVAR
  5
4B1
102
{ACAD_REACTORS
330
478
102
}
330
478
100
DictionaryVariables
280
     0
  1
3.500000
  0
DICTIONARYVAR
  5
4B2
102
{ACAD_REACTORS
330
478
102
}
330
478
100
DictionaryVariables
280
     0
  1
acadiso.lin
  0
DICTIONARYVAR
  5
4AE
102
{ACAD_REACTORS
330
478
102
}
330
478
100
DictionaryVariables
280
     0
  1
Standard
  0
DICTIONARYVAR
  5
4AD
102
{ACAD_REACTORS
330
478
102
}
330
478
100
DictionaryVariables
280
     0
  1
Standard
  0
DICTIONARY
  5
4AA
330
6A
100
AcDbDictionary
280
     1
281
     1
  3
ACAD_ROUNDTRIP_2008_TABLESTYLE_CELLSTYLEMAP
360
4AB
  0
DICTIONARY
  5
482
330
2F
100
AcDbDictionary
280
     1
281
     1
  3
ACAD_XREC_ROUNDTRIP
360
483
  0
DICTIONARY
  5
488
330
32
100
AcDbDictionary
280
     1
281
     1
  3
ACAD_XREC_ROUNDTRIP
360
489
  0
DICTIONARY
  5
490
330
36
100
AcDbDictionary
280
     1
281
     1
  3
ACAD_XREC_ROUNDTRIP
360
491
  0
DICTIONARY
  5
498
330
3A
100
AcDbDictionary
280
     1
281
     1
  3
ACAD_XREC_ROUNDTRIP
360
499
  0
DICTIONARY
  5
48C
330
34
100
AcDbDictionary
280
     1
281
     1
  3
ACAD_XREC_ROUNDTRIP
360
48D
  0
DICTIONARY
  5
48E
330
35
100
AcDbDictionary
280
     1
281
     1
  3
ACAD_XREC_ROUNDTRIP
360
48F
  0
DICTIONARY
  5
49E
330
3D
100
AcDbDictionary
280
     1
281
     1
  3
ACAD_XREC_ROUNDTRIP
360
49F
  0
DICTIONARY
  5
496
330
39
100
AcDbDictionary
280
     1
281
     1
  3
ACAD_XREC_ROUNDTRIP
360
497
  0
DICTIONARY
  5
47A
330
2B
100
AcDbDictionary
280
     1
281
     1
  3
ACAD_XREC_ROUNDTRIP
360
47B
  0
DICTIONARY
  5
47C
330
2C
100
AcDbDictionary
280
     1
281
     1
  3
ACAD_XREC_ROUNDTRIP
360
47D
  0
DICTIONARY
  5
47E
330
2D
100
AcDbDictionary
280
     1
281
     1
  3
ACAD_XREC_ROUNDTRIP
360
47F
  0
DICTIONARY
  5
480
330
2E
100
AcDbDictionary
280
     1
281
     1
  3
ACAD_XREC_ROUNDTRIP
360
481
  0
DICTIONARY
  5
486
330
31
100
AcDbDictionary
280
     1
281
     1
  3
ACAD_XREC_ROUNDTRIP
360
487
  0
DICTIONARY
  5
49A
330
3B
100
AcDbDictionary
280
     1
281
     1
  3
ACAD_XREC_ROUNDTRIP
360
49B
  0
DICTIONARY
  5
494
330
38
100
AcDbDictionary
280
     1
281
     1
  3
ACAD_XREC_ROUNDTRIP
360
495
  0
DICTIONARY
  5
49C
330
3C
100
AcDbDictionary
280
     1
281
     1
  3
ACAD_XREC_ROUNDTRIP
360
49D
  0
DICTIONARY
  5
48A
330
33
100
AcDbDictionary
280
     1
281
     1
  3
ACAD_XREC_ROUNDTRIP
360
48B
  0
DICTIONARY
  5
4A8
330
42
100
AcDbDictionary
280
     1
281
     1
  3
ACAD_XREC_ROUNDTRIP
360
4A9
  0
DICTIONARY
  5
4A6
330
41
100
AcDbDictionary
280
     1
281
     1
  3
ACAD_XREC_ROUNDTRIP
360
4A7
  0
DICTIONARY
  5
4A0
330
3E
100
AcDbDictionary
280
     1
281
     1
  3
ACAD_XREC_ROUNDTRIP
360
4A1
  0
DICTIONARY
  5
4A2
330
3F
100
AcDbDictionary
280
     1
281
     1
  3
ACAD_XREC_ROUNDTRIP
360
4A3
  0
DICTIONARY
  5
492
330
37
100
AcDbDictionary
280
     1
281
     1
  3
ACAD_XREC_ROUNDTRIP
360
493
  0
DICTIONARY
  5
484
330
30
100
AcDbDictionary
280
     1
281
     1
  3
ACAD_XREC_ROUNDTRIP
360
485
  0
DICTIONARY
  5
4A4
330
40
100
AcDbDictionary
280
     1
281
     1
  3
ACAD_XREC_ROUNDTRIP
360
4A5
  0
CELLSTYLEMAP
  5
4AB
102
{ACAD_REACTORS
330
4AA
102
}
330
4AA
100
AcDbCellStyleMap
 90
        3
300
CELLSTYLE
  1
TABLEFORMAT_BEGIN
 90
        5
170
     1
 91
        0
 92
    32768
 62
   257
 93
        1
300
CONTENTFORMAT
  1
CONTENTFORMAT_BEGIN
 90
        0
 91
        0
 92
        4
 93
        0
300

 40
0.0
140
1.0
 94
        5
 62
     0
340
11
144
6.0
309
CONTENTFORMAT_END
171
     1
301
MARGIN
  1
CELLMARGIN_BEGIN
 40
1.5
 40
1.5
 40
1.5
 40
1.5
 40
1.5
 40
1.5
309
CELLMARGIN_END
 94
        6
 95
        1
302
GRIDFORMAT
  1
GRIDFORMAT_BEGIN
 90
        0
 91
        1
 62
     0
 92
       -2
340
14
 93
        0
 40
0.045
309
GRIDFORMAT_END
 95
        2
302
GRIDFORMAT
  1
GRIDFORMAT_BEGIN
 90
        0
 91
        1
 62
     0
 92
       -2
340
14
 93
        0
 40
0.045
309
GRIDFORMAT_END
 95
        4
302
GRIDFORMAT
  1
GRIDFORMAT_BEGIN
 90
        0
 91
        1
 62
     0
 92
       -2
340
14
 93
        0
 40
0.045
309
GRIDFORMAT_END
 95
        8
302
GRIDFORMAT
  1
GRIDFORMAT_BEGIN
 90
        0
 91
        1
 62
     0
 92
       -2
340
14
 93
        0
 40
0.045
309
GRIDFORMAT_END
 95
       16
302
GRIDFORMAT
  1
GRIDFORMAT_BEGIN
 90
        0
 91
        1
 62
     0
 92
       -2
340
14
 93
        0
 40
0.045
309
GRIDFORMAT_END
 95
       32
302
GRIDFORMAT
  1
GRIDFORMAT_BEGIN
 90
        0
 91
        1
 62
     0
 92
       -2
340
14
 93
        0
 40
0.045
309
GRIDFORMAT_END
309
TABLEFORMAT_END
  1
CELLSTYLE_BEGIN
 90
        1
 91
        1
300
_TITLE
309
CELLSTYLE_END
300
CELLSTYLE
  1
TABLEFORMAT_BEGIN
 90
        5
170
     1
 91
        0
 92
        0
 62
   257
 93
        1
300
CONTENTFORMAT
  1
CONTENTFORMAT_BEGIN
 90
        0
 91
        0
 92
        4
 93
        0
300

 40
0.0
140
1.0
 94
        5
 62
     0
340
11
144
4.5
309
CONTENTFORMAT_END
171
     1
301
MARGIN
  1
CELLMARGIN_BEGIN
 40
1.5
 40
1.5
 40
1.5
 40
1.5
 40
1.5
 40
1.5
309
CELLMARGIN_END
 94
        6
 95
        1
302
GRIDFORMAT
  1
GRIDFORMAT_BEGIN
 90
        0
 91
        1
 62
     0
 92
       -2
340
14
 93
        0
 40
0.045
309
GRIDFORMAT_END
 95
        2
302
GRIDFORMAT
  1
GRIDFORMAT_BEGIN
 90
        0
 91
        1
 62
     0
 92
       -2
340
14
 93
        0
 40
0.045
309
GRIDFORMAT_END
 95
        4
302
GRIDFORMAT
  1
GRIDFORMAT_BEGIN
 90
        0
 91
        1
 62
     0
 92
       -2
340
14
 93
        0
 40
0.045
309
GRIDFORMAT_END
 95
        8
302
GRIDFORMAT
  1
GRIDFORMAT_BEGIN
 90
        0
 91
        1
 62
     0
 92
       -2
340
14
 93
        0
 40
0.045
309
GRIDFORMAT_END
 95
       16
302
GRIDFORMAT
  1
GRIDFORMAT_BEGIN
 90
        0
 91
        1
 62
     0
 92
       -2
340
14
 93
        0
 40
0.045
309
GRIDFORMAT_END
 95
       32
302
GRIDFORMAT
  1
GRIDFORMAT_BEGIN
 90
        0
 91
        1
 62
     0
 92
       -2
340
14
 93
        0
 40
0.045
309
GRIDFORMAT_END
309
TABLEFORMAT_END
  1
CELLSTYLE_BEGIN
 90
        2
 91
        1
300
_HEADER
309
CELLSTYLE_END
300
CELLSTYLE
  1
TABLEFORMAT_BEGIN
 90
        5
170
     1
 91
        0
 92
        0
 62
   257
 93
        1
300
CONTENTFORMAT
  1
CONTENTFORMAT_BEGIN
 90
        0
 91
        0
 92
        4
 93
        0
300

 40
0.0
140
1.0
 94
        2
 62
     0
340
11
144
4.5
309
CONTENTFORMAT_END
171
     1
301
MARGIN
  1
CELLMARGIN_BEGIN
 40
1.5
 40
1.5
 40
1.5
 40
1.5
 40
1.5
 40
1.5
309
CELLMARGIN_END
 94
        6
 95
        1
302
GRIDFORMAT
  1
GRIDFORMAT_BEGIN
 90
        0
 91
        1
 62
     0
 92
       -2
340
14
 93
        0
 40
0.045
309
GRIDFORMAT_END
 95
        2
302
GRIDFORMAT
  1
GRIDFORMAT_BEGIN
 90
        0
 91
        1
 62
     0
 92
       -2
340
14
 93
        0
 40
0.045
309
GRIDFORMAT_END
 95
        4
302
GRIDFORMAT
  1
GRIDFORMAT_BEGIN
 90
        0
 91
        1
 62
     0
 92
       -2
340
14
 93
        0
 40
0.045
309
GRIDFORMAT_END
 95
        8
302
GRIDFORMAT
  1
GRIDFORMAT_BEGIN
 90
        0
 91
        1
 62
     0
 92
       -2
340
14
 93
        0
 40
0.045
309
GRIDFORMAT_END
 95
       16
302
GRIDFORMAT
  1
GRIDFORMAT_BEGIN
 90
        0
 91
        1
 62
     0
 92
       -2
340
14
 93
        0
 40
0.045
309
GRIDFORMAT_END
 95
       32
302
GRIDFORMAT
  1
GRIDFORMAT_BEGIN
 90
        0
 91
        1
 62
     0
 92
       -2
340
14
 93
        0
 40
0.045
309
GRIDFORMAT_END
309
TABLEFORMAT_END
  1
CELLSTYLE_BEGIN
 90
        3
 91
        2
300
_DATA
309
CELLSTYLE_END
  0
XRECORD
  5
483
102
{ACAD_REACTORS
330
482
102
}
330
482
100
AcDbXrecord
280
     1
102
RTVSPost2010Prop28
280
     1
102
RTVSPost2010PropOp28
 70
     1
102
RTVSPost2010Prop29
280
     1
102
RTVSPost2010PropOp29
 70
     1
102
RTVSPost2010Prop30
280
     0
102
RTVSPost2010PropOp30
 70
     1
102
RTVSPost2010Prop31
280
     0
102
RTVSPost2010PropOp31
 70
     1
102
RTVSPost2010Prop32
280
     0
102
RTVSPost2010PropOp32
 70
     1
102
RTVSPost2010Prop33
280
     0
102
RTVSPost2010PropOp33
 70
     1
102
RTVSPost2010Prop34
280
     0
102
RTVSPost2010PropOp34
 70
     1
102
RTVSPost2010Prop35
280
     0
102
RTVSPost2010PropOp35
 70
     1
102
RTVSPost2010Prop36
280
     0
102
RTVSPost2010PropOp36
 70
     1
102
RTVSPost2010Prop37
 90
       50
102
RTVSPost2010PropOp37
 70
     1
102
RTVSPost2010Prop38
140
0.0
102
RTVSPost2010PropOp38
 70
     1
102
RTVSPost2010Prop39
140
1.0
102
RTVSPost2010PropOp39
 70
     1
102
RTVSPost2010Prop40
 90
        0
102
RTVSPost2010PropOp40
 70
     1
102
RTVSPost2010Prop41ColorIndex
 90
       18
102
RTVSPost2010Prop41ColorRGB
 90
        0
102
RTVSPost2010PropOp41
 70
     1
102
RTVSPost2010Prop42
 90
       50
102
RTVSPost2010PropOp42
 70
     1
102
RTVSPost2010Prop43
 90
        3
102
RTVSPost2010PropOp43
 70
     1
102
RTVSPost2010Prop44ColorIndex
 90
        5
102
RTVSPost2010Prop44ColorRGB
 90
      255
102
RTVSPost2010PropOp44
 70
     1
102
RTVSPost2010Prop45
280
     0
102
RTVSPost2010PropOp45
 70
     1
102
RTVSPost2010Prop46
 90
       50
102
RTVSPost2010PropOp46
 70
     1
102
RTVSPost2010Prop47
 90
       50
102
RTVSPost2010PropOp47
 70
     1
102
RTVSPost2010Prop48
 90
       50
102
RTVSPost2010PropOp48
 70
     1
102
RTVSPost2010Prop49
280
     0
102
RTVSPost2010PropOp49
 70
     1
102
RTVSPost2010Prop50
 90
       50
102
RTVSPost2010PropOp50
 70
     1
102
RTVSPost2010Prop51ColorIndex
 90
      256
102
RTVSPost2010Prop51ColorRGB
 90
-16777216
102
RTVSPost2010PropOp51
 70
     0
102
RTVSPost2010Prop52
140
1.0
102
RTVSPost2010PropOp52
 70
     0
102
RTVSPost2010Prop53
 90
        2
102
RTVSPost2010PropOp53
 70
     1
102
RTVSPost2010Prop54
  1
strokes_ogs.tif
102
RTVSPost2010PropOp54
 70
     1
102
RTVSPost2010Prop55
280
     0
102
RTVSPost2010PropOp55
 70
     1
102
RTVSPost2010Prop56
140
1.0
102
RTVSPost2010PropOp56
 70
     1
102
RTVSPost2010Prop57
140
1.0
102
RTVSPost2010PropOp57
 70
     1
  0
XRECORD
  5
489
102
{ACAD_REACTORS
330
488
102
}
330
488
100
AcDbXrecord
280
     1
102
RTVSPost2010Prop28
280
     0
102
RTVSPost2010PropOp28
 70
     1
102
RTVSPost2010Prop29
280
     1
102
RTVSPost2010PropOp29
 70
     1
102
RTVSPost2010Prop30
280
     1
102
RTVSPost2010PropOp30
 70
     1
102
RTVSPost2010Prop31
280
     0
102
RTVSPost2010PropOp31
 70
     1
102
RTVSPost2010Prop32
280
     0
102
RTVSPost2010PropOp32
 70
     1
102
RTVSPost2010Prop33
280
     0
102
RTVSPost2010PropOp33
 70
     1
102
RTVSPost2010Prop34
280
     0
102
RTVSPost2010PropOp34
 70
     1
102
RTVSPost2010Prop35
280
     0
102
RTVSPost2010PropOp35
 70
     1
102
RTVSPost2010Prop36
280
     0
102
RTVSPost2010PropOp36
 70
     1
102
RTVSPost2010Prop37
 90
       50
102
RTVSPost2010PropOp37
 70
     1
102
RTVSPost2010Prop38
140
0.0
102
RTVSPost2010PropOp38
 70
     1
102
RTVSPost2010Prop39
140
1.0
102
RTVSPost2010PropOp39
 70
     1
102
RTVSPost2010Prop40
 90
        0
102
RTVSPost2010PropOp40
 70
     1
102
RTVSPost2010Prop41ColorIndex
 90
       18
102
RTVSPost2010Prop41ColorRGB
 90
        0
102
RTVSPost2010PropOp41
 70
     1
102
RTVSPost2010Prop42
 90
       50
102
RTVSPost2010PropOp42
 70
     1
102
RTVSPost2010Prop43
 90
        3
102
RTVSPost2010PropOp43
 70
     1
102
RTVSPost2010Prop44ColorIndex
 90
        5
102
RTVSPost2010Prop44ColorRGB
 90
      255
102
RTVSPost2010PropOp44
 70
     1
102
RTVSPost2010Prop45
280
     0
102
RTVSPost2010PropOp45
 70
     1
102
RTVSPost2010Prop46
 90
       50
102
RTVSPost2010PropOp46
 70
     1
102
RTVSPost2010Prop47
 90
       50
102
RTVSPost2010PropOp47
 70
     1
102
RTVSPost2010Prop48
 90
       50
102
RTVSPost2010PropOp48
 70
     1
102
RTVSPost2010Prop49
280
     0
102
RTVSPost2010PropOp49
 70
     1
102
RTVSPost2010Prop50
 90
       50
102
RTVSPost2010PropOp50
 70
     1
102
RTVSPost2010Prop51ColorIndex
 90
      256
102
RTVSPost2010Prop51ColorRGB
 90
-16777216
102
RTVSPost2010PropOp51
 70
     0
102
RTVSPost2010Prop52
140
1.0
102
RTVSPost2010PropOp52
 70
     0
102
RTVSPost2010Prop53
 90
        2
102
RTVSPost2010PropOp53
 70
     1
102
RTVSPost2010Prop54
  1
strokes_ogs.tif
102
RTVSPost2010PropOp54
 70
     1
102
RTVSPost2010Prop55
280
     0
102
RTVSPost2010PropOp55
 70
     1
102
RTVSPost2010Prop56
140
1.0
102
RTVSPost2010PropOp56
 70
     1
102
RTVSPost2010Prop57
140
1.0
102
RTVSPost2010PropOp57
 70
     1
  0
XRECORD
  5
491
102
{ACAD_REACTORS
330
490
102
}
330
490
100
AcDbXrecord
280
     1
102
RTVSPost2010Prop28
280
     0
102
RTVSPost2010PropOp28
 70
     1
102
RTVSPost2010Prop29
280
     1
102
RTVSPost2010PropOp29
 70
     1
102
RTVSPost2010Prop30
280
     1
102
RTVSPost2010PropOp30
 70
     1
102
RTVSPost2010Prop31
280
     0
102
RTVSPost2010PropOp31
 70
     1
102
RTVSPost2010Prop32
280
     0
102
RTVSPost2010PropOp32
 70
     1
102
RTVSPost2010Prop33
280
     0
102
RTVSPost2010PropOp33
 70
     1
102
RTVSPost2010Prop34
280
     0
102
RTVSPost2010PropOp34
 70
     1
102
RTVSPost2010Prop35
280
     0
102
RTVSPost2010PropOp35
 70
     1
102
RTVSPost2010Prop36
280
     0
102
RTVSPost2010PropOp36
 70
     1
102
RTVSPost2010Prop37
 90
       50
102
RTVSPost2010PropOp37
 70
     1
102
RTVSPost2010Prop38
140
0.0
102
RTVSPost2010PropOp38
 70
     1
102
RTVSPost2010Prop39
140
1.0
102
RTVSPost2010PropOp39
 70
     1
102
RTVSPost2010Prop40
 90
        0
102
RTVSPost2010PropOp40
 70
     1
102
RTVSPost2010Prop41ColorIndex
 90
       18
102
RTVSPost2010Prop41ColorRGB
 90
        0
102
RTVSPost2010PropOp41
 70
     1
102
RTVSPost2010Prop42
 90
       50
102
RTVSPost2010PropOp42
 70
     1
102
RTVSPost2010Prop43
 90
        3
102
RTVSPost2010PropOp43
 70
     1
102
RTVSPost2010Prop44ColorIndex
 90
        5
102
RTVSPost2010Prop44ColorRGB
 90
      255
102
RTVSPost2010PropOp44
 70
     1
102
RTVSPost2010Prop45
280
     0
102
RTVSPost2010PropOp45
 70
     1
102
RTVSPost2010Prop46
 90
       50
102
RTVSPost2010PropOp46
 70
     1
102
RTVSPost2010Prop47
 90
       50
102
RTVSPost2010PropOp47
 70
     1
102
RTVSPost2010Prop48
 90
       50
102
RTVSPost2010PropOp48
 70
     1
102
RTVSPost2010Prop49
280
     0
102
RTVSPost2010PropOp49
 70
     1
102
RTVSPost2010Prop50
 90
       50
102
RTVSPost2010PropOp50
 70
     1
102
RTVSPost2010Prop51ColorIndex
 90
      256
102
RTVSPost2010Prop51ColorRGB
 90
-16777216
102
RTVSPost2010PropOp51
 70
     0
102
RTVSPost2010Prop52
140
1.0
102
RTVSPost2010PropOp52
 70
     0
102
RTVSPost2010Prop53
 90
        2
102
RTVSPost2010PropOp53
 70
     1
102
RTVSPost2010Prop54
  1
strokes_ogs.tif
102
RTVSPost2010PropOp54
 70
     1
102
RTVSPost2010Prop55
280
     0
102
RTVSPost2010PropOp55
 70
     1
102
RTVSPost2010Prop56
140
1.0
102
RTVSPost2010PropOp56
 70
     1
102
RTVSPost2010Prop57
140
1.0
102
RTVSPost2010PropOp57
 70
     1
  0
XRECORD
  5
499
102
{ACAD_REACTORS
330
498
102
}
330
498
100
AcDbXrecord
280
     1
102
RTVSPost2010Prop28
280
     0
102
RTVSPost2010PropOp28
 70
     1
102
RTVSPost2010Prop29
280
     1
102
RTVSPost2010PropOp29
 70
     1
102
RTVSPost2010Prop30
280
     1
102
RTVSPost2010PropOp30
 70
     1
102
RTVSPost2010Prop31
280
     0
102
RTVSPost2010PropOp31
 70
     1
102
RTVSPost2010Prop32
280
     0
102
RTVSPost2010PropOp32
 70
     1
102
RTVSPost2010Prop33
280
     0
102
RTVSPost2010PropOp33
 70
     1
102
RTVSPost2010Prop34
280
     0
102
RTVSPost2010PropOp34
 70
     1
102
RTVSPost2010Prop35
280
     0
102
RTVSPost2010PropOp35
 70
     1
102
RTVSPost2010Prop36
280
     0
102
RTVSPost2010PropOp36
 70
     1
102
RTVSPost2010Prop37
 90
       50
102
RTVSPost2010PropOp37
 70
     1
102
RTVSPost2010Prop38
140
0.0
102
RTVSPost2010PropOp38
 70
     1
102
RTVSPost2010Prop39
140
1.0
102
RTVSPost2010PropOp39
 70
     1
102
RTVSPost2010Prop40
 90
        0
102
RTVSPost2010PropOp40
 70
     1
102
RTVSPost2010Prop41ColorIndex
 90
       18
102
RTVSPost2010Prop41ColorRGB
 90
        0
102
RTVSPost2010PropOp41
 70
     1
102
RTVSPost2010Prop42
 90
       50
102
RTVSPost2010PropOp42
 70
     1
102
RTVSPost2010Prop43
 90
        3
102
RTVSPost2010PropOp43
 70
     1
102
RTVSPost2010Prop44ColorIndex
 90
        5
102
RTVSPost2010Prop44ColorRGB
 90
      255
102
RTVSPost2010PropOp44
 70
     1
102
RTVSPost2010Prop45
280
     0
102
RTVSPost2010PropOp45
 70
     1
102
RTVSPost2010Prop46
 90
       50
102
RTVSPost2010PropOp46
 70
     1
102
RTVSPost2010Prop47
 90
       50
102
RTVSPost2010PropOp47
 70
     1
102
RTVSPost2010Prop48
 90
       50
102
RTVSPost2010PropOp48
 70
     1
102
RTVSPost2010Prop49
280
     0
102
RTVSPost2010PropOp49
 70
     1
102
RTVSPost2010Prop50
 90
       50
102
RTVSPost2010PropOp50
 70
     1
102
RTVSPost2010Prop51ColorIndex
 90
      256
102
RTVSPost2010Prop51ColorRGB
 90
-16777216
102
RTVSPost2010PropOp51
 70
     0
102
RTVSPost2010Prop52
140
1.0
102
RTVSPost2010PropOp52
 70
     0
102
RTVSPost2010Prop53
 90
        2
102
RTVSPost2010PropOp53
 70
     1
102
RTVSPost2010Prop54
  1
strokes_ogs.tif
102
RTVSPost2010PropOp54
 70
     1
102
RTVSPost2010Prop55
280
     0
102
RTVSPost2010PropOp55
 70
     1
102
RTVSPost2010Prop56
140
1.0
102
RTVSPost2010PropOp56
 70
     1
102
RTVSPost2010Prop57
140
1.0
102
RTVSPost2010PropOp57
 70
     1
  0
XRECORD
  5
48D
102
{ACAD_REACTORS
330
48C
102
}
330
48C
100
AcDbXrecord
280
     1
102
RTVSPost2010Prop28
280
     0
102
RTVSPost2010PropOp28
 70
     1
102
RTVSPost2010Prop29
280
     1
102
RTVSPost2010PropOp29
 70
     1
102
RTVSPost2010Prop30
280
     1
102
RTVSPost2010PropOp30
 70
     1
102
RTVSPost2010Prop31
280
     0
102
RTVSPost2010PropOp31
 70
     1
102
RTVSPost2010Prop32
280
     0
102
RTVSPost2010PropOp32
 70
     1
102
RTVSPost2010Prop33
280
     0
102
RTVSPost2010PropOp33
 70
     1
102
RTVSPost2010Prop34
280
     0
102
RTVSPost2010PropOp34
 70
     1
102
RTVSPost2010Prop35
280
     0
102
RTVSPost2010PropOp35
 70
     1
102
RTVSPost2010Prop36
280
     0
102
RTVSPost2010PropOp36
 70
     1
102
RTVSPost2010Prop37
 90
       50
102
RTVSPost2010PropOp37
 70
     1
102
RTVSPost2010Prop38
140
0.0
102
RTVSPost2010PropOp38
 70
     1
102
RTVSPost2010Prop39
140
1.0
102
RTVSPost2010PropOp39
 70
     1
102
RTVSPost2010Prop40
 90
        0
102
RTVSPost2010PropOp40
 70
     1
102
RTVSPost2010Prop41ColorIndex
 90
       18
102
RTVSPost2010Prop41ColorRGB
 90
        0
102
RTVSPost2010PropOp41
 70
     1
102
RTVSPost2010Prop42
 90
       50
102
RTVSPost2010PropOp42
 70
     1
102
RTVSPost2010Prop43
 90
        3
102
RTVSPost2010PropOp43
 70
     1
102
RTVSPost2010Prop44ColorIndex
 90
        5
102
RTVSPost2010Prop44ColorRGB
 90
      255
102
RTVSPost2010PropOp44
 70
     1
102
RTVSPost2010Prop45
280
     0
102
RTVSPost2010PropOp45
 70
     1
102
RTVSPost2010Prop46
 90
       50
102
RTVSPost2010PropOp46
 70
     1
102
RTVSPost2010Prop47
 90
       50
102
RTVSPost2010PropOp47
 70
     1
102
RTVSPost2010Prop48
 90
       50
102
RTVSPost2010PropOp48
 70
     1
102
RTVSPost2010Prop49
280
     0
102
RTVSPost2010PropOp49
 70
     1
102
RTVSPost2010Prop50
 90
       50
102
RTVSPost2010PropOp50
 70
     1
102
RTVSPost2010Prop51ColorIndex
 90
      256
102
RTVSPost2010Prop51ColorRGB
 90
-16777216
102
RTVSPost2010PropOp51
 70
     0
102
RTVSPost2010Prop52
140
1.0
102
RTVSPost2010PropOp52
 70
     0
102
RTVSPost2010Prop53
 90
        2
102
RTVSPost2010PropOp53
 70
     1
102
RTVSPost2010Prop54
  1
strokes_ogs.tif
102
RTVSPost2010PropOp54
 70
     1
102
RTVSPost2010Prop55
280
     0
102
RTVSPost2010PropOp55
 70
     1
102
RTVSPost2010Prop56
140
1.0
102
RTVSPost2010PropOp56
 70
     1
102
RTVSPost2010Prop57
140
1.0
102
RTVSPost2010PropOp57
 70
     1
  0
XRECORD
  5
48F
102
{ACAD_REACTORS
330
48E
102
}
330
48E
100
AcDbXrecord
280
     1
102
RTVSPost2010Prop28
280
     0
102
RTVSPost2010PropOp28
 70
     1
102
RTVSPost2010Prop29
280
     1
102
RTVSPost2010PropOp29
 70
     1
102
RTVSPost2010Prop30
280
     1
102
RTVSPost2010PropOp30
 70
     1
102
RTVSPost2010Prop31
280
     0
102
RTVSPost2010PropOp31
 70
     1
102
RTVSPost2010Prop32
280
     0
102
RTVSPost2010PropOp32
 70
     1
102
RTVSPost2010Prop33
280
     0
102
RTVSPost2010PropOp33
 70
     1
102
RTVSPost2010Prop34
280
     0
102
RTVSPost2010PropOp34
 70
     1
102
RTVSPost2010Prop35
280
     0
102
RTVSPost2010PropOp35
 70
     1
102
RTVSPost2010Prop36
280
     0
102
RTVSPost2010PropOp36
 70
     1
102
RTVSPost2010Prop37
 90
       50
102
RTVSPost2010PropOp37
 70
     1
102
RTVSPost2010Prop38
140
0.0
102
RTVSPost2010PropOp38
 70
     1
102
RTVSPost2010Prop39
140
1.0
102
RTVSPost2010PropOp39
 70
     1
102
RTVSPost2010Prop40
 90
        0
102
RTVSPost2010PropOp40
 70
     1
102
RTVSPost2010Prop41ColorIndex
 90
       18
102
RTVSPost2010Prop41ColorRGB
 90
        0
102
RTVSPost2010PropOp41
 70
     1
102
RTVSPost2010Prop42
 90
       50
102
RTVSPost2010PropOp42
 70
     1
102
RTVSPost2010Prop43
 90
        3
102
RTVSPost2010PropOp43
 70
     1
102
RTVSPost2010Prop44ColorIndex
 90
        5
102
RTVSPost2010Prop44ColorRGB
 90
      255
102
RTVSPost2010PropOp44
 70
     1
102
RTVSPost2010Prop45
280
     0
102
RTVSPost2010PropOp45
 70
     1
102
RTVSPost2010Prop46
 90
       50
102
RTVSPost2010PropOp46
 70
     1
102
RTVSPost2010Prop47
 90
       50
102
RTVSPost2010PropOp47
 70
     1
102
RTVSPost2010Prop48
 90
       50
102
RTVSPost2010PropOp48
 70
     1
102
RTVSPost2010Prop49
280
     0
102
RTVSPost2010PropOp49
 70
     1
102
RTVSPost2010Prop50
 90
       50
102
RTVSPost2010PropOp50
 70
     1
102
RTVSPost2010Prop51ColorIndex
 90
      256
102
RTVSPost2010Prop51ColorRGB
 90
-16777216
102
RTVSPost2010PropOp51
 70
     0
102
RTVSPost2010Prop52
140
1.0
102
RTVSPost2010PropOp52
 70
     0
102
RTVSPost2010Prop53
 90
        2
102
RTVSPost2010PropOp53
 70
     1
102
RTVSPost2010Prop54
  1
strokes_ogs.tif
102
RTVSPost2010PropOp54
 70
     1
102
RTVSPost2010Prop55
280
     0
102
RTVSPost2010PropOp55
 70
     1
102
RTVSPost2010Prop56
140
1.0
102
RTVSPost2010PropOp56
 70
     1
102
RTVSPost2010Prop57
140
1.0
102
RTVSPost2010PropOp57
 70
     1
  0
XRECORD
  5
49F
102
{ACAD_REACTORS
330
49E
102
}
330
49E
100
AcDbXrecord
280
     1
102
RTVSPost2010Prop28
280
     0
102
RTVSPost2010PropOp28
 70
     0
102
RTVSPost2010Prop29
280
     1
102
RTVSPost2010PropOp29
 70
     0
102
RTVSPost2010Prop30
280
     1
102
RTVSPost2010PropOp30
 70
     0
102
RTVSPost2010Prop31
280
     0
102
RTVSPost2010PropOp31
 70
     0
102
RTVSPost2010Prop32
280
     0
102
RTVSPost2010PropOp32
 70
     0
102
RTVSPost2010Prop33
280
     0
102
RTVSPost2010PropOp33
 70
     0
102
RTVSPost2010Prop34
280
     0
102
RTVSPost2010PropOp34
 70
     0
102
RTVSPost2010Prop35
280
     0
102
RTVSPost2010PropOp35
 70
     0
102
RTVSPost2010Prop36
280
     0
102
RTVSPost2010PropOp36
 70
     0
102
RTVSPost2010Prop37
 90
       50
102
RTVSPost2010PropOp37
 70
     0
102
RTVSPost2010Prop38
140
0.0
102
RTVSPost2010PropOp38
 70
     0
102
RTVSPost2010Prop39
140
1.0
102
RTVSPost2010PropOp39
 70
     0
102
RTVSPost2010Prop40
 90
        0
102
RTVSPost2010PropOp40
 70
     0
102
RTVSPost2010Prop41ColorIndex
 90
       18
102
RTVSPost2010Prop41ColorRGB
 90
        0
102
RTVSPost2010PropOp41
 70
     0
102
RTVSPost2010Prop42
 90
       50
102
RTVSPost2010PropOp42
 70
     0
102
RTVSPost2010Prop43
 90
        3
102
RTVSPost2010PropOp43
 70
     0
102
RTVSPost2010Prop44ColorIndex
 90
        5
102
RTVSPost2010Prop44ColorRGB
 90
      255
102
RTVSPost2010PropOp44
 70
     0
102
RTVSPost2010Prop45
280
     0
102
RTVSPost2010PropOp45
 70
     0
102
RTVSPost2010Prop46
 90
       50
102
RTVSPost2010PropOp46
 70
     0
102
RTVSPost2010Prop47
 90
       50
102
RTVSPost2010PropOp47
 70
     0
102
RTVSPost2010Prop48
 90
       50
102
RTVSPost2010PropOp48
 70
     0
102
RTVSPost2010Prop49
280
     0
102
RTVSPost2010PropOp49
 70
     0
102
RTVSPost2010Prop50
 90
       50
102
RTVSPost2010PropOp50
 70
     0
102
RTVSPost2010Prop51ColorIndex
 90
      256
102
RTVSPost2010Prop51ColorRGB
 90
-16777216
102
RTVSPost2010PropOp51
 70
     0
102
RTVSPost2010Prop52
140
1.0
102
RTVSPost2010PropOp52
 70
     0
102
RTVSPost2010Prop53
 90
        2
102
RTVSPost2010PropOp53
 70
     0
102
RTVSPost2010Prop54
  1
strokes_ogs.tif
102
RTVSPost2010PropOp54
 70
     0
102
RTVSPost2010Prop55
280
     0
102
RTVSPost2010PropOp55
 70
     0
102
RTVSPost2010Prop56
140
1.0
102
RTVSPost2010PropOp56
 70
     0
102
RTVSPost2010Prop57
140
1.0
102
RTVSPost2010PropOp57
 70
     0
  0
XRECORD
  5
497
102
{ACAD_REACTORS
330
496
102
}
330
496
100
AcDbXrecord
280
     1
102
RTVSPost2010Prop28
280
     0
102
RTVSPost2010PropOp28
 70
     1
102
RTVSPost2010Prop29
280
     1
102
RTVSPost2010PropOp29
 70
     1
102
RTVSPost2010Prop30
280
     1
102
RTVSPost2010PropOp30
 70
     1
102
RTVSPost2010Prop31
280
     0
102
RTVSPost2010PropOp31
 70
     1
102
RTVSPost2010Prop32
280
     0
102
RTVSPost2010PropOp32
 70
     1
102
RTVSPost2010Prop33
280
     0
102
RTVSPost2010PropOp33
 70
     1
102
RTVSPost2010Prop34
280
     0
102
RTVSPost2010PropOp34
 70
     1
102
RTVSPost2010Prop35
280
     0
102
RTVSPost2010PropOp35
 70
     1
102
RTVSPost2010Prop36
280
     0
102
RTVSPost2010PropOp36
 70
     1
102
RTVSPost2010Prop37
 90
       50
102
RTVSPost2010PropOp37
 70
     1
102
RTVSPost2010Prop38
140
0.0
102
RTVSPost2010PropOp38
 70
     1
102
RTVSPost2010Prop39
140
1.0
102
RTVSPost2010PropOp39
 70
     1
102
RTVSPost2010Prop40
 90
        0
102
RTVSPost2010PropOp40
 70
     1
102
RTVSPost2010Prop41ColorIndex
 90
       18
102
RTVSPost2010Prop41ColorRGB
 90
        0
102
RTVSPost2010PropOp41
 70
     1
102
RTVSPost2010Prop42
 90
       50
102
RTVSPost2010PropOp42
 70
     1
102
RTVSPost2010Prop43
 90
        3
102
RTVSPost2010PropOp43
 70
     1
102
RTVSPost2010Prop44ColorIndex
 90
        5
102
RTVSPost2010Prop44ColorRGB
 90
      255
102
RTVSPost2010PropOp44
 70
     1
102
RTVSPost2010Prop45
280
     0
102
RTVSPost2010PropOp45
 70
     1
102
RTVSPost2010Prop46
 90
       50
102
RTVSPost2010PropOp46
 70
     1
102
RTVSPost2010Prop47
 90
       50
102
RTVSPost2010PropOp47
 70
     1
102
RTVSPost2010Prop48
 90
       50
102
RTVSPost2010PropOp48
 70
     1
102
RTVSPost2010Prop49
280
     0
102
RTVSPost2010PropOp49
 70
     1
102
RTVSPost2010Prop50
 90
       50
102
RTVSPost2010PropOp50
 70
     1
102
RTVSPost2010Prop51ColorIndex
 90
      256
102
RTVSPost2010Prop51ColorRGB
 90
-16777216
102
RTVSPost2010PropOp51
 70
     0
102
RTVSPost2010Prop52
140
1.0
102
RTVSPost2010PropOp52
 70
     0
102
RTVSPost2010Prop53
 90
        2
102
RTVSPost2010PropOp53
 70
     1
102
RTVSPost2010Prop54
  1
strokes_ogs.tif
102
RTVSPost2010PropOp54
 70
     1
102
RTVSPost2010Prop55
280
     0
102
RTVSPost2010PropOp55
 70
     1
102
RTVSPost2010Prop56
140
1.0
102
RTVSPost2010PropOp56
 70
     1
102
RTVSPost2010Prop57
140
1.0
102
RTVSPost2010PropOp57
 70
     1
  0
XRECORD
  5
47B
102
{ACAD_REACTORS
330
47A
102
}
330
47A
100
AcDbXrecord
280
     1
102
RTVSPost2010Prop28
280
     0
102
RTVSPost2010PropOp28
 70
     1
102
RTVSPost2010Prop29
280
     1
102
RTVSPost2010PropOp29
 70
     1
102
RTVSPost2010Prop30
280
     1
102
RTVSPost2010PropOp30
 70
     1
102
RTVSPost2010Prop31
280
     0
102
RTVSPost2010PropOp31
 70
     1
102
RTVSPost2010Prop32
280
     0
102
RTVSPost2010PropOp32
 70
     1
102
RTVSPost2010Prop33
280
     0
102
RTVSPost2010PropOp33
 70
     1
102
RTVSPost2010Prop34
280
     0
102
RTVSPost2010PropOp34
 70
     1
102
RTVSPost2010Prop35
280
     0
102
RTVSPost2010PropOp35
 70
     1
102
RTVSPost2010Prop36
280
     0
102
RTVSPost2010PropOp36
 70
     1
102
RTVSPost2010Prop37
 90
       50
102
RTVSPost2010PropOp37
 70
     1
102
RTVSPost2010Prop38
140
0.0
102
RTVSPost2010PropOp38
 70
     1
102
RTVSPost2010Prop39
140
1.0
102
RTVSPost2010PropOp39
 70
     1
102
RTVSPost2010Prop40
 90
        0
102
RTVSPost2010PropOp40
 70
     1
102
RTVSPost2010Prop41ColorIndex
 90
       18
102
RTVSPost2010Prop41ColorRGB
 90
        0
102
RTVSPost2010PropOp41
 70
     1
102
RTVSPost2010Prop42
 90
       50
102
RTVSPost2010PropOp42
 70
     1
102
RTVSPost2010Prop43
 90
        3
102
RTVSPost2010PropOp43
 70
     1
102
RTVSPost2010Prop44ColorIndex
 90
        5
102
RTVSPost2010Prop44ColorRGB
 90
      255
102
RTVSPost2010PropOp44
 70
     1
102
RTVSPost2010Prop45
280
     0
102
RTVSPost2010PropOp45
 70
     1
102
RTVSPost2010Prop46
 90
       50
102
RTVSPost2010PropOp46
 70
     1
102
RTVSPost2010Prop47
 90
       50
102
RTVSPost2010PropOp47
 70
     1
102
RTVSPost2010Prop48
 90
       50
102
RTVSPost2010PropOp48
 70
     1
102
RTVSPost2010Prop49
280
     0
102
RTVSPost2010PropOp49
 70
     1
102
RTVSPost2010Prop50
 90
       50
102
RTVSPost2010PropOp50
 70
     1
102
RTVSPost2010Prop51ColorIndex
 90
      256
102
RTVSPost2010Prop51ColorRGB
 90
-16777216
102
RTVSPost2010PropOp51
 70
     0
102
RTVSPost2010Prop52
140
1.0
102
RTVSPost2010PropOp52
 70
     0
102
RTVSPost2010Prop53
 90
        2
102
RTVSPost2010PropOp53
 70
     1
102
RTVSPost2010Prop54
  1
strokes_ogs.tif
102
RTVSPost2010PropOp54
 70
     1
102
RTVSPost2010Prop55
280
     0
102
RTVSPost2010PropOp55
 70
     1
102
RTVSPost2010Prop56
140
1.0
102
RTVSPost2010PropOp56
 70
     1
102
RTVSPost2010Prop57
140
1.0
102
RTVSPost2010PropOp57
 70
     1
  0
XRECORD
  5
47D
102
{ACAD_REACTORS
330
47C
102
}
330
47C
100
AcDbXrecord
280
     1
102
RTVSPost2010Prop28
280
     0
102
RTVSPost2010PropOp28
 70
     1
102
RTVSPost2010Prop29
280
     1
102
RTVSPost2010PropOp29
 70
     1
102
RTVSPost2010Prop30
280
     1
102
RTVSPost2010PropOp30
 70
     1
102
RTVSPost2010Prop31
280
     0
102
RTVSPost2010PropOp31
 70
     1
102
RTVSPost2010Prop32
280
     0
102
RTVSPost2010PropOp32
 70
     1
102
RTVSPost2010Prop33
280
     0
102
RTVSPost2010PropOp33
 70
     1
102
RTVSPost2010Prop34
280
     0
102
RTVSPost2010PropOp34
 70
     1
102
RTVSPost2010Prop35
280
     0
102
RTVSPost2010PropOp35
 70
     1
102
RTVSPost2010Prop36
280
     0
102
RTVSPost2010PropOp36
 70
     1
102
RTVSPost2010Prop37
 90
       50
102
RTVSPost2010PropOp37
 70
     1
102
RTVSPost2010Prop38
140
0.0
102
RTVSPost2010PropOp38
 70
     1
102
RTVSPost2010Prop39
140
1.0
102
RTVSPost2010PropOp39
 70
     1
102
RTVSPost2010Prop40
 90
        0
102
RTVSPost2010PropOp40
 70
     1
102
RTVSPost2010Prop41ColorIndex
 90
       18
102
RTVSPost2010Prop41ColorRGB
 90
        0
102
RTVSPost2010PropOp41
 70
     1
102
RTVSPost2010Prop42
 90
       50
102
RTVSPost2010PropOp42
 70
     1
102
RTVSPost2010Prop43
 90
        3
102
RTVSPost2010PropOp43
 70
     1
102
RTVSPost2010Prop44ColorIndex
 90
        5
102
RTVSPost2010Prop44ColorRGB
 90
      255
102
RTVSPost2010PropOp44
 70
     1
102
RTVSPost2010Prop45
280
     0
102
RTVSPost2010PropOp45
 70
     1
102
RTVSPost2010Prop46
 90
       50
102
RTVSPost2010PropOp46
 70
     1
102
RTVSPost2010Prop47
 90
       50
102
RTVSPost2010PropOp47
 70
     1
102
RTVSPost2010Prop48
 90
       50
102
RTVSPost2010PropOp48
 70
     1
102
RTVSPost2010Prop49
280
     0
102
RTVSPost2010PropOp49
 70
     1
102
RTVSPost2010Prop50
 90
       50
102
RTVSPost2010PropOp50
 70
     1
102
RTVSPost2010Prop51ColorIndex
 90
      256
102
RTVSPost2010Prop51ColorRGB
 90
-16777216
102
RTVSPost2010PropOp51
 70
     0
102
RTVSPost2010Prop52
140
1.0
102
RTVSPost2010PropOp52
 70
     0
102
RTVSPost2010Prop53
 90
        2
102
RTVSPost2010PropOp53
 70
     1
102
RTVSPost2010Prop54
  1
strokes_ogs.tif
102
RTVSPost2010PropOp54
 70
     1
102
RTVSPost2010Prop55
280
     0
102
RTVSPost2010PropOp55
 70
     1
102
RTVSPost2010Prop56
140
1.0
102
RTVSPost2010PropOp56
 70
     1
102
RTVSPost2010Prop57
140
1.0
102
RTVSPost2010PropOp57
 70
     1
  0
XRECORD
  5
47F
102
{ACAD_REACTORS
330
47E
102
}
330
47E
100
AcDbXrecord
280
     1
102
RTVSPost2010Prop28
280
     0
102
RTVSPost2010PropOp28
 70
     1
102
RTVSPost2010Prop29
280
     1
102
RTVSPost2010PropOp29
 70
     1
102
RTVSPost2010Prop30
280
     1
102
RTVSPost2010PropOp30
 70
     1
102
RTVSPost2010Prop31
280
     0
102
RTVSPost2010PropOp31
 70
     1
102
RTVSPost2010Prop32
280
     0
102
RTVSPost2010PropOp32
 70
     1
102
RTVSPost2010Prop33
280
     0
102
RTVSPost2010PropOp33
 70
     1
102
RTVSPost2010Prop34
280
     0
102
RTVSPost2010PropOp34
 70
     1
102
RTVSPost2010Prop35
280
     0
102
RTVSPost2010PropOp35
 70
     1
102
RTVSPost2010Prop36
280
     0
102
RTVSPost2010PropOp36
 70
     1
102
RTVSPost2010Prop37
 90
       50
102
RTVSPost2010PropOp37
 70
     1
102
RTVSPost2010Prop38
140
0.0
102
RTVSPost2010PropOp38
 70
     1
102
RTVSPost2010Prop39
140
1.0
102
RTVSPost2010PropOp39
 70
     1
102
RTVSPost2010Prop40
 90
        0
102
RTVSPost2010PropOp40
 70
     1
102
RTVSPost2010Prop41ColorIndex
 90
       18
102
RTVSPost2010Prop41ColorRGB
 90
        0
102
RTVSPost2010PropOp41
 70
     1
102
RTVSPost2010Prop42
 90
       50
102
RTVSPost2010PropOp42
 70
     1
102
RTVSPost2010Prop43
 90
        3
102
RTVSPost2010PropOp43
 70
     1
102
RTVSPost2010Prop44ColorIndex
 90
        5
102
RTVSPost2010Prop44ColorRGB
 90
      255
102
RTVSPost2010PropOp44
 70
     1
102
RTVSPost2010Prop45
280
     0
102
RTVSPost2010PropOp45
 70
     1
102
RTVSPost2010Prop46
 90
       50
102
RTVSPost2010PropOp46
 70
     1
102
RTVSPost2010Prop47
 90
       50
102
RTVSPost2010PropOp47
 70
     1
102
RTVSPost2010Prop48
 90
       50
102
RTVSPost2010PropOp48
 70
     1
102
RTVSPost2010Prop49
280
     0
102
RTVSPost2010PropOp49
 70
     1
102
RTVSPost2010Prop50
 90
       50
102
RTVSPost2010PropOp50
 70
     1
102
RTVSPost2010Prop51ColorIndex
 90
      256
102
RTVSPost2010Prop51ColorRGB
 90
-16777216
102
RTVSPost2010PropOp51
 70
     0
102
RTVSPost2010Prop52
140
1.0
102
RTVSPost2010PropOp52
 70
     0
102
RTVSPost2010Prop53
 90
        2
102
RTVSPost2010PropOp53
 70
     1
102
RTVSPost2010Prop54
  1
strokes_ogs.tif
102
RTVSPost2010PropOp54
 70
     1
102
RTVSPost2010Prop55
280
     0
102
RTVSPost2010PropOp55
 70
     1
102
RTVSPost2010Prop56
140
1.0
102
RTVSPost2010PropOp56
 70
     1
102
RTVSPost2010Prop57
140
1.0
102
RTVSPost2010PropOp57
 70
     1
  0
XRECORD
  5
481
102
{ACAD_REACTORS
330
480
102
}
330
480
100
AcDbXrecord
280
     1
102
RTVSPost2010Prop28
280
     0
102
RTVSPost2010PropOp28
 70
     1
102
RTVSPost2010Prop29
280
     1
102
RTVSPost2010PropOp29
 70
     1
102
RTVSPost2010Prop30
280
     1
102
RTVSPost2010PropOp30
 70
     1
102
RTVSPost2010Prop31
280
     0
102
RTVSPost2010PropOp31
 70
     1
102
RTVSPost2010Prop32
280
     0
102
RTVSPost2010PropOp32
 70
     1
102
RTVSPost2010Prop33
280
     0
102
RTVSPost2010PropOp33
 70
     1
102
RTVSPost2010Prop34
280
     0
102
RTVSPost2010PropOp34
 70
     1
102
RTVSPost2010Prop35
280
     0
102
RTVSPost2010PropOp35
 70
     1
102
RTVSPost2010Prop36
280
     0
102
RTVSPost2010PropOp36
 70
     1
102
RTVSPost2010Prop37
 90
       50
102
RTVSPost2010PropOp37
 70
     1
102
RTVSPost2010Prop38
140
0.0
102
RTVSPost2010PropOp38
 70
     1
102
RTVSPost2010Prop39
140
1.0
102
RTVSPost2010PropOp39
 70
     1
102
RTVSPost2010Prop40
 90
        0
102
RTVSPost2010PropOp40
 70
     1
102
RTVSPost2010Prop41ColorIndex
 90
       18
102
RTVSPost2010Prop41ColorRGB
 90
        0
102
RTVSPost2010PropOp41
 70
     1
102
RTVSPost2010Prop42
 90
       50
102
RTVSPost2010PropOp42
 70
     1
102
RTVSPost2010Prop43
 90
        3
102
RTVSPost2010PropOp43
 70
     1
102
RTVSPost2010Prop44ColorIndex
 90
        5
102
RTVSPost2010Prop44ColorRGB
 90
      255
102
RTVSPost2010PropOp44
 70
     1
102
RTVSPost2010Prop45
280
     0
102
RTVSPost2010PropOp45
 70
     1
102
RTVSPost2010Prop46
 90
       50
102
RTVSPost2010PropOp46
 70
     1
102
RTVSPost2010Prop47
 90
       50
102
RTVSPost2010PropOp47
 70
     1
102
RTVSPost2010Prop48
 90
       50
102
RTVSPost2010PropOp48
 70
     1
102
RTVSPost2010Prop49
280
     0
102
RTVSPost2010PropOp49
 70
     1
102
RTVSPost2010Prop50
 90
       50
102
RTVSPost2010PropOp50
 70
     1
102
RTVSPost2010Prop51ColorIndex
 90
      256
102
RTVSPost2010Prop51ColorRGB
 90
-16777216
102
RTVSPost2010PropOp51
 70
     0
102
RTVSPost2010Prop52
140
1.0
102
RTVSPost2010PropOp52
 70
     0
102
RTVSPost2010Prop53
 90
        2
102
RTVSPost2010PropOp53
 70
     1
102
RTVSPost2010Prop54
  1
strokes_ogs.tif
102
RTVSPost2010PropOp54
 70
     1
102
RTVSPost2010Prop55
280
     0
102
RTVSPost2010PropOp55
 70
     1
102
RTVSPost2010Prop56
140
1.0
102
RTVSPost2010PropOp56
 70
     1
102
RTVSPost2010Prop57
140
1.0
102
RTVSPost2010PropOp57
 70
     1
  0
XRECORD
  5
487
102
{ACAD_REACTORS
330
486
102
}
330
486
100
AcDbXrecord
280
     1
102
RTVSPost2010Prop28
280
     0
102
RTVSPost2010PropOp28
 70
     1
102
RTVSPost2010Prop29
280
     1
102
RTVSPost2010PropOp29
 70
     1
102
RTVSPost2010Prop30
280
     1
102
RTVSPost2010PropOp30
 70
     1
102
RTVSPost2010Prop31
280
     0
102
RTVSPost2010PropOp31
 70
     1
102
RTVSPost2010Prop32
280
     0
102
RTVSPost2010PropOp32
 70
     1
102
RTVSPost2010Prop33
280
     0
102
RTVSPost2010PropOp33
 70
     1
102
RTVSPost2010Prop34
280
     0
102
RTVSPost2010PropOp34
 70
     1
102
RTVSPost2010Prop35
280
     0
102
RTVSPost2010PropOp35
 70
     1
102
RTVSPost2010Prop36
280
     0
102
RTVSPost2010PropOp36
 70
     1
102
RTVSPost2010Prop37
 90
       50
102
RTVSPost2010PropOp37
 70
     1
102
RTVSPost2010Prop38
140
0.0
102
RTVSPost2010PropOp38
 70
     1
102
RTVSPost2010Prop39
140
1.0
102
RTVSPost2010PropOp39
 70
     1
102
RTVSPost2010Prop40
 90
        0
102
RTVSPost2010PropOp40
 70
     1
102
RTVSPost2010Prop41ColorIndex
 90
       18
102
RTVSPost2010Prop41ColorRGB
 90
        0
102
RTVSPost2010PropOp41
 70
     1
102
RTVSPost2010Prop42
 90
       50
102
RTVSPost2010PropOp42
 70
     1
102
RTVSPost2010Prop43
 90
        3
102
RTVSPost2010PropOp43
 70
     1
102
RTVSPost2010Prop44ColorIndex
 90
        5
102
RTVSPost2010Prop44ColorRGB
 90
      255
102
RTVSPost2010PropOp44
 70
     1
102
RTVSPost2010Prop45
280
     0
102
RTVSPost2010PropOp45
 70
     1
102
RTVSPost2010Prop46
 90
       50
102
RTVSPost2010PropOp46
 70
     1
102
RTVSPost2010Prop47
 90
       50
102
RTVSPost2010PropOp47
 70
     1
102
RTVSPost2010Prop48
 90
       50
102
RTVSPost2010PropOp48
 70
     1
102
RTVSPost2010Prop49
280
     0
102
RTVSPost2010PropOp49
 70
     1
102
RTVSPost2010Prop50
 90
       50
102
RTVSPost2010PropOp50
 70
     1
102
RTVSPost2010Prop51ColorIndex
 90
      256
102
RTVSPost2010Prop51ColorRGB
 90
-16777216
102
RTVSPost2010PropOp51
 70
     0
102
RTVSPost2010Prop52
140
1.0
102
RTVSPost2010PropOp52
 70
     0
102
RTVSPost2010Prop53
 90
        2
102
RTVSPost2010PropOp53
 70
     1
102
RTVSPost2010Prop54
  1
strokes_ogs.tif
102
RTVSPost2010PropOp54
 70
     1
102
RTVSPost2010Prop55
280
     0
102
RTVSPost2010PropOp55
 70
     1
102
RTVSPost2010Prop56
140
1.0
102
RTVSPost2010PropOp56
 70
     1
102
RTVSPost2010Prop57
140
1.0
102
RTVSPost2010PropOp57
 70
     1
  0
XRECORD
  5
49B
102
{ACAD_REACTORS
330
49A
102
}
330
49A
100
AcDbXrecord
280
     1
102
RTVSPost2010Prop28
280
     0
102
RTVSPost2010PropOp28
 70
     0
102
RTVSPost2010Prop29
280
     1
102
RTVSPost2010PropOp29
 70
     0
102
RTVSPost2010Prop30
280
     1
102
RTVSPost2010PropOp30
 70
     0
102
RTVSPost2010Prop31
280
     0
102
RTVSPost2010PropOp31
 70
     0
102
RTVSPost2010Prop32
280
     0
102
RTVSPost2010PropOp32
 70
     0
102
RTVSPost2010Prop33
280
     0
102
RTVSPost2010PropOp33
 70
     0
102
RTVSPost2010Prop34
280
     0
102
RTVSPost2010PropOp34
 70
     0
102
RTVSPost2010Prop35
280
     0
102
RTVSPost2010PropOp35
 70
     0
102
RTVSPost2010Prop36
280
     0
102
RTVSPost2010PropOp36
 70
     0
102
RTVSPost2010Prop37
 90
       50
102
RTVSPost2010PropOp37
 70
     0
102
RTVSPost2010Prop38
140
0.0
102
RTVSPost2010PropOp38
 70
     0
102
RTVSPost2010Prop39
140
1.0
102
RTVSPost2010PropOp39
 70
     0
102
RTVSPost2010Prop40
 90
        0
102
RTVSPost2010PropOp40
 70
     0
102
RTVSPost2010Prop41ColorIndex
 90
       18
102
RTVSPost2010Prop41ColorRGB
 90
        0
102
RTVSPost2010PropOp41
 70
     0
102
RTVSPost2010Prop42
 90
       50
102
RTVSPost2010PropOp42
 70
     0
102
RTVSPost2010Prop43
 90
        3
102
RTVSPost2010PropOp43
 70
     0
102
RTVSPost2010Prop44ColorIndex
 90
        5
102
RTVSPost2010Prop44ColorRGB
 90
      255
102
RTVSPost2010PropOp44
 70
     0
102
RTVSPost2010Prop45
280
     0
102
RTVSPost2010PropOp45
 70
     0
102
RTVSPost2010Prop46
 90
       50
102
RTVSPost2010PropOp46
 70
     0
102
RTVSPost2010Prop47
 90
       50
102
RTVSPost2010PropOp47
 70
     0
102
RTVSPost2010Prop48
 90
       50
102
RTVSPost2010PropOp48
 70
     0
102
RTVSPost2010Prop49
280
     0
102
RTVSPost2010PropOp49
 70
     0
102
RTVSPost2010Prop50
 90
       50
102
RTVSPost2010PropOp50
 70
     0
102
RTVSPost2010Prop51ColorIndex
 90
      256
102
RTVSPost2010Prop51ColorRGB
 90
-16777216
102
RTVSPost2010PropOp51
 70
     0
102
RTVSPost2010Prop52
140
1.0
102
RTVSPost2010PropOp52
 70
     0
102
RTVSPost2010Prop53
 90
        2
102
RTVSPost2010PropOp53
 70
     0
102
RTVSPost2010Prop54
  1
strokes_ogs.tif
102
RTVSPost2010PropOp54
 70
     0
102
RTVSPost2010Prop55
280
     0
102
RTVSPost2010PropOp55
 70
     0
102
RTVSPost2010Prop56
140
1.0
102
RTVSPost2010PropOp56
 70
     0
102
RTVSPost2010Prop57
140
1.0
102
RTVSPost2010PropOp57
 70
     0
  0
XRECORD
  5
495
102
{ACAD_REACTORS
330
494
102
}
330
494
100
AcDbXrecord
280
     1
102
RTVSPost2010Prop28
280
     0
102
RTVSPost2010PropOp28
 70
     1
102
RTVSPost2010Prop29
280
     1
102
RTVSPost2010PropOp29
 70
     1
102
RTVSPost2010Prop30
280
     1
102
RTVSPost2010PropOp30
 70
     1
102
RTVSPost2010Prop31
280
     0
102
RTVSPost2010PropOp31
 70
     1
102
RTVSPost2010Prop32
280
     0
102
RTVSPost2010PropOp32
 70
     1
102
RTVSPost2010Prop33
280
     0
102
RTVSPost2010PropOp33
 70
     1
102
RTVSPost2010Prop34
280
     0
102
RTVSPost2010PropOp34
 70
     1
102
RTVSPost2010Prop35
280
     0
102
RTVSPost2010PropOp35
 70
     1
102
RTVSPost2010Prop36
280
     0
102
RTVSPost2010PropOp36
 70
     1
102
RTVSPost2010Prop37
 90
       50
102
RTVSPost2010PropOp37
 70
     1
102
RTVSPost2010Prop38
140
0.0
102
RTVSPost2010PropOp38
 70
     1
102
RTVSPost2010Prop39
140
1.0
102
RTVSPost2010PropOp39
 70
     1
102
RTVSPost2010Prop40
 90
        0
102
RTVSPost2010PropOp40
 70
     1
102
RTVSPost2010Prop41ColorIndex
 90
       18
102
RTVSPost2010Prop41ColorRGB
 90
        0
102
RTVSPost2010PropOp41
 70
     1
102
RTVSPost2010Prop42
 90
       50
102
RTVSPost2010PropOp42
 70
     1
102
RTVSPost2010Prop43
 90
        3
102
RTVSPost2010PropOp43
 70
     1
102
RTVSPost2010Prop44ColorIndex
 90
        5
102
RTVSPost2010Prop44ColorRGB
 90
      255
102
RTVSPost2010PropOp44
 70
     1
102
RTVSPost2010Prop45
280
     0
102
RTVSPost2010PropOp45
 70
     1
102
RTVSPost2010Prop46
 90
       50
102
RTVSPost2010PropOp46
 70
     1
102
RTVSPost2010Prop47
 90
       50
102
RTVSPost2010PropOp47
 70
     1
102
RTVSPost2010Prop48
 90
       50
102
RTVSPost2010PropOp48
 70
     1
102
RTVSPost2010Prop49
280
     0
102
RTVSPost2010PropOp49
 70
     1
102
RTVSPost2010Prop50
 90
       50
102
RTVSPost2010PropOp50
 70
     1
102
RTVSPost2010Prop51ColorIndex
 90
      256
102
RTVSPost2010Prop51ColorRGB
 90
-16777216
102
RTVSPost2010PropOp51
 70
     0
102
RTVSPost2010Prop52
140
1.0
102
RTVSPost2010PropOp52
 70
     0
102
RTVSPost2010Prop53
 90
        2
102
RTVSPost2010PropOp53
 70
     1
102
RTVSPost2010Prop54
  1
strokes_ogs.tif
102
RTVSPost2010PropOp54
 70
     1
102
RTVSPost2010Prop55
280
     0
102
RTVSPost2010PropOp55
 70
     1
102
RTVSPost2010Prop56
140
1.0
102
RTVSPost2010PropOp56
 70
     1
102
RTVSPost2010Prop57
140
1.0
102
RTVSPost2010PropOp57
 70
     1
  0
XRECORD
  5
49D
102
{ACAD_REACTORS
330
49C
102
}
330
49C
100
AcDbXrecord
280
     1
102
RTVSPost2010Prop28
280
     0
102
RTVSPost2010PropOp28
 70
     0
102
RTVSPost2010Prop29
280
     1
102
RTVSPost2010PropOp29
 70
     0
102
RTVSPost2010Prop30
280
     1
102
RTVSPost2010PropOp30
 70
     0
102
RTVSPost2010Prop31
280
     0
102
RTVSPost2010PropOp31
 70
     0
102
RTVSPost2010Prop32
280
     0
102
RTVSPost2010PropOp32
 70
     0
102
RTVSPost2010Prop33
280
     0
102
RTVSPost2010PropOp33
 70
     0
102
RTVSPost2010Prop34
280
     0
102
RTVSPost2010PropOp34
 70
     0
102
RTVSPost2010Prop35
280
     0
102
RTVSPost2010PropOp35
 70
     0
102
RTVSPost2010Prop36
280
     0
102
RTVSPost2010PropOp36
 70
     0
102
RTVSPost2010Prop37
 90
       50
102
RTVSPost2010PropOp37
 70
     0
102
RTVSPost2010Prop38
140
0.0
102
RTVSPost2010PropOp38
 70
     0
102
RTVSPost2010Prop39
140
1.0
102
RTVSPost2010PropOp39
 70
     0
102
RTVSPost2010Prop40
 90
        0
102
RTVSPost2010PropOp40
 70
     0
102
RTVSPost2010Prop41ColorIndex
 90
       18
102
RTVSPost2010Prop41ColorRGB
 90
        0
102
RTVSPost2010PropOp41
 70
     0
102
RTVSPost2010Prop42
 90
       50
102
RTVSPost2010PropOp42
 70
     0
102
RTVSPost2010Prop43
 90
        3
102
RTVSPost2010PropOp43
 70
     0
102
RTVSPost2010Prop44ColorIndex
 90
        5
102
RTVSPost2010Prop44ColorRGB
 90
      255
102
RTVSPost2010PropOp44
 70
     0
102
RTVSPost2010Prop45
280
     0
102
RTVSPost2010PropOp45
 70
     0
102
RTVSPost2010Prop46
 90
       50
102
RTVSPost2010PropOp46
 70
     0
102
RTVSPost2010Prop47
 90
       50
102
RTVSPost2010PropOp47
 70
     0
102
RTVSPost2010Prop48
 90
       50
102
RTVSPost2010PropOp48
 70
     0
102
RTVSPost2010Prop49
280
     0
102
RTVSPost2010PropOp49
 70
     0
102
RTVSPost2010Prop50
 90
       50
102
RTVSPost2010PropOp50
 70
     0
102
RTVSPost2010Prop51ColorIndex
 90
      256
102
RTVSPost2010Prop51ColorRGB
 90
-16777216
102
RTVSPost2010PropOp51
 70
     0
102
RTVSPost2010Prop52
140
1.0
102
RTVSPost2010PropOp52
 70
     0
102
RTVSPost2010Prop53
 90
        2
102
RTVSPost2010PropOp53
 70
     0
102
RTVSPost2010Prop54
  1
strokes_ogs.tif
102
RTVSPost2010PropOp54
 70
     0
102
RTVSPost2010Prop55
280
     0
102
RTVSPost2010PropOp55
 70
     0
102
RTVSPost2010Prop56
140
1.0
102
RTVSPost2010PropOp56
 70
     0
102
RTVSPost2010Prop57
140
1.0
102
RTVSPost2010PropOp57
 70
     0
  0
XRECORD
  5
48B
102
{ACAD_REACTORS
330
48A
102
}
330
48A
100
AcDbXrecord
280
     1
102
RTVSPost2010Prop28
280
     0
102
RTVSPost2010PropOp28
 70
     1
102
RTVSPost2010Prop29
280
     1
102
RTVSPost2010PropOp29
 70
     1
102
RTVSPost2010Prop30
280
     1
102
RTVSPost2010PropOp30
 70
     1
102
RTVSPost2010Prop31
280
     0
102
RTVSPost2010PropOp31
 70
     1
102
RTVSPost2010Prop32
280
     0
102
RTVSPost2010PropOp32
 70
     1
102
RTVSPost2010Prop33
280
     0
102
RTVSPost2010PropOp33
 70
     1
102
RTVSPost2010Prop34
280
     0
102
RTVSPost2010PropOp34
 70
     1
102
RTVSPost2010Prop35
280
     0
102
RTVSPost2010PropOp35
 70
     1
102
RTVSPost2010Prop36
280
     0
102
RTVSPost2010PropOp36
 70
     1
102
RTVSPost2010Prop37
 90
       50
102
RTVSPost2010PropOp37
 70
     1
102
RTVSPost2010Prop38
140
0.0
102
RTVSPost2010PropOp38
 70
     1
102
RTVSPost2010Prop39
140
1.0
102
RTVSPost2010PropOp39
 70
     1
102
RTVSPost2010Prop40
 90
        0
102
RTVSPost2010PropOp40
 70
     1
102
RTVSPost2010Prop41ColorIndex
 90
       18
102
RTVSPost2010Prop41ColorRGB
 90
        0
102
RTVSPost2010PropOp41
 70
     1
102
RTVSPost2010Prop42
 90
       50
102
RTVSPost2010PropOp42
 70
     1
102
RTVSPost2010Prop43
 90
        3
102
RTVSPost2010PropOp43
 70
     1
102
RTVSPost2010Prop44ColorIndex
 90
        5
102
RTVSPost2010Prop44ColorRGB
 90
      255
102
RTVSPost2010PropOp44
 70
     1
102
RTVSPost2010Prop45
280
     0
102
RTVSPost2010PropOp45
 70
     1
102
RTVSPost2010Prop46
 90
       50
102
RTVSPost2010PropOp46
 70
     1
102
RTVSPost2010Prop47
 90
       50
102
RTVSPost2010PropOp47
 70
     1
102
RTVSPost2010Prop48
 90
       50
102
RTVSPost2010PropOp48
 70
     1
102
RTVSPost2010Prop49
280
     0
102
RTVSPost2010PropOp49
 70
     1
102
RTVSPost2010Prop50
 90
       50
102
RTVSPost2010PropOp50
 70
     1
102
RTVSPost2010Prop51ColorIndex
 90
      256
102
RTVSPost2010Prop51ColorRGB
 90
-16777216
102
RTVSPost2010PropOp51
 70
     0
102
RTVSPost2010Prop52
140
1.0
102
RTVSPost2010PropOp52
 70
     0
102
RTVSPost2010Prop53
 90
        2
102
RTVSPost2010PropOp53
 70
     1
102
RTVSPost2010Prop54
  1
strokes_ogs.tif
102
RTVSPost2010PropOp54
 70
     1
102
RTVSPost2010Prop55
280
     0
102
RTVSPost2010PropOp55
 70
     1
102
RTVSPost2010Prop56
140
1.0
102
RTVSPost2010PropOp56
 70
     1
102
RTVSPost2010Prop57
140
1.0
102
RTVSPost2010PropOp57
 70
     1
  0
XRECORD
  5
4A9
102
{ACAD_REACTORS
330
4A8
102
}
330
4A8
100
AcDbXrecord
280
     1
102
RTVSPost2010Prop28
280
     0
102
RTVSPost2010PropOp28
 70
     1
102
RTVSPost2010Prop29
280
     1
102
RTVSPost2010PropOp29
 70
     1
102
RTVSPost2010Prop30
280
     1
102
RTVSPost2010PropOp30
 70
     1
102
RTVSPost2010Prop31
280
     0
102
RTVSPost2010PropOp31
 70
     1
102
RTVSPost2010Prop32
280
     0
102
RTVSPost2010PropOp32
 70
     1
102
RTVSPost2010Prop33
280
     0
102
RTVSPost2010PropOp33
 70
     1
102
RTVSPost2010Prop34
280
     0
102
RTVSPost2010PropOp34
 70
     1
102
RTVSPost2010Prop35
280
     0
102
RTVSPost2010PropOp35
 70
     1
102
RTVSPost2010Prop36
280
     0
102
RTVSPost2010PropOp36
 70
     1
102
RTVSPost2010Prop37
 90
       50
102
RTVSPost2010PropOp37
 70
     1
102
RTVSPost2010Prop38
140
0.0
102
RTVSPost2010PropOp38
 70
     1
102
RTVSPost2010Prop39
140
1.0
102
RTVSPost2010PropOp39
 70
     1
102
RTVSPost2010Prop40
 90
        0
102
RTVSPost2010PropOp40
 70
     1
102
RTVSPost2010Prop41ColorIndex
 90
       18
102
RTVSPost2010Prop41ColorRGB
 90
        0
102
RTVSPost2010PropOp41
 70
     1
102
RTVSPost2010Prop42
 90
       50
102
RTVSPost2010PropOp42
 70
     1
102
RTVSPost2010Prop43
 90
        3
102
RTVSPost2010PropOp43
 70
     1
102
RTVSPost2010Prop44ColorIndex
 90
        5
102
RTVSPost2010Prop44ColorRGB
 90
      255
102
RTVSPost2010PropOp44
 70
     1
102
RTVSPost2010Prop45
280
     0
102
RTVSPost2010PropOp45
 70
     1
102
RTVSPost2010Prop46
 90
       50
102
RTVSPost2010PropOp46
 70
     1
102
RTVSPost2010Prop47
 90
       50
102
RTVSPost2010PropOp47
 70
     1
102
RTVSPost2010Prop48
 90
       50
102
RTVSPost2010PropOp48
 70
     1
102
RTVSPost2010Prop49
280
     0
102
RTVSPost2010PropOp49
 70
     1
102
RTVSPost2010Prop50
 90
       50
102
RTVSPost2010PropOp50
 70
     1
102
RTVSPost2010Prop51ColorIndex
 90
      256
102
RTVSPost2010Prop51ColorRGB
 90
-16777216
102
RTVSPost2010PropOp51
 70
     0
102
RTVSPost2010Prop52
140
1.0
102
RTVSPost2010PropOp52
 70
     0
102
RTVSPost2010Prop53
 90
        2
102
RTVSPost2010PropOp53
 70
     1
102
RTVSPost2010Prop54
  1
strokes_ogs.tif
102
RTVSPost2010PropOp54
 70
     1
102
RTVSPost2010Prop55
280
     0
102
RTVSPost2010PropOp55
 70
     1
102
RTVSPost2010Prop56
140
1.0
102
RTVSPost2010PropOp56
 70
     1
102
RTVSPost2010Prop57
140
1.0
102
RTVSPost2010PropOp57
 70
     1
  0
XRECORD
  5
4A7
102
{ACAD_REACTORS
330
4A6
102
}
330
4A6
100
AcDbXrecord
280
     1
102
RTVSPost2010Prop28
280
     0
102
RTVSPost2010PropOp28
 70
     1
102
RTVSPost2010Prop29
280
     1
102
RTVSPost2010PropOp29
 70
     1
102
RTVSPost2010Prop30
280
     1
102
RTVSPost2010PropOp30
 70
     1
102
RTVSPost2010Prop31
280
     0
102
RTVSPost2010PropOp31
 70
     1
102
RTVSPost2010Prop32
280
     0
102
RTVSPost2010PropOp32
 70
     1
102
RTVSPost2010Prop33
280
     0
102
RTVSPost2010PropOp33
 70
     1
102
RTVSPost2010Prop34
280
     0
102
RTVSPost2010PropOp34
 70
     1
102
RTVSPost2010Prop35
280
     0
102
RTVSPost2010PropOp35
 70
     1
102
RTVSPost2010Prop36
280
     0
102
RTVSPost2010PropOp36
 70
     1
102
RTVSPost2010Prop37
 90
       50
102
RTVSPost2010PropOp37
 70
     1
102
RTVSPost2010Prop38
140
0.0
102
RTVSPost2010PropOp38
 70
     1
102
RTVSPost2010Prop39
140
1.0
102
RTVSPost2010PropOp39
 70
     1
102
RTVSPost2010Prop40
 90
        0
102
RTVSPost2010PropOp40
 70
     1
102
RTVSPost2010Prop41ColorIndex
 90
       18
102
RTVSPost2010Prop41ColorRGB
 90
        0
102
RTVSPost2010PropOp41
 70
     1
102
RTVSPost2010Prop42
 90
       50
102
RTVSPost2010PropOp42
 70
     1
102
RTVSPost2010Prop43
 90
        3
102
RTVSPost2010PropOp43
 70
     1
102
RTVSPost2010Prop44ColorIndex
 90
        5
102
RTVSPost2010Prop44ColorRGB
 90
      255
102
RTVSPost2010PropOp44
 70
     1
102
RTVSPost2010Prop45
280
     0
102
RTVSPost2010PropOp45
 70
     1
102
RTVSPost2010Prop46
 90
       50
102
RTVSPost2010PropOp46
 70
     1
102
RTVSPost2010Prop47
 90
       50
102
RTVSPost2010PropOp47
 70
     1
102
RTVSPost2010Prop48
 90
       50
102
RTVSPost2010PropOp48
 70
     1
102
RTVSPost2010Prop49
280
     0
102
RTVSPost2010PropOp49
 70
     1
102
RTVSPost2010Prop50
 90
       50
102
RTVSPost2010PropOp50
 70
     1
102
RTVSPost2010Prop51ColorIndex
 90
      256
102
RTVSPost2010Prop51ColorRGB
 90
-16777216
102
RTVSPost2010PropOp51
 70
     0
102
RTVSPost2010Prop52
140
1.0
102
RTVSPost2010PropOp52
 70
     0
102
RTVSPost2010Prop53
 90
        2
102
RTVSPost2010PropOp53
 70
     1
102
RTVSPost2010Prop54
  1
strokes_ogs.tif
102
RTVSPost2010PropOp54
 70
     1
102
RTVSPost2010Prop55
280
     0
102
RTVSPost2010PropOp55
 70
     1
102
RTVSPost2010Prop56
140
1.0
102
RTVSPost2010PropOp56
 70
     1
102
RTVSPost2010Prop57
140
1.0
102
RTVSPost2010PropOp57
 70
     1
  0
XRECORD
  5
4A1
102
{ACAD_REACTORS
330
4A0
102
}
330
4A0
100
AcDbXrecord
280
     1
102
RTVSPost2010Prop28
280
     0
102
RTVSPost2010PropOp28
 70
     1
102
RTVSPost2010Prop29
280
     1
102
RTVSPost2010PropOp29
 70
     1
102
RTVSPost2010Prop30
280
     1
102
RTVSPost2010PropOp30
 70
     1
102
RTVSPost2010Prop31
280
     0
102
RTVSPost2010PropOp31
 70
     1
102
RTVSPost2010Prop32
280
     0
102
RTVSPost2010PropOp32
 70
     1
102
RTVSPost2010Prop33
280
     0
102
RTVSPost2010PropOp33
 70
     1
102
RTVSPost2010Prop34
280
     0
102
RTVSPost2010PropOp34
 70
     1
102
RTVSPost2010Prop35
280
     0
102
RTVSPost2010PropOp35
 70
     1
102
RTVSPost2010Prop36
280
     0
102
RTVSPost2010PropOp36
 70
     1
102
RTVSPost2010Prop37
 90
       50
102
RTVSPost2010PropOp37
 70
     1
102
RTVSPost2010Prop38
140
0.0
102
RTVSPost2010PropOp38
 70
     1
102
RTVSPost2010Prop39
140
1.0
102
RTVSPost2010PropOp39
 70
     1
102
RTVSPost2010Prop40
 90
        0
102
RTVSPost2010PropOp40
 70
     1
102
RTVSPost2010Prop41ColorIndex
 90
       18
102
RTVSPost2010Prop41ColorRGB
 90
        0
102
RTVSPost2010PropOp41
 70
     1
102
RTVSPost2010Prop42
 90
       50
102
RTVSPost2010PropOp42
 70
     1
102
RTVSPost2010Prop43
 90
        3
102
RTVSPost2010PropOp43
 70
     1
102
RTVSPost2010Prop44ColorIndex
 90
        5
102
RTVSPost2010Prop44ColorRGB
 90
      255
102
RTVSPost2010PropOp44
 70
     1
102
RTVSPost2010Prop45
280
     0
102
RTVSPost2010PropOp45
 70
     1
102
RTVSPost2010Prop46
 90
       50
102
RTVSPost2010PropOp46
 70
     1
102
RTVSPost2010Prop47
 90
       50
102
RTVSPost2010PropOp47
 70
     1
102
RTVSPost2010Prop48
 90
       50
102
RTVSPost2010PropOp48
 70
     1
102
RTVSPost2010Prop49
280
     0
102
RTVSPost2010PropOp49
 70
     1
102
RTVSPost2010Prop50
 90
       50
102
RTVSPost2010PropOp50
 70
     1
102
RTVSPost2010Prop51ColorIndex
 90
      256
102
RTVSPost2010Prop51ColorRGB
 90
-16777216
102
RTVSPost2010PropOp51
 70
     0
102
RTVSPost2010Prop52
140
1.0
102
RTVSPost2010PropOp52
 70
     0
102
RTVSPost2010Prop53
 90
        2
102
RTVSPost2010PropOp53
 70
     1
102
RTVSPost2010Prop54
  1
strokes_ogs.tif
102
RTVSPost2010PropOp54
 70
     1
102
RTVSPost2010Prop55
280
     0
102
RTVSPost2010PropOp55
 70
     1
102
RTVSPost2010Prop56
140
1.0
102
RTVSPost2010PropOp56
 70
     1
102
RTVSPost2010Prop57
140
1.0
102
RTVSPost2010PropOp57
 70
     1
  0
XRECORD
  5
4A3
102
{ACAD_REACTORS
330
4A2
102
}
330
4A2
100
AcDbXrecord
280
     1
102
RTVSPost2010Prop28
280
     0
102
RTVSPost2010PropOp28
 70
     1
102
RTVSPost2010Prop29
280
     1
102
RTVSPost2010PropOp29
 70
     1
102
RTVSPost2010Prop30
280
     1
102
RTVSPost2010PropOp30
 70
     1
102
RTVSPost2010Prop31
280
     0
102
RTVSPost2010PropOp31
 70
     1
102
RTVSPost2010Prop32
280
     0
102
RTVSPost2010PropOp32
 70
     1
102
RTVSPost2010Prop33
280
     0
102
RTVSPost2010PropOp33
 70
     1
102
RTVSPost2010Prop34
280
     0
102
RTVSPost2010PropOp34
 70
     1
102
RTVSPost2010Prop35
280
     0
102
RTVSPost2010PropOp35
 70
     1
102
RTVSPost2010Prop36
280
     0
102
RTVSPost2010PropOp36
 70
     1
102
RTVSPost2010Prop37
 90
       50
102
RTVSPost2010PropOp37
 70
     1
102
RTVSPost2010Prop38
140
0.0
102
RTVSPost2010PropOp38
 70
     1
102
RTVSPost2010Prop39
140
1.0
102
RTVSPost2010PropOp39
 70
     1
102
RTVSPost2010Prop40
 90
        0
102
RTVSPost2010PropOp40
 70
     1
102
RTVSPost2010Prop41ColorIndex
 90
       18
102
RTVSPost2010Prop41ColorRGB
 90
        0
102
RTVSPost2010PropOp41
 70
     1
102
RTVSPost2010Prop42
 90
       50
102
RTVSPost2010PropOp42
 70
     1
102
RTVSPost2010Prop43
 90
        3
102
RTVSPost2010PropOp43
 70
     1
102
RTVSPost2010Prop44ColorIndex
 90
        5
102
RTVSPost2010Prop44ColorRGB
 90
      255
102
RTVSPost2010PropOp44
 70
     1
102
RTVSPost2010Prop45
280
     0
102
RTVSPost2010PropOp45
 70
     1
102
RTVSPost2010Prop46
 90
       50
102
RTVSPost2010PropOp46
 70
     1
102
RTVSPost2010Prop47
 90
       50
102
RTVSPost2010PropOp47
 70
     1
102
RTVSPost2010Prop48
 90
       50
102
RTVSPost2010PropOp48
 70
     1
102
RTVSPost2010Prop49
280
     0
102
RTVSPost2010PropOp49
 70
     1
102
RTVSPost2010Prop50
 90
       50
102
RTVSPost2010PropOp50
 70
     1
102
RTVSPost2010Prop51ColorIndex
 90
      256
102
RTVSPost2010Prop51ColorRGB
 90
-16777216
102
RTVSPost2010PropOp51
 70
     0
102
RTVSPost2010Prop52
140
1.0
102
RTVSPost2010PropOp52
 70
     0
102
RTVSPost2010Prop53
 90
        2
102
RTVSPost2010PropOp53
 70
     1
102
RTVSPost2010Prop54
  1
strokes_ogs.tif
102
RTVSPost2010PropOp54
 70
     1
102
RTVSPost2010Prop55
280
     0
102
RTVSPost2010PropOp55
 70
     1
102
RTVSPost2010Prop56
140
1.0
102
RTVSPost2010PropOp56
 70
     1
102
RTVSPost2010Prop57
140
1.0
102
RTVSPost2010PropOp57
 70
     1
  0
XRECORD
  5
493
102
{ACAD_REACTORS
330
492
102
}
330
492
100
AcDbXrecord
280
     1
102
RTVSPost2010Prop28
280
     0
102
RTVSPost2010PropOp28
 70
     1
102
RTVSPost2010Prop29
280
     1
102
RTVSPost2010PropOp29
 70
     1
102
RTVSPost2010Prop30
280
     1
102
RTVSPost2010PropOp30
 70
     1
102
RTVSPost2010Prop31
280
     0
102
RTVSPost2010PropOp31
 70
     1
102
RTVSPost2010Prop32
280
     0
102
RTVSPost2010PropOp32
 70
     1
102
RTVSPost2010Prop33
280
     0
102
RTVSPost2010PropOp33
 70
     1
102
RTVSPost2010Prop34
280
     0
102
RTVSPost2010PropOp34
 70
     1
102
RTVSPost2010Prop35
280
     0
102
RTVSPost2010PropOp35
 70
     1
102
RTVSPost2010Prop36
280
     0
102
RTVSPost2010PropOp36
 70
     1
102
RTVSPost2010Prop37
 90
       50
102
RTVSPost2010PropOp37
 70
     1
102
RTVSPost2010Prop38
140
0.0
102
RTVSPost2010PropOp38
 70
     1
102
RTVSPost2010Prop39
140
1.0
102
RTVSPost2010PropOp39
 70
     1
102
RTVSPost2010Prop40
 90
        0
102
RTVSPost2010PropOp40
 70
     1
102
RTVSPost2010Prop41ColorIndex
 90
       18
102
RTVSPost2010Prop41ColorRGB
 90
        0
102
RTVSPost2010PropOp41
 70
     1
102
RTVSPost2010Prop42
 90
       50
102
RTVSPost2010PropOp42
 70
     1
102
RTVSPost2010Prop43
 90
        3
102
RTVSPost2010PropOp43
 70
     1
102
RTVSPost2010Prop44ColorIndex
 90
        5
102
RTVSPost2010Prop44ColorRGB
 90
      255
102
RTVSPost2010PropOp44
 70
     1
102
RTVSPost2010Prop45
280
     0
102
RTVSPost2010PropOp45
 70
     1
102
RTVSPost2010Prop46
 90
       50
102
RTVSPost2010PropOp46
 70
     1
102
RTVSPost2010Prop47
 90
       50
102
RTVSPost2010PropOp47
 70
     1
102
RTVSPost2010Prop48
 90
       50
102
RTVSPost2010PropOp48
 70
     1
102
RTVSPost2010Prop49
280
     0
102
RTVSPost2010PropOp49
 70
     1
102
RTVSPost2010Prop50
 90
       50
102
RTVSPost2010PropOp50
 70
     1
102
RTVSPost2010Prop51ColorIndex
 90
      256
102
RTVSPost2010Prop51ColorRGB
 90
-16777216
102
RTVSPost2010PropOp51
 70
     0
102
RTVSPost2010Prop52
140
1.0
102
RTVSPost2010PropOp52
 70
     0
102
RTVSPost2010Prop53
 90
        2
102
RTVSPost2010PropOp53
 70
     1
102
RTVSPost2010Prop54
  1
strokes_ogs.tif
102
RTVSPost2010PropOp54
 70
     1
102
RTVSPost2010Prop55
280
     0
102
RTVSPost2010PropOp55
 70
     1
102
RTVSPost2010Prop56
140
1.0
102
RTVSPost2010PropOp56
 70
     1
102
RTVSPost2010Prop57
140
1.0
102
RTVSPost2010PropOp57
 70
     1
  0
XRECORD
  5
485
102
{ACAD_REACTORS
330
484
102
}
330
484
100
AcDbXrecord
280
     1
102
RTVSPost2010Prop28
280
     0
102
RTVSPost2010PropOp28
 70
     1
102
RTVSPost2010Prop29
280
     1
102
RTVSPost2010PropOp29
 70
     1
102
RTVSPost2010Prop30
280
     1
102
RTVSPost2010PropOp30
 70
     1
102
RTVSPost2010Prop31
280
     0
102
RTVSPost2010PropOp31
 70
     1
102
RTVSPost2010Prop32
280
     0
102
RTVSPost2010PropOp32
 70
     1
102
RTVSPost2010Prop33
280
     0
102
RTVSPost2010PropOp33
 70
     1
102
RTVSPost2010Prop34
280
     0
102
RTVSPost2010PropOp34
 70
     1
102
RTVSPost2010Prop35
280
     0
102
RTVSPost2010PropOp35
 70
     1
102
RTVSPost2010Prop36
280
     0
102
RTVSPost2010PropOp36
 70
     1
102
RTVSPost2010Prop37
 90
       50
102
RTVSPost2010PropOp37
 70
     1
102
RTVSPost2010Prop38
140
0.0
102
RTVSPost2010PropOp38
 70
     1
102
RTVSPost2010Prop39
140
1.0
102
RTVSPost2010PropOp39
 70
     1
102
RTVSPost2010Prop40
 90
        0
102
RTVSPost2010PropOp40
 70
     1
102
RTVSPost2010Prop41ColorIndex
 90
       18
102
RTVSPost2010Prop41ColorRGB
 90
        0
102
RTVSPost2010PropOp41
 70
     1
102
RTVSPost2010Prop42
 90
       50
102
RTVSPost2010PropOp42
 70
     1
102
RTVSPost2010Prop43
 90
        3
102
RTVSPost2010PropOp43
 70
     1
102
RTVSPost2010Prop44ColorIndex
 90
        5
102
RTVSPost2010Prop44ColorRGB
 90
      255
102
RTVSPost2010PropOp44
 70
     1
102
RTVSPost2010Prop45
280
     0
102
RTVSPost2010PropOp45
 70
     1
102
RTVSPost2010Prop46
 90
       50
102
RTVSPost2010PropOp46
 70
     1
102
RTVSPost2010Prop47
 90
       50
102
RTVSPost2010PropOp47
 70
     1
102
RTVSPost2010Prop48
 90
       50
102
RTVSPost2010PropOp48
 70
     1
102
RTVSPost2010Prop49
280
     0
102
RTVSPost2010PropOp49
 70
     1
102
RTVSPost2010Prop50
 90
       50
102
RTVSPost2010PropOp50
 70
     1
102
RTVSPost2010Prop51ColorIndex
 90
      256
102
RTVSPost2010Prop51ColorRGB
 90
-16777216
102
RTVSPost2010PropOp51
 70
     0
102
RTVSPost2010Prop52
140
1.0
102
RTVSPost2010PropOp52
 70
     0
102
RTVSPost2010Prop53
 90
        2
102
RTVSPost2010PropOp53
 70
     1
102
RTVSPost2010Prop54
  1
strokes_ogs.tif
102
RTVSPost2010PropOp54
 70
     1
102
RTVSPost2010Prop55
280
     0
102
RTVSPost2010PropOp55
 70
     1
102
RTVSPost2010Prop56
140
1.0
102
RTVSPost2010PropOp56
 70
     1
102
RTVSPost2010Prop57
140
1.0
102
RTVSPost2010PropOp57
 70
     1
  0
XRECORD
  5
4A5
102
{ACAD_REACTORS
330
4A4
102
}
330
4A4
100
AcDbXrecord
280
     1
102
RTVSPost2010Prop28
280
     0
102
RTVSPost2010PropOp28
 70
     1
102
RTVSPost2010Prop29
280
     1
102
RTVSPost2010PropOp29
 70
     1
102
RTVSPost2010Prop30
280
     1
102
RTVSPost2010PropOp30
 70
     1
102
RTVSPost2010Prop31
280
     0
102
RTVSPost2010PropOp31
 70
     1
102
RTVSPost2010Prop32
280
     0
102
RTVSPost2010PropOp32
 70
     1
102
RTVSPost2010Prop33
280
     0
102
RTVSPost2010PropOp33
 70
     1
102
RTVSPost2010Prop34
280
     0
102
RTVSPost2010PropOp34
 70
     1
102
RTVSPost2010Prop35
280
     0
102
RTVSPost2010PropOp35
 70
     1
102
RTVSPost2010Prop36
280
     0
102
RTVSPost2010PropOp36
 70
     1
102
RTVSPost2010Prop37
 90
       50
102
RTVSPost2010PropOp37
 70
     1
102
RTVSPost2010Prop38
140
0.0
102
RTVSPost2010PropOp38
 70
     1
102
RTVSPost2010Prop39
140
1.0
102
RTVSPost2010PropOp39
 70
     1
102
RTVSPost2010Prop40
 90
        0
102
RTVSPost2010PropOp40
 70
     1
102
RTVSPost2010Prop41ColorIndex
 90
       18
102
RTVSPost2010Prop41ColorRGB
 90
        0
102
RTVSPost2010PropOp41
 70
     1
102
RTVSPost2010Prop42
 90
       50
102
RTVSPost2010PropOp42
 70
     1
102
RTVSPost2010Prop43
 90
        3
102
RTVSPost2010PropOp43
 70
     1
102
RTVSPost2010Prop44ColorIndex
 90
        5
102
RTVSPost2010Prop44ColorRGB
 90
      255
102
RTVSPost2010PropOp44
 70
     1
102
RTVSPost2010Prop45
280
     0
102
RTVSPost2010PropOp45
 70
     1
102
RTVSPost2010Prop46
 90
       50
102
RTVSPost2010PropOp46
 70
     1
102
RTVSPost2010Prop47
 90
       50
102
RTVSPost2010PropOp47
 70
     1
102
RTVSPost2010Prop48
 90
       50
102
RTVSPost2010PropOp48
 70
     1
102
RTVSPost2010Prop49
280
     0
102
RTVSPost2010PropOp49
 70
     1
102
RTVSPost2010Prop50
 90
       50
102
RTVSPost2010PropOp50
 70
     1
102
RTVSPost2010Prop51ColorIndex
 90
      256
102
RTVSPost2010Prop51ColorRGB
 90
-16777216
102
RTVSPost2010PropOp51
 70
     0
102
RTVSPost2010Prop52
140
1.0
102
RTVSPost2010PropOp52
 70
     0
102
RTVSPost2010Prop53
 90
        2
102
RTVSPost2010PropOp53
 70
     1
102
RTVSPost2010Prop54
  1
strokes_ogs.tif
102
RTVSPost2010PropOp54
 70
     1
102
RTVSPost2010Prop55
280
     0
102
RTVSPost2010PropOp55
 70
     1
102
RTVSPost2010Prop56
140
1.0
102
RTVSPost2010PropOp56
 70
     1
102
RTVSPost2010Prop57
140
1.0
102
RTVSPost2010PropOp57
 70
     1
  0
ENDSEC
  0
EOF
