  0
SECTION
  2
HEADER
  9
$ACADVER
  1
AC1024
  9
$ACADMAINTVER
 70
     6
  9
$DWGCODEPAGE
  3
ANSI_932
  9
$INSBASE
 10
0.0
 20
0.0
 30
0.0
  9
$EXTMIN
 10
-6300.0
 20
-4455.0
 30
0.0
  9
$EXTMAX
 10
6300.0
 20
4455.0
 30
0.0
  9
$LIMMIN
 10
-6300.0
 20
-4455.0
  9
$LIMMAX
 10
6300.0
 20
4455.0
  9
$ORTHOMODE
 70
     0
  9
$REGENMODE
 70
     1
  9
$FILLMODE
 70
     1
  9
$QTEXTMODE
 70
     0
  9
$MIRRTEXT
 70
     1
  9
$LTSCALE
 40
30.0
  9
$ATTMODE
 70
     1
  9
$TEXTSIZE
 40
2.5
  9
$TRACEWID
 40
1.0
  9
$TEXTSTYLE
  7
Standard
  9
$CLAYER
  8
0
  9
$CELTYPE
  6
ByLayer
  9
$CECOLOR
 62
   256
  9
$CELTSCALE
 40
1.0
  9
$DISPSILH
 70
     0
  9
$DIMSCALE
 40
1.0
  9
$DIMASZ
 40
2.5
  9
$DIMEXO
 40
0.625
  9
$DIMDLI
 40
3.75
  9
$DIMRND
 40
0.0
  9
$DIMDLE
 40
0.0
  9
$DIMEXE
 40
1.25
  9
$DIMTP
 40
0.0
  9
$DIMTM
 40
0.0
  9
$DIMTXT
 40
2.5
  9
$DIMCEN
 40
2.5
  9
$DIMTSZ
 40
0.0
  9
$DIMTOL
 70
     0
  9
$DIMLIM
 70
     0
  9
$DIMTIH
 70
     0
  9
$DIMTOH
 70
     0
  9
$DIMSE1
 70
     0
  9
$DIMSE2
 70
     0
  9
$DIMTAD
 70
     1
  9
$DIMZIN
 70
     8
  9
$DIMBLK
  1

  9
$DIMASO
 70
     1
  9
$DIMSHO
 70
     1
  9
$DIMPOST
  1

  9
$DIMAPOST
  1

  9
$DIMALT
 70
     0
  9
$DIMALTD
 70
     3
  9
$DIMALTF
 40
0.03937007874016
  9
$DIMLFAC
 40
1.0
  9
$DIMTOFL
 70
     1
  9
$DIMTVP
 40
0.0
  9
$DIMTIX
 70
     0
  9
$DIMSOXD
 70
     0
  9
$DIMSAH
 70
     0
  9
$DIMBLK1
  1

  9
$DIMBLK2
  1

  9
$DIMSTYLE
  2
ISO-25
  9
$DIMCLRD
 70
     0
  9
$DIMCLRE
 70
     0
  9
$DIMCLRT
 70
     0
  9
$DIMTFAC
 40
1.0
  9
$DIMGAP
 40
0.625
  9
$DIMJUST
 70
     0
  9
$DIMSD1
 70
     0
  9
$DIMSD2
 70
     0
  9
$DIMTOLJ
 70
     0
  9
$DIMTZIN
 70
     8
  9
$DIMALTZ
 70
     0
  9
$DIMALTTZ
 70
     0
  9
$DIMUPT
 70
     0
  9
$DIMDEC
 70
     2
  9
$DIMTDEC
 70
     2
  9
$DIMALTU
 70
     2
  9
$DIMALTTD
 70
     3
  9
$DIMTXSTY
  7
Standard
  9
$DIMAUNIT
 70
     0
  9
$DIMADEC
 70
     0
  9
$DIMALTRND
 40
0.0
  9
$DIMAZIN
 70
     0
  9
$DIMDSEP
 70
    44
  9
$DIMATFIT
 70
     3
  9
$DIMFRAC
 70
     0
  9
$DIMLDRBLK
  1

  9
$DIMLUNIT
 70
     2
  9
$DIMLWD
 70
    -2
  9
$DIMLWE
 70
    -2
  9
$DIMTMOVE
 70
     0
  9
$DIMFXL
 40
1.0
  9
$DIMFXLON
 70
     0
  9
$DIMJOGANG
 40
0.7853981633974483
  9
$DIMTFILL
 70
     0
  9
$DIMTFILLCLR
 70
     0
  9
$DIMARCSYM
 70
     0
  9
$DIMLTYPE
  6

  9
$DIMLTEX1
  6

  9
$DIMLTEX2
  6

  9
$DIMTXTDIRECTION
 70
     0
  9
$LUNITS
 70
     2
  9
$LUPREC
 70
     4
  9
$SKETCHINC
 40
1.0
  9
$FILLETRAD
 40
10.0
  9
$AUNITS
 70
     0
  9
$AUPREC
 70
     0
  9
$MENU
  1
.
  9
$ELEVATION
 40
0.0
  9
$PELEVATION
 40
0.0
  9
$THICKNESS
 40
0.0
  9
$LIMCHECK
 70
     0
  9
$CHAMFERA
 40
0.0
  9
$CHAMFERB
 40
0.0
  9
$CHAMFERC
 40
0.0
  9
$CHAMFERD
 40
0.0
  9
$SKPOLY
 70
     0
  9
$TDCREATE
 40
2458513.612139861
  9
$TDUCREATE
 40
2458513.237139861
  9
$TDUPDATE
 40
2458513.612140393
  9
$TDUUPDATE
 40
2458513.237140393
  9
$TDINDWG
 40
0.0000000116
  9
$TDUSRTIMER
 40
0.0000000116
  9
$USRTIMER
 70
     1
  9
$ANGBASE
 50
0.0
  9
$ANGDIR
 70
     0
  9
$PDMODE
 70
     0
  9
$PDSIZE
 40
0.0
  9
$PLINEWID
 40
0.0
  9
$SPLFRAME
 70
     0
  9
$SPLINETYPE
 70
     6
  9
$SPLINESEGS
 70
     8
  9
$HANDSEED
  5
3B4
  9
$SURFTAB1
 70
     6
  9
$SURFTAB2
 70
     6
  9
$SURFTYPE
 70
     6
  9
$SURFU
 70
     6
  9
$SURFV
 70
     6
  9
$UCSBASE
  2

  9
$UCSNAME
  2

  9
$UCSORG
 10
0.0
 20
0.0
 30
0.0
  9
$UCSXDIR
 10
1.0
 20
0.0
 30
0.0
  9
$UCSYDIR
 10
0.0
 20
1.0
 30
0.0
  9
$UCSORTHOREF
  2

  9
$UCSORTHOVIEW
 70
     0
  9
$UCSORGTOP
 10
0.0
 20
0.0
 30
0.0
  9
$UCSORGBOTTOM
 10
0.0
 20
0.0
 30
0.0
  9
$UCSORGLEFT
 10
0.0
 20
0.0
 30
0.0
  9
$UCSORGRIGHT
 10
0.0
 20
0.0
 30
0.0
  9
$UCSORGFRONT
 10
0.0
 20
0.0
 30
0.0
  9
$UCSORGBACK
 10
0.0
 20
0.0
 30
0.0
  9
$PUCSBASE
  2

  9
$PUCSNAME
  2

  9
$PUCSORG
 10
0.0
 20
0.0
 30
0.0
  9
$PUCSXDIR
 10
1.0
 20
0.0
 30
0.0
  9
$PUCSYDIR
 10
0.0
 20
1.0
 30
0.0
  9
$PUCSORTHOREF
  2

  9
$PUCSORTHOVIEW
 70
     0
  9
$PUCSORGTOP
 10
0.0
 20
0.0
 30
0.0
  9
$PUCSORGBOTTOM
 10
0.0
 20
0.0
 30
0.0
  9
$PUCSORGLEFT
 10
0.0
 20
0.0
 30
0.0
  9
$PUCSORGRIGHT
 10
0.0
 20
0.0
 30
0.0
  9
$PUCSORGFRONT
 10
0.0
 20
0.0
 30
0.0
  9
$PUCSORGBACK
 10
0.0
 20
0.0
 30
0.0
  9
$USERI1
 70
     0
  9
$USERI2
 70
     0
  9
$USERI3
 70
     0
  9
$USERI4
 70
     0
  9
$USERI5
 70
     0
  9
$USERR1
 40
0.0
  9
$USERR2
 40
0.0
  9
$USERR3
 40
0.0
  9
$USERR4
 40
0.0
  9
$USERR5
 40
0.0
  9
$WORLDVIEW
 70
     1
  9
$SHADEDGE
 70
     3
  9
$SHADEDIF
 70
    70
  9
$TILEMODE
 70
     1
  9
$MAXACTVP
 70
    64
  9
$PINSBASE
 10
0.0
 20
0.0
 30
0.0
  9
$PLIMCHECK
 70
     0
  9
$PEXTMIN
 10
1.000000000000000E+20
 20
1.000000000000000E+20
 30
1.000000000000000E+20
  9
$PEXTMAX
 10
-1.000000000000000E+20
 20
-1.000000000000000E+20
 30
-1.000000000000000E+20
  9
$PLIMMIN
 10
0.0
 20
0.0
  9
$PLIMMAX
 10
420.0
 20
297.0
  9
$UNITMODE
 70
     0
  9
$VISRETAIN
 70
     1
  9
$PLINEGEN
 70
     0
  9
$PSLTSCALE
 70
     1
  9
$TREEDEPTH
 70
  3020
  9
$CMLSTYLE
  2
Standard
  9
$CMLJUST
 70
     0
  9
$CMLSCALE
 40
20.0
  9
$PROXYGRAPHICS
 70
     1
  9
$MEASUREMENT
 70
     1
  9
$CELWEIGHT
370
    -1
  9
$ENDCAPS
280
     0
  9
$JOINSTYLE
280
     0
  9
$LWDISPLAY
290
     0
  9
$INSUNITS
 70
     4
  9
$HYPERLINKBASE
  1

  9
$STYLESHEET
  1

  9
$XEDIT
290
     1
  9
$CEPSNTYPE
380
     0
  9
$PSTYLEMODE
290
     1
  9
$FINGERPRINTGUID
  2
{49DBE6C4-ED8A-43D6-B442-1238AB094A13}
  9
$VERSIONGUID
  2
{FAEB1C32-E019-11D5-929B-00C0DF256EC4}
  9
$EXTNAMES
290
     1
  9
$PSVPSCALE
 40
0.0
  9
$OLESTARTUP
290
     0
  9
$SORTENTS
280
   127
  9
$INDEXCTL
280
     0
  9
$HIDETEXT
280
     1
  9
$XCLIPFRAME
280
     2
  9
$HALOGAP
280
     0
  9
$OBSCOLOR
 70
   257
  9
$OBSLTYPE
280
     0
  9
$INTERSECTIONDISPLAY
280
     0
  9
$INTERSECTIONCOLOR
 70
   257
  9
$DIMASSOC
280
     2
  9
$PROJECTNAME
  1

  9
$CAMERADISPLAY
290
     0
  9
$LENSLENGTH
 40
50.0
  9
$CAMERAHEIGHT
 40
0.0
  9
$STEPSPERSEC
 40
2.0
  9
$STEPSIZE
 40
6.0
  9
$3DDWFPREC
 40
2.0
  9
$PSOLWIDTH
 40
5.0
  9
$PSOLHEIGHT
 40
80.0
  9
$LOFTANG1
 40
1.570796326794897
  9
$LOFTANG2
 40
1.570796326794897
  9
$LOFTMAG1
 40
0.0
  9
$LOFTMAG2
 40
0.0
  9
$LOFTPARAM
 70
     7
  9
$LOFTNORMALS
280
     1
  9
$LATITUDE
 40
37.795
  9
$LONGITUDE
 40
-122.394
  9
$NORTHDIRECTION
 40
0.0
  9
$TIMEZONE
 70
 -8000
  9
$LIGHTGLYPHDISPLAY
280
     1
  9
$TILEMODELIGHTSYNCH
280
     1
  9
$CMATERIAL
347
44
  9
$SOLIDHIST
280
     0
  9
$SHOWHIST
280
     1
  9
$DWFFRAME
280
     2
  9
$DGNFRAME
280
     2
  9
$REALWORLDSCALE
290
     1
  9
$INTERFERECOLOR
 62
   256
  9
$CSHADOW
280
     0
  9
$SHADOWPLANELOCATION
 40
0.0
  0
ENDSEC
  0
SECTION
  2
CLASSES
  0
CLASS
  1
ACDBDICTIONARYWDFLT
  2
AcDbDictionaryWithDefault
  3
ObjectDBX Classes
 90
        0
 91
        4
280
     0
281
     0
  0
CLASS
  1
VISUALSTYLE
  2
AcDbVisualStyle
  3
ObjectDBX Classes
 90
     4095
 91
        4
280
     0
281
     0
  0
CLASS
  1
MATERIAL
  2
AcDbMaterial
  3
ObjectDBX Classes
 90
     1153
 91
        4
280
     0
281
     0
  0
CLASS
  1
SCALE
  2
AcDbScale
  3
ObjectDBX Classes
 90
     1153
 91
        4
280
     0
281
     0
  0
CLASS
  1
TABLESTYLE
  2
AcDbTableStyle
  3
ObjectDBX Classes
 90
     4095
 91
        4
280
     0
281
     0
  0
CLASS
  1
MLEADERSTYLE
  2
AcDbMLeaderStyle
  3
ACDB_MLEADERSTYLE_CLASS
 90
     4095
 91
        4
280
     0
281
     0
  0
CLASS
  1
SUN
  2
AcDbSun
  3
SCENEOE
 90
     1153
 91
        4
280
     0
281
     0
  0
CLASS
  1
DICTIONARYVAR
  2
AcDbDictionaryVar
  3
ObjectDBX Classes
 90
        0
 91
        4
280
     0
281
     0
  0
CLASS
  1
CELLSTYLEMAP
  2
AcDbCellStyleMap
  3
ObjectDBX Classes
 90
     1152
 91
        4
280
     0
281
     0
  0
ENDSEC
  0
SECTION
  2
TABLES
  0
TABLE
  2
VPORT
  5
8
330
0
100
AcDbSymbolTable
 70
     1
  0
VPORT
  5
29
330
8
100
AcDbSymbolTableRecord
100
AcDbViewportTableRecord
  2
*Active
 70
     0
 10
0.0
 20
0.0
 11
1.0
 21
1.0
 12
0.0
 22
0.0
 13
0.0
 23
0.0
 14
10.0
 24
10.0
 15
10.0
 25
10.0
 16
0.0
 26
0.0
 36
1.0
 17
0.0
 27
0.0
 37
0.0
 40
9801.0
 41
1.414141414141414
 42
50.0
 43
0.0
 44
0.0
 50
0.0
 51
0.0
 71
     0
 72
 10000
 73
     1
 74
     3
 75
     0
 76
     0
 77
     0
 78
     0
281
     0
 65
     1
110
0.0
120
0.0
130
0.0
111
1.0
121
0.0
131
0.0
112
0.0
122
1.0
132
0.0
 79
     0
146
0.0
348
2F
 60
     3
 61
     5
292
     1
282
     1
141
0.0
142
0.0
 63
   250
361
6D
  0
ENDTAB
  0
TABLE
  2
LTYPE
  5
5
330
0
100
AcDbSymbolTable
 70
     4
  0
LTYPE
  5
14
330
5
100
AcDbSymbolTableRecord
100
AcDbLinetypeTableRecord
  2
ByBlock
 70
     0
  3

 72
    65
 73
     0
 40
0.0
  0
LTYPE
  5
15
330
5
100
AcDbSymbolTableRecord
100
AcDbLinetypeTableRecord
  2
ByLayer
 70
     0
  3

 72
    65
 73
     0
 40
0.0
  0
LTYPE
  5
16
330
5
100
AcDbSymbolTableRecord
100
AcDbLinetypeTableRecord
  2
Continuous
 70
     0
  3
Solid line
 72
    65
 73
     0
 40
0.0
  0
LTYPE
  5
70
330
5
100
AcDbSymbolTableRecord
100
AcDbLinetypeTableRecord
  2
JWW_HOJO
 70
     0
  3
  -   -   -   -   -   -   -   - 
 72
    65
 73
     2
 40
1.693333333333333
 49
-1.27
 74
     0
 49
0.4233333333333333
 74
     0
  0
LTYPE
  5
71
330
5
100
AcDbSymbolTableRecord
100
AcDbLinetypeTableRecord
  2
JWW_DASHED1
 70
     0
  3
-  --  --  --  --  --  --  --  -
 72
    65
 73
     2
 40
1.693333333333333
 49
0.8466666666666667
 74
     0
 49
-0.8466666666666667
 74
     0
  0
LTYPE
  5
72
330
5
100
AcDbSymbolTableRecord
100
AcDbLinetypeTableRecord
  2
JWW_CENTER1
 70
     0
  3
-----  --  ----------  --  -----
 72
    65
 73
     4
 40
6.773333333333333
 49
4.233333333333333
 74
     0
 49
-0.8466666666666667
 74
     0
 49
0.8466666666666667
 74
     0
 49
-0.8466666666666667
 74
     0
  0
ENDTAB
  0
TABLE
  2
LAYER
  5
2
330
0
100
AcDbSymbolTable
 70
    13
  0
LAYER
  5
10
330
2
100
AcDbSymbolTableRecord
100
AcDbLayerTableRecord
  2
0
 70
     0
 62
     7
  6
Continuous
370
    -3
390
F
347
46
  0
LAYER
  5
73
330
2
100
AcDbSymbolTableRecord
100
AcDbLayerTableRecord
  2
F-0_補助線
 70
     0
 62
     7
  6
Continuous
370
    -3
390
F
347
46
  0
LAYER
  5
74
330
2
100
AcDbSymbolTableRecord
100
AcDbLayerTableRecord
  2
F-1_枠
 70
     0
 62
     7
  6
Continuous
370
    -3
390
F
347
46
  0
LAYER
  5
75
330
2
100
AcDbSymbolTableRecord
100
AcDbLayerTableRecord
  2
F-A_文字
 70
     0
 62
     7
  6
Continuous
370
    -3
390
F
347
46
  0
LAYER
  5
76
330
2
100
AcDbSymbolTableRecord
100
AcDbLayerTableRecord
  2
0-0_補助線
 70
     0
 62
     7
  6
Continuous
370
    -3
390
F
347
46
  0
LAYER
  5
77
330
2
100
AcDbSymbolTableRecord
100
AcDbLayerTableRecord
  2
0-C_ハッチ
 70
     0
 62
     7
  6
Continuous
370
    -3
390
F
347
46
  0
LAYER
  5
78
330
2
100
AcDbSymbolTableRecord
100
AcDbLayerTableRecord
  2
0-B_寸法
 70
     0
 62
     7
  6
Continuous
370
    -3
390
F
347
46
  0
LAYER
  5
79
330
2
100
AcDbSymbolTableRecord
100
AcDbLayerTableRecord
  2
0-4_枠
 70
     0
 62
     7
  6
Continuous
370
    -3
390
F
347
46
  0
LAYER
  5
7A
330
2
100
AcDbSymbolTableRecord
100
AcDbLayerTableRecord
  2
0-3_仕上げ
 70
     0
 62
     7
  6
Continuous
370
    -3
390
F
347
46
  0
LAYER
  5
7B
330
2
100
AcDbSymbolTableRecord
100
AcDbLayerTableRecord
  2
0-7_金物
 70
     0
 62
     7
  6
Continuous
370
    -3
390
F
347
46
  0
LAYER
  5
7C
330
2
100
AcDbSymbolTableRecord
100
AcDbLayerTableRecord
  2
0-6_扉
 70
     0
 62
     7
  6
Continuous
370
    -3
390
F
347
46
  0
LAYER
  5
7D
330
2
100
AcDbSymbolTableRecord
100
AcDbLayerTableRecord
  2
0-1_通り芯
 70
     0
 62
     7
  6
Continuous
370
    -3
390
F
347
46
  0
LAYER
  5
7E
330
2
100
AcDbSymbolTableRecord
100
AcDbLayerTableRecord
  2
0-A_文字
 70
     0
 62
     7
  6
Continuous
370
    -3
390
F
347
46
  0
ENDTAB
  0
TABLE
  2
STYLE
  5
3
330
0
100
AcDbSymbolTable
 70
     3
  0
STYLE
  5
11
330
3
100
AcDbSymbolTableRecord
100
AcDbTextStyleTableRecord
  2
Standard
 70
     0
 40
0.0
 41
1.0
 50
0.0
 71
     0
 42
2.5
  3
txt
  4

  0
STYLE
  5
6E
330
3
100
AcDbSymbolTableRecord
100
AcDbTextStyleTableRecord
  2
HGP明朝B
 70
     0
 40
1.0
 41
1.0
 50
0.0
 71
     0
 42
2.5
  3

  4

1001
ACAD
1000
HGPMinchoB
1071
    32786
  0
STYLE
  5
6F
330
3
100
AcDbSymbolTableRecord
100
AcDbTextStyleTableRecord
  2
ＭＳ ゴシック
 70
     0
 40
1.0
 41
1.0
 50
0.0
 71
     0
 42
2.5
  3

  4

1001
ACAD
1000
MS Gothic
1071
    32817
  0
ENDTAB
  0
TABLE
  2
VIEW
  5
6
330
0
100
AcDbSymbolTable
 70
     0
  0
ENDTAB
  0
TABLE
  2
UCS
  5
7
330
0
100
AcDbSymbolTable
 70
     0
  0
ENDTAB
  0
TABLE
  2
APPID
  5
9
330
0
100
AcDbSymbolTable
 70
     1
  0
APPID
  5
12
330
9
100
AcDbSymbolTableRecord
100
AcDbRegAppTableRecord
  2
ACAD
 70
     0
  0
ENDTAB
  0
TABLE
  2
DIMSTYLE
  5
A
330
0
100
AcDbSymbolTable
 70
     1
100
AcDbDimStyleTable
  0
DIMSTYLE
105
27
330
A
100
AcDbSymbolTableRecord
100
AcDbDimStyleTableRecord
  2
ISO-25
 70
     0
 41
2.5
 42
0.625
 43
3.75
 44
1.25
 73
     0
 74
     0
 77
     1
 78
     8
140
2.5
141
2.5
143
0.03937007874016
147
0.625
171
     3
172
     1
178
     0
271
     2
272
     2
274
     3
278
    44
283
     0
284
     8
340
11
  0
ENDTAB
  0
TABLE
  2
BLOCK_RECORD
  5
1
330
0
100
AcDbSymbolTable
 70
     1
  0
BLOCK_RECORD
  5
1F
330
1
100
AcDbSymbolTableRecord
100
AcDbBlockTableRecord
  2
*Model_Space
340
22
 70
     0
280
     1
281
     0
  0
BLOCK_RECORD
  5
1B
330
1
100
AcDbSymbolTableRecord
100
AcDbBlockTableRecord
  2
*Paper_Space
340
1E
 70
     0
280
     1
281
     0
  0
BLOCK_RECORD
  5
23
330
1
100
AcDbSymbolTableRecord
100
AcDbBlockTableRecord
  2
*Paper_Space0
340
26
 70
     0
280
     1
281
     0
  0
ENDTAB
  0
ENDSEC
  0
SECTION
  2
BLOCKS
  0
BLOCK
  5
20
330
1F
100
AcDbEntity
  8
0
100
AcDbBlockBegin
  2
*Model_Space
 70
     0
 10
0.0
 20
0.0
 30
0.0
  3
*Model_Space
  1

  0
ENDBLK
  5
21
330
1F
100
AcDbEntity
  8
0
100
AcDbBlockEnd
  0
BLOCK
  5
1C
330
1B
100
AcDbEntity
 67
     1
  8
0
100
AcDbBlockBegin
  2
*Paper_Space
 70
     0
 10
0.0
 20
0.0
 30
0.0
  3
*Paper_Space
  1

  0
ENDBLK
  5
1D
330
1B
100
AcDbEntity
 67
     1
  8
0
100
AcDbBlockEnd
  0
BLOCK
  5
24
330
23
100
AcDbEntity
  8
0
100
AcDbBlockBegin
  2
*Paper_Space0
 70
     0
 10
0.0
 20
0.0
 30
0.0
  3
*Paper_Space0
  1

  0
ENDBLK
  5
25
330
23
100
AcDbEntity
  8
0
100
AcDbBlockEnd
  0
ENDSEC
  0
SECTION
  2
ENTITIES
  0
LINE
  5
7F
330
1F
100
AcDbEntity
  8
F-0_補助線
  6
JWW_HOJO
 62
   120
370
     5
100
AcDbLine
 10
-6140.081333436773
 20
-4455.0
 30
0.0
 11
-6140.081333436773
 21
4424.999604096284
 31
0.0
  0
LINE
  5
80
330
1F
100
AcDbEntity
  8
F-0_補助線
  6
JWW_HOJO
 62
   120
370
     5
100
AcDbLine
 10
-6140.081333436773
 20
4424.999604096284
 30
0.0
 11
6159.917676803936
 21
4424.999604096284
 31
0.0
  0
LINE
  5
81
330
1F
100
AcDbEntity
  8
F-0_補助線
  6
JWW_HOJO
 62
   120
370
     5
100
AcDbLine
 10
6159.917676803936
 20
4424.999604096284
 30
0.0
 11
6159.917676803936
 21
-4455.0
 31
0.0
  0
LINE
  5
82
330
1F
100
AcDbEntity
  8
F-0_補助線
  6
JWW_HOJO
 62
   120
370
     5
100
AcDbLine
 10
6159.917676803936
 20
-4455.0
 30
0.0
 11
-6140.081333436773
 21
-4455.0
 31
0.0
  0
LINE
  5
83
330
1F
100
AcDbEntity
  8
F-0_補助線
  6
JWW_HOJO
 62
     7
370
     9
100
AcDbLine
 10
1009.918254163523
 20
-3795.000003092998
 30
0.0
 11
1009.918254163523
 21
-4195.000008247994
 31
0.0
  0
LINE
  5
84
330
1F
100
AcDbEntity
  8
F-0_補助線
  6
JWW_HOJO
 62
     7
370
     9
100
AcDbLine
 10
509.9185840832865
 20
-3795.000003092998
 30
0.0
 11
509.9185840832865
 21
-4195.000008247994
 31
0.0
  0
LINE
  5
85
330
1F
100
AcDbEntity
  8
F-1_枠
  6
Continuous
 62
   200
370
    20
100
AcDbLine
 10
5859.917429364114
 20
4174.999769056166
 30
0.0
 11
5859.917429364114
 21
-4205.000164959882
 31
0.0
  0
LINE
  5
86
330
1F
100
AcDbEntity
  8
F-1_枠
  6
Continuous
 62
   200
370
    20
100
AcDbLine
 10
-5840.081317971782
 20
4174.999769056166
 30
0.0
 11
-5840.081317971782
 21
-4205.000164959882
 31
0.0
  0
LINE
  5
87
330
1F
100
AcDbEntity
  8
F-1_枠
  6
Continuous
 62
   200
370
    20
100
AcDbLine
 10
5859.917429364114
 20
-4205.000002577498
 30
0.0
 11
-5840.081085996952
 21
-4205.000002577498
 31
0.0
  0
LINE
  5
88
330
1F
100
AcDbEntity
  8
F-1_枠
  6
Continuous
 62
   200
370
    20
100
AcDbLine
 10
-5830.081323642279
 20
4174.999769056166
 30
0.0
 11
-5830.081323642279
 21
-4205.000164959882
 31
0.0
  0
LINE
  5
89
330
1F
100
AcDbEntity
  8
F-1_枠
  6
Continuous
 62
   200
370
    20
100
AcDbLine
 10
-5835.081309208291
 20
4174.999769056166
 30
0.0
 11
-5835.081309208291
 21
-4205.000164959882
 31
0.0
  0
LINE
  5
8A
330
1F
100
AcDbEntity
  8
F-1_枠
  6
Continuous
 62
   200
370
    20
100
AcDbLine
 10
5854.917165428304
 20
4174.999769056166
 30
0.0
 11
5854.917165428304
 21
-4205.000164959882
 31
0.0
  0
LINE
  5
8B
330
1F
100
AcDbEntity
  8
F-1_枠
  6
Continuous
 62
   200
370
    20
100
AcDbLine
 10
5849.917643811961
 20
4174.999769056166
 30
0.0
 11
5849.917643811961
 21
-4205.000164959882
 31
0.0
  0
LINE
  5
8C
330
1F
100
AcDbEntity
  8
F-1_枠
  6
Continuous
 62
   200
370
    20
100
AcDbLine
 10
5859.917429364114
 20
-4199.999993814004
 30
0.0
 11
-5840.081085996952
 21
-4199.999993814004
 31
0.0
  0
LINE
  5
8D
330
1F
100
AcDbEntity
  8
F-1_枠
  6
Continuous
 62
   200
370
    20
100
AcDbLine
 10
5859.917429364114
 20
-4195.000008247994
 30
0.0
 11
-5840.081085996952
 21
-4195.000008247994
 31
0.0
  0
LINE
  5
8E
330
1F
100
AcDbEntity
  8
F-1_枠
  6
Continuous
 62
   200
370
    20
100
AcDbLine
 10
4349.917891251784
 20
-3795.000003092998
 30
0.0
 11
4349.917891251784
 21
-4195.000008247994
 31
0.0
  0
LINE
  5
8F
330
1F
100
AcDbEntity
  8
F-1_枠
  6
Continuous
 62
   200
370
    20
100
AcDbLine
 10
2849.917396372139
 20
-3795.000003092998
 30
0.0
 11
2849.917396372139
 21
-4195.000008247994
 31
0.0
  0
LINE
  5
90
330
1F
100
AcDbEntity
  8
F-1_枠
  6
Continuous
 62
   200
370
    20
100
AcDbLine
 10
9.918542843316231
 20
-3795.000003092998
 30
0.0
 11
9.918542843316231
 21
-4195.000008247994
 31
0.0
  0
LINE
  5
91
330
1F
100
AcDbEntity
  8
F-1_枠
  6
Continuous
 62
   200
370
    20
100
AcDbLine
 10
9.918542843316231
 20
-3994.999936078046
 30
0.0
 11
5849.917643811961
 21
-3995.005364289155
 31
0.0
  0
LINE
  5
92
330
1F
100
AcDbEntity
  8
F-1_枠
  6
Continuous
 62
   200
370
    20
100
AcDbLine
 10
-5840.081085996952
 20
4174.999769056166
 30
0.0
 11
5859.917429364114
 21
4174.999769056166
 31
0.0
  0
LINE
  5
93
330
1F
100
AcDbEntity
  8
F-1_枠
  6
Continuous
 62
   200
370
    20
100
AcDbLine
 10
-5840.081085996952
 20
4164.999983504013
 30
0.0
 11
5859.917429364114
 21
4164.999983504013
 31
0.0
  0
LINE
  5
94
330
1F
100
AcDbEntity
  8
F-1_枠
  6
Continuous
 62
   200
370
    20
100
AcDbLine
 10
-5840.081085996952
 20
4169.999505120355
 30
0.0
 11
5859.917429364114
 21
4169.999505120355
 31
0.0
  0
LINE
  5
95
330
1F
100
AcDbEntity
  8
F-0_補助線
  6
JWW_HOJO
 62
     7
370
     9
100
AcDbLine
 10
-5830.081323642279
 20
-3994.99993607839
 30
0.0
 11
9.918542843316231
 21
-3994.99993607839
 31
0.0
  0
LINE
  5
96
330
1F
100
AcDbEntity
  8
F-0_補助線
  6
JWW_HOJO
 62
     7
370
     9
100
AcDbLine
 10
-5830.081323642279
 20
-3904.99993607839
 30
0.0
 11
9.918542843316231
 21
-3904.99993607839
 31
0.0
  0
LINE
  5
97
330
1F
100
AcDbEntity
  8
F-0_補助線
  6
JWW_HOJO
 62
     7
370
     9
100
AcDbLine
 10
-5830.081323642279
 20
-4084.99993607839
 30
0.0
 11
9.918542843316231
 21
-4084.99993607839
 31
0.0
  0
LINE
  5
98
330
1F
100
AcDbEntity
  8
F-0_補助線
  6
JWW_HOJO
 62
     7
370
     9
100
AcDbLine
 10
9.918408067688347
 20
-4139.999739777983
 30
0.0
 11
5849.917509036332
 21
-4140.005167989091
 31
0.0
  0
LINE
  5
99
330
1F
100
AcDbEntity
  8
F-0_補助線
  6
JWW_HOJO
 62
     7
370
     9
100
AcDbLine
 10
9.918491721639953
 20
-4049.999739778022
 30
0.0
 11
5849.917592690284
 21
-4050.005167989131
 31
0.0
  0
LINE
  5
9A
330
1F
100
AcDbEntity
  8
F-0_補助線
  6
JWW_HOJO
 62
     7
370
     9
100
AcDbLine
 10
9.918593965360003
 20
-3939.99973721807
 30
0.0
 11
5849.917694934004
 21
-3940.005165429179
 31
0.0
  0
LINE
  5
9B
330
1F
100
AcDbEntity
  8
F-0_補助線
  6
JWW_HOJO
 62
     7
370
     9
100
AcDbLine
 10
9.918677619311609
 20
-3849.999737218109
 30
0.0
 11
5849.917778587956
 21
-3850.005165429218
 31
0.0
  0
LINE
  5
9C
330
1F
100
AcDbEntity
  8
F-0_補助線
  6
JWW_HOJO
 62
     7
370
     9
100
AcDbLine
 10
2939.917396372139
 20
-3795.000003092998
 30
0.0
 11
2939.917396372139
 21
-4195.000008247994
 31
0.0
  0
LINE
  5
9D
330
1F
100
AcDbEntity
  8
F-0_補助線
  6
JWW_HOJO
 62
     7
370
     9
100
AcDbLine
 10
99.91854284331623
 20
-3795.000003092998
 30
0.0
 11
99.91854284331623
 21
-4195.000008247994
 31
0.0
  0
LINE
  5
9E
330
1F
100
AcDbEntity
  8
F-0_補助線
  6
JWW_HOJO
 62
     7
370
     9
100
AcDbLine
 10
4439.917891251784
 20
-3795.000003092998
 30
0.0
 11
4439.917891251784
 21
-4195.000008247994
 31
0.0
  0
LINE
  5
9F
330
1F
100
AcDbEntity
  8
F-1_枠
  6
Continuous
 62
   200
370
    20
100
AcDbLine
 10
5859.917429364114
 20
-3795.000003092998
 30
0.0
 11
-5840.081085996952
 21
-3795.000003092998
 31
0.0
  0
LINE
  5
A0
330
1F
100
AcDbEntity
  8
F-1_枠
  6
Continuous
 62
   200
370
    20
100
AcDbLine
 10
5859.917429364114
 20
-3790.000017526987
 30
0.0
 11
-5840.081085996952
 21
-3790.000017526987
 31
0.0
  0
LINE
  5
A1
330
1F
100
AcDbEntity
  8
F-0_補助線
  6
JWW_HOJO
 62
     7
370
     9
100
AcDbLine
 10
-5087.628710189611
 20
-3795.000003092999
 30
0.0
 11
-5087.628710189611
 21
-4205.000164959882
 31
0.0
  0
LINE
  5
A2
330
1F
100
AcDbEntity
  8
F-0_補助線
  6
JWW_HOJO
 62
     7
370
     9
100
AcDbLine
 10
-50.08145715668377
 20
-3795.000003092998
 30
0.0
 11
-50.08145715668377
 21
-4195.000008247994
 31
0.0
  0
TEXT
  5
A3
330
1F
100
AcDbEntity
  8
F-0_補助線
  6
Continuous
 62
     7
370
     0
100
AcDbText
 10
509.9185840832865
 20
-3928.097291872503
 30
0.0
 40
66.06
  1
ＳＯＦＴＡＲＴ
 41
1.077453515576899
  7
HGP明朝B
100
AcDbText
  0
TEXT
  5
A4
330
1F
100
AcDbEntity
  8
F-0_補助線
  6
Continuous
 62
     7
370
     0
100
AcDbText
 10
1110.209427605311
 20
-3928.097291872503
 30
0.0
 40
68.58
  1
建具納まり図
 41
1.138888888888889
  7
ＭＳ ゴシック
100
AcDbText
  0
TEXT
  5
A5
330
1F
100
AcDbEntity
  8
F-A_文字
  6
Continuous
 62
     7
370
     0
100
AcDbText
 10
99.91854284331623
 20
-3871.539820871936
 30
0.0
 40
45.72
  1
図面名
  7
ＭＳ ゴシック
100
AcDbText
  0
TEXT
  5
A6
330
1F
100
AcDbEntity
  8
F-A_文字
  6
Continuous
 62
     7
370
     0
100
AcDbText
 10
2939.917396372139
 20
-3871.542460617774
 30
0.0
 40
45.72
  1
ＳＣＡＬＥ
  7
ＭＳ ゴシック
100
AcDbText
  0
TEXT
  5
A7
330
1F
100
AcDbEntity
  8
F-A_文字
  6
Continuous
 62
     7
370
     0
100
AcDbText
 10
4439.917891251784
 20
-3871.543854850754
 30
0.0
 40
45.72
  1
ＤＡＴＥ
  7
ＭＳ ゴシック
100
AcDbText
  0
TEXT
  5
A8
330
1F
100
AcDbEntity
  8
F-A_文字
  6
Continuous
 62
     7
370
     0
100
AcDbText
 10
2939.917396372139
 20
-4071.54246317786
 30
0.0
 40
45.72
  1
ＦＩＬＥ
  7
ＭＳ ゴシック
100
AcDbText
  0
TEXT
  5
A9
330
1F
100
AcDbEntity
  8
F-A_文字
  6
Continuous
 62
     7
370
     0
100
AcDbText
 10
4439.917891251784
 20
-4071.543857410839
 30
0.0
 40
45.72
  1
ＮＯ．
  7
ＭＳ ゴシック
100
AcDbText
  0
TEXT
  5
AA
330
1F
100
AcDbEntity
  8
F-A_文字
  6
Continuous
 62
     7
370
     0
100
AcDbText
 10
1394.917396372138
 20
-4080.540669266148
 30
0.0
 40
45.72
  1
株式
  7
ＭＳ ゴシック
100
AcDbText
  0
TEXT
  5
AB
330
1F
100
AcDbEntity
  8
F-A_文字
  6
Continuous
 62
     7
370
     0
100
AcDbText
 10
1604.917396372138
 20
-4138.082379523928
 30
0.0
 40
91.44
  1
ウッドワン・・・
 41
1.109375
  7
ＭＳ ゴシック
100
AcDbText
  0
TEXT
  5
AC
330
1F
100
AcDbEntity
  8
F-A_文字
  6
Continuous
 62
     7
370
     0
100
AcDbText
 10
1394.917396372138
 20
-4152.540669266186
 30
0.0
 40
45.72
  1
会社
  7
ＭＳ ゴシック
100
AcDbText
  0
TEXT
  5
AD
330
1F
100
AcDbEntity
  8
F-A_文字
  6
Continuous
 62
     7
370
     0
100
AcDbText
 10
5768.321977672939
 20
-4291.441419020919
 30
0.0
 40
68.58
  1
）
  7
ＭＳ ゴシック
100
AcDbText
  0
TEXT
  5
AE
330
1F
100
AcDbEntity
  8
F-A_文字
  6
Continuous
 62
     7
370
     0
100
AcDbText
 10
5350.114617405298
 20
-4292.835443869856
 30
0.0
 40
68.58
  1
,
  7
ＭＳ ゴシック
100
AcDbText
  0
TEXT
  5
AF
330
1F
100
AcDbEntity
  8
F-A_文字
  6
Continuous
 62
     7
370
     0
100
AcDbText
 10
5083.855928478601
 20
-4294.229467288283
 30
0.0
 40
68.58
  1
$y
 41
1.083333333333333
  7
ＭＳ ゴシック
100
AcDbText
  0
TEXT
  5
B0
330
1F
100
AcDbEntity
  8
F-A_文字
  6
Continuous
 62
     7
370
     0
100
AcDbText
 10
5238.592649517422
 20
-4294.229467288283
 30
0.0
 40
68.58
  1
$m
 41
1.083333333333333
  7
ＭＳ ゴシック
100
AcDbText
  0
TEXT
  5
B1
330
1F
100
AcDbEntity
  8
F-A_文字
  6
Continuous
 62
     7
370
     0
100
AcDbText
 10
5393.32938200033
 20
-4294.229467288283
 30
0.0
 40
68.58
  1
$d
 41
1.083333333333333
  7
ＭＳ ゴシック
100
AcDbText
  0
TEXT
  5
B2
330
1F
100
AcDbEntity
  8
F-A_文字
  6
Continuous
 62
     7
370
     0
100
AcDbText
 10
5548.066114483239
 20
-4294.229467288283
 30
0.0
 40
68.58
  1
印刷
 41
1.083333333333333
  7
ＭＳ ゴシック
100
AcDbText
  0
TEXT
  5
B3
330
1F
100
AcDbEntity
  8
F-A_文字
  6
Continuous
 62
     7
370
     0
100
AcDbText
 10
4943.952040816226
 20
-4295.623493567732
 30
0.0
 40
68.58
  1
（
  7
ＭＳ ゴシック
100
AcDbText
  0
TEXT
  5
B4
330
1F
100
AcDbEntity
  8
F-A_文字
  6
Continuous
 62
     7
370
     0
100
AcDbText
 10
5191.195810375571
 20
-4295.623493567732
 30
0.0
 40
68.58
  1
,
  7
ＭＳ ゴシック
100
AcDbText
  0
TEXT
  5
B5
330
1F
100
AcDbEntity
  8
F-A_文字
  6
Continuous
 62
     7
370
     9
100
AcDbText
 10
5096.167700144058
 20
-4127.314512699985
 30
0.0
 40
68.58
  1
01
 41
1.083333333333333
  7
ＭＳ ゴシック
100
AcDbText
  0
LINE
  5
B6
330
1F
100
AcDbEntity
  8
F-0_補助線
  6
JWW_HOJO
 62
     7
370
     9
100
AcDbLine
 10
3764.917643811961
 20
-3795.000003092998
 30
0.0
 11
3764.917643811961
 21
-4195.000008247994
 31
0.0
  0
TEXT
  5
B7
330
1F
100
AcDbEntity
  8
F-A_文字
  6
Continuous
 62
     7
370
     0
100
AcDbText
 10
3689.917643811961
 20
-3927.313227445928
 30
0.0
 40
68.58
  1
1/5
 41
1.111111111111111
  7
ＭＳ ゴシック
100
AcDbText
  0
TEXT
  5
B8
330
1F
100
AcDbEntity
  8
F-A_文字
  6
Continuous
 62
     7
370
     0
100
AcDbText
 10
-5087.628710189611
 20
-4027.30993607839
 30
0.0
 40
68.58
  1
ソフトアート　収納両開き戸　固定枠　３方枠（下枠なし）ドアＨ共通　枠外Ｗ734
 41
1.164444444444444
  7
ＭＳ ゴシック
100
AcDbText
  0
TEXT
  5
B9
330
1F
100
AcDbEntity
  8
F-A_文字
  6
Continuous
 62
     7
370
     9
100
AcDbText
 10
3296.167643811961
 20
-4127.313230006014
 30
0.0
 40
68.58
  1
F06(X)-AN0734Te_S01
 41
1.157894736842105
  7
ＭＳ ゴシック
100
AcDbText
  0
LINE
  5
BA
330
1F
100
AcDbEntity
  8
0-0_補助線
  6
JWW_HOJO
 62
   120
370
     5
100
AcDbLine
 10
-75.83548609129565
 20
2824.500190873769
 30
0.0
 11
-5679.83630264269
 21
2824.500190873769
 31
0.0
  0
LINE
  5
BB
330
1F
100
AcDbEntity
  8
0-0_補助線
  6
JWW_HOJO
 62
   120
370
     5
100
AcDbLine
 10
5702.215102265681
 20
2824.500190873769
 30
0.0
 11
98.2142857142847
 21
2824.500190873769
 31
0.0
  0
LINE
  5
BC
330
1F
100
AcDbEntity
  8
0-0_補助線
  6
JWW_HOJO
 62
   120
370
     5
100
AcDbLine
 10
698.2142857142846
 20
-139.281540514917
 30
0.0
 11
2720.21502803375
 21
-139.281540514917
 31
0.0
  0
LINE
  5
BD
330
1F
100
AcDbEntity
  8
0-0_補助線
  6
JWW_HOJO
 62
   120
370
     5
100
AcDbLine
 10
698.2142857142846
 20
-139.281540514917
 30
0.0
 11
698.2142857142846
 21
-3187.281541010996
 31
0.0
  0
LINE
  5
BE
330
1F
100
AcDbEntity
  8
0-C_ハッチ
  6
JWW_DASHED1
 62
   120
370
     5
100
AcDbLine
 10
-306.4409878332714
 20
2086.500190873769
 30
0.0
 11
-231.4407403934496
 21
2161.500438313593
 31
0.0
  0
LWPOLYLINE
  5
BF
330
1F
100
AcDbEntity
  8
0-B_寸法
  6
Continuous
 62
     7
370
     9
100
AcDbPolyline
 90
        4
 70
     1
 43
6.0
 10
-2880.836079946853
 20
1474.500190873769
 42
0.4142135623731
 10
-2883.836079946853
 20
1477.500190873769
 42
0.4142135623731
 10
-2886.836079946852
 20
1474.500190873769
 42
0.4142135623731
 10
-2883.836079946853
 20
1471.500190873769
 42
0.4142135623731
  0
LINE
  5
C0
330
1F
100
AcDbEntity
  8
0-B_寸法
  6
Continuous
 62
   120
370
     5
100
AcDbLine
 10
-2883.836079946853
 20
1474.500190873769
 30
0.0
 11
-2883.836079946853
 21
1834.500190873769
 31
0.0
  0
LWPOLYLINE
  5
C1
330
1F
100
AcDbEntity
  8
0-B_寸法
  6
Continuous
 62
     7
370
     9
100
AcDbPolyline
 90
        4
 70
     1
 43
6.0
 10
-2868.836079946853
 20
1474.500190873769
 42
0.4142135623731
 10
-2871.836079946852
 20
1477.500190873769
 42
0.4142135623731
 10
-2874.836079946852
 20
1474.500190873769
 42
0.4142135623731
 10
-2871.836079946852
 20
1471.500190873769
 42
0.4142135623731
  0
LINE
  5
C2
330
1F
100
AcDbEntity
  8
0-B_寸法
  6
Continuous
 62
   120
370
     5
100
AcDbLine
 10
-2871.836079946852
 20
1474.500190873769
 30
0.0
 11
-2871.836079946852
 21
1834.500190873769
 31
0.0
  0
LINE
  5
C3
330
1F
100
AcDbEntity
  8
0-B_寸法
  6
Continuous
 62
   120
370
     5
100
AcDbLine
 10
-4687.229845782997
 20
2014.500190873769
 30
0.0
 11
-4507.229845782997
 21
2014.500190873769
 31
0.0
  0
LWPOLYLINE
  5
C4
330
1F
100
AcDbEntity
  8
0-B_寸法
  6
Continuous
 62
     7
370
     9
100
AcDbPolyline
 90
        4
 70
     1
 43
6.0
 10
-4504.229845782997
 20
2014.500190873769
 42
0.4142135623731
 10
-4507.229845782997
 20
2017.500190873769
 42
0.4142135623731
 10
-4510.229845782997
 20
2014.500190873769
 42
0.4142135623731
 10
-4507.229845782997
 20
2011.500190873769
 42
0.4142135623731
  0
LINE
  5
C5
330
1F
100
AcDbEntity
  8
0-B_寸法
  6
Continuous
 62
   120
370
     5
100
AcDbLine
 10
-4687.229845782997
 20
2644.500190873769
 30
0.0
 11
-4507.229845782997
 21
2644.500190873769
 31
0.0
  0
LINE
  5
C6
330
1F
100
AcDbEntity
  8
0-B_寸法
  6
Continuous
 62
   120
370
     5
100
AcDbLine
 10
-4507.229845782997
 20
2644.500190873769
 30
0.0
 11
-4507.229845782997
 21
2014.500190873769
 31
0.0
  0
LWPOLYLINE
  5
C7
330
1F
100
AcDbEntity
  8
0-B_寸法
  6
Continuous
 62
     7
370
     9
100
AcDbPolyline
 90
        4
 70
     1
 43
6.0
 10
-4504.229845782997
 20
2644.500190873769
 42
0.4142135623731
 10
-4507.229845782997
 20
2647.500190873769
 42
0.4142135623731
 10
-4510.229845782997
 20
2644.500190873769
 42
0.4142135623731
 10
-4507.229845782997
 20
2641.500190873769
 42
0.4142135623731
  0
LINE
  5
C8
330
1F
100
AcDbEntity
  8
0-4_枠
  6
Continuous
 62
    92
370
    13
100
AcDbLine
 10
-4923.836079946848
 20
2644.500190873769
 30
0.0
 11
-5079.83630264269
 21
2644.500190873769
 31
0.0
  0
LINE
  5
C9
330
1F
100
AcDbEntity
  8
0-4_枠
  6
Continuous
 62
    92
370
    13
100
AcDbLine
 10
-4923.836079946848
 20
2644.500190873769
 30
0.0
 11
-4899.836079946848
 21
2620.500190873769
 31
0.0
  0
LINE
  5
CA
330
1F
100
AcDbEntity
  8
0-4_枠
  6
Continuous
 62
    92
370
    13
100
AcDbLine
 10
-4899.836079946848
 20
2038.50019087377
 30
0.0
 11
-4899.836079946848
 21
2620.500190873769
 31
0.0
  0
LINE
  5
CB
330
1F
100
AcDbEntity
  8
0-4_枠
  6
Continuous
 62
    92
370
    13
100
AcDbLine
 10
-4923.836079946848
 20
2014.500190873769
 30
0.0
 11
-5079.83630264269
 21
2014.500190873769
 31
0.0
  0
LINE
  5
CC
330
1F
100
AcDbEntity
  8
0-4_枠
  6
Continuous
 62
    92
370
    13
100
AcDbLine
 10
-4899.836079946848
 20
2038.50019087377
 30
0.0
 11
-4923.836079946848
 21
2014.500190873769
 31
0.0
  0
LINE
  5
CD
330
1F
100
AcDbEntity
  8
0-C_ハッチ
  6
Continuous
 62
   120
370
     5
100
AcDbLine
 10
-4944.570066070317
 20
2014.500190873776
 30
0.0
 11
-4899.836079946852
 21
2059.234176997239
 31
0.0
  0
LINE
  5
CE
330
1F
100
AcDbEntity
  8
0-C_ハッチ
  6
Continuous
 62
   120
370
     5
100
AcDbLine
 10
-5003.967035689959
 20
2014.50019087378
 30
0.0
 11
-4899.836079946855
 21
2118.631146616884
 31
0.0
  0
LINE
  5
CF
330
1F
100
AcDbEntity
  8
0-C_ハッチ
  6
Continuous
 62
   120
370
     5
100
AcDbLine
 10
-5063.364005309661
 20
2014.50019087378
 30
0.0
 11
-4899.836079946839
 21
2178.028116236601
 31
0.0
  0
LINE
  5
D0
330
1F
100
AcDbEntity
  8
0-C_ハッチ
  6
Continuous
 62
   120
370
     5
100
AcDbLine
 10
-5079.836302642701
 20
2057.424863160387
 30
0.0
 11
-4899.836079946853
 21
2237.425085856235
 31
0.0
  0
LINE
  5
D1
330
1F
100
AcDbEntity
  8
0-C_ハッチ
  6
Continuous
 62
   120
370
     5
100
AcDbLine
 10
-5079.83630264269
 20
2116.821832780045
 30
0.0
 11
-4899.836079946848
 21
2296.822055475887
 31
0.0
  0
LINE
  5
D2
330
1F
100
AcDbEntity
  8
0-C_ハッチ
  6
Continuous
 62
   120
370
     5
100
AcDbLine
 10
-5079.83630264269
 20
2176.218802399747
 30
0.0
 11
-4899.836079946848
 21
2356.219025095589
 31
0.0
  0
LINE
  5
D3
330
1F
100
AcDbEntity
  8
0-C_ハッチ
  6
Continuous
 62
   120
370
     5
100
AcDbLine
 10
-5079.836302642694
 20
2235.61577201939
 30
0.0
 11
-4899.836079946852
 21
2415.615994715232
 31
0.0
  0
LINE
  5
D4
330
1F
100
AcDbEntity
  8
0-C_ハッチ
  6
Continuous
 62
   120
370
     5
100
AcDbLine
 10
-5079.836302642694
 20
2295.012741639092
 30
0.0
 11
-4899.836079946852
 21
2475.012964334936
 31
0.0
  0
LINE
  5
D5
330
1F
100
AcDbEntity
  8
0-C_ハッチ
  6
Continuous
 62
   120
370
     5
100
AcDbLine
 10
-5079.836302642697
 20
2354.409711258736
 30
0.0
 11
-4899.836079946855
 21
2534.409933954578
 31
0.0
  0
LINE
  5
D6
330
1F
100
AcDbEntity
  8
0-C_ハッチ
  6
Continuous
 62
   120
370
     5
100
AcDbLine
 10
-5079.836302642681
 20
2413.806680878453
 30
0.0
 11
-4899.836079946848
 21
2593.806903574287
 31
0.0
  0
LINE
  5
D7
330
1F
100
AcDbEntity
  8
0-C_ハッチ
  6
Continuous
 62
   120
370
     5
100
AcDbLine
 10
-5079.836302642685
 20
2473.203650498097
 30
0.0
 11
-4916.187921106931
 21
2636.852032033852
 31
0.0
  0
LINE
  5
D8
330
1F
100
AcDbEntity
  8
0-C_ハッチ
  6
Continuous
 62
   120
370
     5
100
AcDbLine
 10
-5079.83630264269
 20
2532.600620117741
 30
0.0
 11
-4967.93673188666
 21
2644.500190873769
 31
0.0
  0
LINE
  5
D9
330
1F
100
AcDbEntity
  8
0-C_ハッチ
  6
Continuous
 62
   120
370
     5
100
AcDbLine
 10
-5079.836302642699
 20
2585.026318798606
 30
0.0
 11
-5020.362430567535
 21
2644.500190873769
 31
0.0
  0
LINE
  5
DA
330
1F
100
AcDbEntity
  8
0-C_ハッチ
  6
JWW_DASHED1
 62
   120
370
     5
100
AcDbLine
 10
-5098.325624789542
 20
2086.500190873769
 30
0.0
 11
-5079.83630264269
 21
2104.989141860891
 31
0.0
  0
LINE
  5
DB
330
1F
100
AcDbEntity
  8
0-C_ハッチ
  6
JWW_DASHED1
 62
   120
370
     5
100
AcDbLine
 10
-5140.752151658209
 20
2086.500190873769
 30
0.0
 11
-5079.83630264269
 21
2147.416411049024
 31
0.0
  0
LINE
  5
DC
330
1F
100
AcDbEntity
  8
0-C_ハッチ
  6
JWW_DASHED1
 62
   120
370
     5
100
AcDbLine
 10
-5183.178678526873
 20
2086.500190873769
 30
0.0
 11
-5108.178431087052
 21
2161.500438313593
 31
0.0
  0
LINE
  5
DD
330
1F
100
AcDbEntity
  8
0-C_ハッチ
  6
JWW_DASHED1
 62
   120
370
     5
100
AcDbLine
 10
-5225.604834235806
 20
2086.500190873769
 30
0.0
 11
-5150.604586795982
 21
2161.500438313593
 31
0.0
  0
LINE
  5
DE
330
1F
100
AcDbEntity
  8
0-C_ハッチ
  6
JWW_DASHED1
 62
   120
370
     5
100
AcDbLine
 10
-5268.031361104469
 20
2086.500190873769
 30
0.0
 11
-5193.031113664648
 21
2161.500438313593
 31
0.0
  0
LINE
  5
DF
330
1F
100
AcDbEntity
  8
0-C_ハッチ
  6
JWW_DASHED1
 62
   120
370
     5
100
AcDbLine
 10
-5310.457887973135
 20
2086.500190873769
 30
0.0
 11
-5235.457640533315
 21
2161.500438313593
 31
0.0
  0
LINE
  5
E0
330
1F
100
AcDbEntity
  8
0-C_ハッチ
  6
JWW_DASHED1
 62
   120
370
     5
100
AcDbLine
 10
-5352.883672522334
 20
2086.500190873769
 30
0.0
 11
-5277.88342508251
 21
2161.500438313593
 31
0.0
  0
LINE
  5
E1
330
1F
100
AcDbEntity
  8
0-C_ハッチ
  6
JWW_DASHED1
 62
   120
370
     5
100
AcDbLine
 10
-5395.310199391
 20
2086.500190873769
 30
0.0
 11
-5320.309951951178
 21
2161.500438313593
 31
0.0
  0
LINE
  5
E2
330
1F
100
AcDbEntity
  8
0-C_ハッチ
  6
JWW_DASHED1
 62
   120
370
     5
100
AcDbLine
 10
-5437.736726259669
 20
2086.500190873769
 30
0.0
 11
-5362.736478819842
 21
2161.500438313593
 31
0.0
  0
LINE
  5
E3
330
1F
100
AcDbEntity
  8
0-C_ハッチ
  6
JWW_DASHED1
 62
   120
370
     5
100
AcDbLine
 10
-5480.163253128331
 20
2086.500190873769
 30
0.0
 11
-5405.163005688508
 21
2161.500438313593
 31
0.0
  0
LINE
  5
E4
330
1F
100
AcDbEntity
  8
0-C_ハッチ
  6
JWW_DASHED1
 62
   120
370
     5
100
AcDbLine
 10
-5522.589408837262
 20
2086.500190873769
 30
0.0
 11
-5447.589161397438
 21
2161.500438313593
 31
0.0
  0
LINE
  5
E5
330
1F
100
AcDbEntity
  8
0-C_ハッチ
  6
JWW_DASHED1
 62
   120
370
     5
100
AcDbLine
 10
-5565.015935705931
 20
2086.500190873769
 30
0.0
 11
-5490.015688266106
 21
2161.500438313593
 31
0.0
  0
LINE
  5
E6
330
1F
100
AcDbEntity
  8
0-C_ハッチ
  6
JWW_DASHED1
 62
   120
370
     5
100
AcDbLine
 10
-5607.442462574593
 20
2086.500190873769
 30
0.0
 11
-5532.442215134772
 21
2161.500438313593
 31
0.0
  0
LINE
  5
E7
330
1F
100
AcDbEntity
  8
0-C_ハッチ
  6
JWW_DASHED1
 62
   120
370
     5
100
AcDbLine
 10
-5649.868989443263
 20
2086.500190873769
 30
0.0
 11
-5574.868742003438
 21
2161.500438313593
 31
0.0
  0
LINE
  5
E8
330
1F
100
AcDbEntity
  8
0-3_仕上げ
  6
Continuous
 62
    40
370
    15
100
AcDbLine
 10
-5079.83630264269
 20
2086.500190873769
 30
0.0
 11
-5679.83630264269
 21
2086.500190873769
 31
0.0
  0
LINE
  5
E9
330
1F
100
AcDbEntity
  8
0-3_仕上げ
  6
Continuous
 62
    40
370
    15
100
AcDbLine
 10
-5079.83630264269
 20
2161.500438313593
 30
0.0
 11
-5679.83630264269
 21
2161.500438313593
 31
0.0
  0
LINE
  5
EA
330
1F
100
AcDbEntity
  8
0-C_ハッチ
  6
JWW_DASHED1
 62
   120
370
     5
100
AcDbLine
 10
-5679.83630264269
 20
2141.385560251937
 30
0.0
 11
-5659.721424581032
 21
2161.500438313593
 31
0.0
  0
LINE
  5
EB
330
1F
100
AcDbEntity
  8
0-C_ハッチ
  6
JWW_DASHED1
 62
   120
370
     5
100
AcDbLine
 10
-5679.83630264269
 20
2098.959404543007
 30
0.0
 11
-5617.295268872102
 21
2161.500438313593
 31
0.0
  0
LINE
  5
EC
330
1F
100
AcDbEntity
  8
0-B_寸法
  6
Continuous
 62
   120
370
     5
100
AcDbLine
 10
-5079.83630264269
 20
1834.500190873769
 30
0.0
 11
-5079.83630264269
 21
1114.499745482088
 31
0.0
  0
LWPOLYLINE
  5
ED
330
1F
100
AcDbEntity
  8
0-B_寸法
  6
Continuous
 62
     7
370
     9
100
AcDbPolyline
 90
        4
 70
     1
 43
6.0
 10
-5076.83630264269
 20
1114.499745482088
 42
0.4142135623731
 10
-5079.83630264269
 20
1117.499745482088
 42
0.4142135623731
 10
-5082.83630264269
 20
1114.499745482088
 42
0.4142135623731
 10
-5079.83630264269
 20
1111.499745482088
 42
0.4142135623731
  0
LWPOLYLINE
  5
EE
330
1F
100
AcDbEntity
  8
0-B_寸法
  6
Continuous
 62
     7
370
     9
100
AcDbPolyline
 90
        4
 70
     1
 43
6.0
 10
-4896.836451106583
 20
1294.49996817793
 42
0.4142135623731
 10
-4899.836451106583
 20
1297.49996817793
 42
0.4142135623731
 10
-4902.836451106582
 20
1294.49996817793
 42
0.4142135623731
 10
-4899.836451106583
 20
1291.49996817793
 42
0.4142135623731
  0
LWPOLYLINE
  5
EF
330
1F
100
AcDbEntity
  8
0-B_寸法
  6
Continuous
 62
     7
370
     9
100
AcDbPolyline
 90
        4
 70
     1
 43
6.0
 10
-5076.83630264269
 20
1294.49996817793
 42
0.4142135623731
 10
-5079.83630264269
 20
1297.49996817793
 42
0.4142135623731
 10
-5082.83630264269
 20
1294.49996817793
 42
0.4142135623731
 10
-5079.83630264269
 20
1291.49996817793
 42
0.4142135623731
  0
LINE
  5
F0
330
1F
100
AcDbEntity
  8
0-B_寸法
  6
Continuous
 62
   120
370
     5
100
AcDbLine
 10
-4899.836451106583
 20
1834.500190873769
 30
0.0
 11
-4899.836451106583
 21
1294.49996817793
 31
0.0
  0
LWPOLYLINE
  5
F1
330
1F
100
AcDbEntity
  8
0-B_寸法
  6
Continuous
 62
     7
370
     9
100
AcDbPolyline
 90
        4
 70
     1
 43
6.0
 10
-4896.836451106583
 20
1474.500190873769
 42
0.4142135623731
 10
-4899.836451106583
 20
1477.500190873769
 42
0.4142135623731
 10
-4902.836451106582
 20
1474.500190873769
 42
0.4142135623731
 10
-4899.836451106583
 20
1471.500190873769
 42
0.4142135623731
  0
LWPOLYLINE
  5
F2
330
1F
100
AcDbEntity
  8
0-B_寸法
  6
Continuous
 62
     7
370
     9
100
AcDbPolyline
 90
        4
 70
     1
 43
6.0
 10
-4884.836079946852
 20
1474.500190873769
 42
0.4142135623731
 10
-4887.836079946852
 20
1477.500190873769
 42
0.4142135623731
 10
-4890.836079946852
 20
1474.500190873769
 42
0.4142135623731
 10
-4887.836079946852
 20
1471.500190873769
 42
0.4142135623731
  0
LINE
  5
F3
330
1F
100
AcDbEntity
  8
0-B_寸法
  6
Continuous
 62
   120
370
     5
100
AcDbLine
 10
-4887.836079946852
 20
1474.500190873769
 30
0.0
 11
-4887.836079946852
 21
1834.500190873769
 31
0.0
  0
LINE
  5
F4
330
1F
100
AcDbEntity
  8
0-B_寸法
  6
Continuous
 62
   120
370
     5
100
AcDbLine
 10
-855.8353376274019
 20
1474.500190873769
 30
0.0
 11
-4899.836451106583
 21
1474.500190873769
 31
0.0
  0
LINE
  5
F5
330
1F
100
AcDbEntity
  8
0-B_寸法
  6
Continuous
 62
   120
370
     5
100
AcDbLine
 10
-5079.83630264269
 20
1294.49996817793
 30
0.0
 11
-675.8354860912965
 21
1294.49996817793
 31
0.0
  0
LINE
  5
F6
330
1F
100
AcDbEntity
  8
0-B_寸法
  6
Continuous
 62
   120
370
     5
100
AcDbLine
 10
-855.8360799468664
 20
1474.500190873769
 30
0.0
 11
-855.8360799468664
 21
1834.500190873769
 31
0.0
  0
LWPOLYLINE
  5
F7
330
1F
100
AcDbEntity
  8
0-B_寸法
  6
Continuous
 62
     7
370
     9
100
AcDbPolyline
 90
        4
 70
     1
 43
6.0
 10
-852.8360799468664
 20
1474.500190873769
 42
0.4142135623731
 10
-855.8360799468664
 20
1477.500190873769
 42
0.4142135623731
 10
-858.8360799468664
 20
1474.500190873769
 42
0.4142135623731
 10
-855.8360799468664
 20
1471.500190873769
 42
0.4142135623731
  0
LINE
  5
F8
330
1F
100
AcDbEntity
  8
0-B_寸法
  6
Continuous
 62
   120
370
     5
100
AcDbLine
 10
-867.836079946853
 20
1474.500190873769
 30
0.0
 11
-867.836079946853
 21
1834.500190873769
 31
0.0
  0
LWPOLYLINE
  5
F9
330
1F
100
AcDbEntity
  8
0-B_寸法
  6
Continuous
 62
     7
370
     9
100
AcDbPolyline
 90
        4
 70
     1
 43
6.0
 10
-864.8360799468529
 20
1474.500190873769
 42
0.4142135623731
 10
-867.836079946853
 20
1477.500190873769
 42
0.4142135623731
 10
-870.836079946853
 20
1474.500190873769
 42
0.4142135623731
 10
-867.836079946853
 20
1471.500190873769
 42
0.4142135623731
  0
LINE
  5
FA
330
1F
100
AcDbEntity
  8
0-B_寸法
  6
Continuous
 62
   120
370
     5
100
AcDbLine
 10
-855.8353376274019
 20
1834.500190873769
 30
0.0
 11
-855.8353376274019
 21
1294.49996817793
 31
0.0
  0
LWPOLYLINE
  5
FB
330
1F
100
AcDbEntity
  8
0-B_寸法
  6
Continuous
 62
     7
370
     9
100
AcDbPolyline
 90
        4
 70
     1
 43
6.0
 10
-672.8354860912965
 20
1294.49996817793
 42
0.4142135623731
 10
-675.8354860912965
 20
1297.49996817793
 42
0.4142135623731
 10
-678.8354860912965
 20
1294.49996817793
 42
0.4142135623731
 10
-675.8354860912965
 20
1291.49996817793
 42
0.4142135623731
  0
LWPOLYLINE
  5
FC
330
1F
100
AcDbEntity
  8
0-B_寸法
  6
Continuous
 62
     7
370
     9
100
AcDbPolyline
 90
        4
 70
     1
 43
6.0
 10
-672.8354860912965
 20
1114.499745482088
 42
0.4142135623731
 10
-675.8354860912965
 20
1117.499745482088
 42
0.4142135623731
 10
-678.8354860912965
 20
1114.499745482088
 42
0.4142135623731
 10
-675.8354860912965
 20
1111.499745482088
 42
0.4142135623731
  0
LWPOLYLINE
  5
FD
330
1F
100
AcDbEntity
  8
0-B_寸法
  6
Continuous
 62
     7
370
     9
100
AcDbPolyline
 90
        4
 70
     1
 43
6.0
 10
-852.8353376274018
 20
1294.49996817793
 42
0.4142135623731
 10
-855.8353376274019
 20
1297.49996817793
 42
0.4142135623731
 10
-858.8353376274019
 20
1294.49996817793
 42
0.4142135623731
 10
-855.8353376274019
 20
1291.49996817793
 42
0.4142135623731
  0
LINE
  5
FE
330
1F
100
AcDbEntity
  8
0-B_寸法
  6
Continuous
 62
   120
370
     5
100
AcDbLine
 10
-675.8354860912965
 20
1834.500190873769
 30
0.0
 11
-675.8354860912965
 21
1114.499745482088
 31
0.0
  0
LINE
  5
FF
330
1F
100
AcDbEntity
  8
0-C_ハッチ
  6
JWW_DASHED1
 62
   120
370
     5
100
AcDbLine
 10
-675.8354860912965
 20
2098.942207475332
 30
0.0
 11
-613.2772552530355
 21
2161.500438313593
 31
0.0
  0
LINE
  5
100
330
1F
100
AcDbEntity
  8
0-C_ハッチ
  6
JWW_DASHED1
 62
   120
370
     5
100
AcDbLine
 10
-645.8517181436605
 20
2086.500190873769
 30
0.0
 11
-570.8514707038378
 21
2161.500438313593
 31
0.0
  0
LINE
  5
101
330
1F
100
AcDbEntity
  8
0-C_ハッチ
  6
JWW_DASHED1
 62
   120
370
     5
100
AcDbLine
 10
-603.425191274994
 20
2086.500190873769
 30
0.0
 11
-528.424943835173
 21
2161.500438313593
 31
0.0
  0
LINE
  5
102
330
1F
100
AcDbEntity
  8
0-C_ハッチ
  6
JWW_DASHED1
 62
   120
370
     5
100
AcDbLine
 10
-560.9986644063292
 20
2086.500190873769
 30
0.0
 11
-485.9984169665066
 21
2161.500438313593
 31
0.0
  0
LINE
  5
103
330
1F
100
AcDbEntity
  8
0-C_ハッチ
  6
JWW_DASHED1
 62
   120
370
     5
100
AcDbLine
 10
-518.5721375376627
 20
2086.500190873769
 30
0.0
 11
-443.5718900978418
 21
2161.500438313593
 31
0.0
  0
LINE
  5
104
330
1F
100
AcDbEntity
  8
0-C_ハッチ
  6
JWW_DASHED1
 62
   120
370
     5
100
AcDbLine
 10
-476.1463529884668
 20
2086.500190873769
 30
0.0
 11
-401.1461055486433
 21
2161.500438313593
 31
0.0
  0
LINE
  5
105
330
1F
100
AcDbEntity
  8
0-C_ハッチ
  6
JWW_DASHED1
 62
   120
370
     5
100
AcDbLine
 10
-433.7198261198003
 20
2086.500190873769
 30
0.0
 11
-358.7195786799759
 21
2161.500438313593
 31
0.0
  0
LINE
  5
106
330
1F
100
AcDbEntity
  8
0-C_ハッチ
  6
JWW_DASHED1
 62
   120
370
     5
100
AcDbLine
 10
-391.2940415706009
 20
2086.500190873769
 30
0.0
 11
-316.2937941307808
 21
2161.500438313593
 31
0.0
  0
LINE
  5
107
330
1F
100
AcDbEntity
  8
0-C_ハッチ
  6
JWW_DASHED1
 62
   120
370
     5
100
AcDbLine
 10
-348.867514701937
 20
2086.500190873769
 30
0.0
 11
-273.8672672621135
 21
2161.500438313593
 31
0.0
  0
LINE
  5
108
330
1F
100
AcDbEntity
  8
0-C_ハッチ
  6
Continuous
 62
   120
370
     5
100
AcDbLine
 10
-855.8360799468409
 20
2562.142020607322
 30
0.0
 11
-773.4779096803916
 21
2644.500190873769
 31
0.0
  0
LINE
  5
109
330
1F
100
AcDbEntity
  8
0-C_ハッチ
  6
Continuous
 62
   120
370
     5
100
AcDbLine
 10
-855.8360799468613
 20
2383.951111748304
 30
0.0
 11
-675.8354860912965
 21
2563.951705603869
 31
0.0
  0
LINE
  5
10A
330
1F
100
AcDbEntity
  8
0-C_ハッチ
  6
Continuous
 62
   120
370
     5
100
AcDbLine
 10
-855.8360799468613
 20
2443.348081368006
 30
0.0
 11
-675.8354860912965
 21
2623.348675223571
 31
0.0
  0
LINE
  5
10B
330
1F
100
AcDbEntity
  8
0-C_ハッチ
  6
Continuous
 62
   120
370
     5
100
AcDbLine
 10
-855.8360799468503
 20
2502.745050987663
 30
0.0
 11
-714.0809400607443
 21
2644.500190873769
 31
0.0
  0
LINE
  5
10C
330
1F
100
AcDbEntity
  8
0-C_ハッチ
  6
Continuous
 62
   120
370
     5
100
AcDbLine
 10
-855.8360799468579
 20
2324.55414212866
 30
0.0
 11
-675.8354860912777
 21
2504.554735984241
 31
0.0
  0
LINE
  5
10D
330
1F
100
AcDbEntity
  8
0-C_ハッチ
  6
Continuous
 62
   120
370
     5
100
AcDbLine
 10
-855.8360799468733
 20
2265.157172508944
 30
0.0
 11
-675.8354860912939
 21
2445.157766364523
 31
0.0
  0
LINE
  5
10E
330
1F
100
AcDbEntity
  8
0-C_ハッチ
  6
Continuous
 62
   120
370
     5
100
AcDbLine
 10
-855.8360799468528
 20
2205.760202889315
 30
0.0
 11
-675.8354860912734
 21
2385.760796744895
 31
0.0
  0
LINE
  5
10F
330
1F
100
AcDbEntity
  8
0-C_ハッチ
  6
Continuous
 62
   120
370
     5
100
AcDbLine
 10
-855.836079946864
 20
2146.363233269656
 30
0.0
 11
-675.8354860912863
 21
2326.363827125236
 31
0.0
  0
LINE
  5
110
330
1F
100
AcDbEntity
  8
0-C_ハッチ
  6
Continuous
 62
   120
370
     5
100
AcDbLine
 10
-855.8360799468664
 20
2086.966263649954
 30
0.0
 11
-675.8354860913007
 21
2266.966857505518
 31
0.0
  0
LINE
  5
111
330
1F
100
AcDbEntity
  8
0-C_ハッチ
  6
Continuous
 62
   120
370
     5
100
AcDbLine
 10
-809.5082134837048
 20
2014.500190873767
 30
0.0
 11
-675.8354860912982
 21
2148.172918266172
 31
0.0
  0
LINE
  5
112
330
1F
100
AcDbEntity
  8
0-C_ハッチ
  6
Continuous
 62
   120
370
     5
100
AcDbLine
 10
-750.1112438640669
 20
2014.500190873756
 30
0.0
 11
-675.8354860912794
 21
2088.775948646545
 31
0.0
  0
LINE
  5
113
330
1F
100
AcDbEntity
  8
0-C_ハッチ
  6
Continuous
 62
   120
370
     5
100
AcDbLine
 10
-690.7142742444103
 20
2014.500190873765
 30
0.0
 11
-675.8354860912889
 21
2029.378979026886
 31
0.0
  0
LINE
  5
114
330
1F
100
AcDbEntity
  8
0-4_枠
  6
Continuous
 62
    92
370
    13
100
AcDbLine
 10
-831.8360799468695
 20
2644.500190873769
 30
0.0
 11
-675.8354860912965
 21
2644.500190873769
 31
0.0
  0
LINE
  5
115
330
1F
100
AcDbEntity
  8
0-4_枠
  6
Continuous
 62
    92
370
    13
100
AcDbLine
 10
-855.836079946869
 20
2038.50019087377
 30
0.0
 11
-831.8360799468695
 21
2014.500190873769
 31
0.0
  0
LINE
  5
116
330
1F
100
AcDbEntity
  8
0-4_枠
  6
Continuous
 62
    92
370
    13
100
AcDbLine
 10
-831.8360799468695
 20
2014.500190873769
 30
0.0
 11
-675.8354860912965
 21
2014.500190873769
 31
0.0
  0
LINE
  5
117
330
1F
100
AcDbEntity
  8
0-4_枠
  6
Continuous
 62
    92
370
    13
100
AcDbLine
 10
-855.836079946869
 20
2038.50019087377
 30
0.0
 11
-855.836079946869
 21
2620.500190873769
 31
0.0
  0
LINE
  5
118
330
1F
100
AcDbEntity
  8
0-4_枠
  6
Continuous
 62
    92
370
    13
100
AcDbLine
 10
-831.8360799468695
 20
2644.500190873769
 30
0.0
 11
-855.836079946869
 21
2620.500190873769
 31
0.0
  0
LINE
  5
119
330
1F
100
AcDbEntity
  8
0-4_枠
  6
Continuous
 62
    92
370
    13
100
AcDbLine
 10
-675.8354860912965
 20
2014.500190873769
 30
0.0
 11
-675.8354860912965
 21
2644.500190873769
 31
0.0
  0
LINE
  5
11A
330
1F
100
AcDbEntity
  8
0-0_補助線
  6
JWW_HOJO
 62
   120
370
     5
100
AcDbLine
 10
-5679.83630264269
 20
2824.500190873769
 30
0.0
 11
-5679.83630264269
 21
1834.500190873769
 31
0.0
  0
LINE
  5
11B
330
1F
100
AcDbEntity
  8
0-0_補助線
  6
JWW_HOJO
 62
   120
370
     5
100
AcDbLine
 10
-2877.836079946854
 20
2197.461154767351
 30
0.0
 11
-2877.836079946854
 21
2824.500190873769
 31
0.0
  0
LINE
  5
11C
330
1F
100
AcDbEntity
  8
0-3_仕上げ
  6
Continuous
 62
    92
370
    13
100
AcDbLine
 10
-5109.836401618621
 20
2161.500438313593
 30
0.0
 11
-5109.836401618621
 21
2645.991703141936
 31
0.0
  0
LINE
  5
11D
330
1F
100
AcDbEntity
  8
0-3_仕上げ
  6
Continuous
 62
    92
370
    13
100
AcDbLine
 10
-645.8353871153685
 20
2161.500438313593
 30
0.0
 11
-645.8353871153685
 21
2613.380484767104
 31
0.0
  0
LINE
  5
11E
330
1F
100
AcDbEntity
  8
0-4_枠
  6
Continuous
 62
    92
370
    13
100
AcDbLine
 10
-5079.83630264269
 20
2014.500190873769
 30
0.0
 11
-5079.83630264269
 21
2644.500190873769
 31
0.0
  0
LWPOLYLINE
  5
11F
330
1F
100
AcDbEntity
  8
0-B_寸法
  6
Continuous
 62
     7
370
     9
100
AcDbPolyline
 90
        4
 70
     1
 43
6.0
 10
-642.8353871153693
 20
1114.499745482088
 42
0.4142135623731
 10
-645.8353871153693
 20
1117.499745482088
 42
0.4142135623731
 10
-648.8353871153694
 20
1114.499745482088
 42
0.4142135623731
 10
-645.8353871153693
 20
1111.499745482088
 42
0.4142135623731
  0
LWPOLYLINE
  5
120
330
1F
100
AcDbEntity
  8
0-B_寸法
  6
Continuous
 62
     7
370
     9
100
AcDbPolyline
 90
        4
 70
     1
 43
6.0
 10
-5106.836401618621
 20
1114.499745482088
 42
0.4142135623731
 10
-5109.836401618621
 20
1117.499745482088
 42
0.4142135623731
 10
-5112.83640161862
 20
1114.499745482088
 42
0.4142135623731
 10
-5109.836401618621
 20
1111.499745482088
 42
0.4142135623731
  0
LINE
  5
121
330
1F
100
AcDbEntity
  8
0-B_寸法
  6
Continuous
 62
   120
370
     5
100
AcDbLine
 10
-5109.836401618621
 20
1114.499745482088
 30
0.0
 11
-645.8353871153693
 21
1114.499745482088
 31
0.0
  0
LINE
  5
122
330
1F
100
AcDbEntity
  8
0-7_金物
  6
Continuous
 62
     7
370
     9
100
AcDbLine
 10
-4836.232224077292
 20
2516.953418350204
 30
0.0
 11
-4806.71267081497
 21
2301.004263310759
 31
0.0
  0
LINE
  5
123
330
1F
100
AcDbEntity
  8
0-7_金物
  6
Continuous
 62
     7
370
     9
100
AcDbLine
 10
-4836.232224077292
 20
2516.953418350204
 30
0.0
 11
-4878.231212732635
 21
2517.244883490833
 31
0.0
  0
LINE
  5
124
330
1F
100
AcDbEntity
  8
0-7_金物
  6
Continuous
 62
     7
370
     9
100
AcDbLine
 10
-4887.945129577822
 20
2507.116472112024
 30
0.0
 11
-4889.234290079634
 21
2490.357385588498
 31
0.0
  0
LINE
  5
125
330
1F
100
AcDbEntity
  8
0-7_金物
  6
Continuous
 62
     7
370
     9
100
AcDbLine
 10
-4887.945129577822
 20
2507.116472112024
 30
0.0
 11
-4878.179246858108
 21
2514.44088415181
 31
0.0
  0
LINE
  5
126
330
1F
100
AcDbEntity
  8
0-7_金物
  6
Continuous
 62
     7
370
     9
100
AcDbLine
 10
-4878.231212732635
 20
2517.244883490833
 30
0.0
 11
-4877.336079946848
 21
2468.944883490832
 31
0.0
  0
LINE
  5
127
330
1F
100
AcDbEntity
  8
0-7_金物
  6
Continuous
 62
     7
370
     9
100
AcDbLine
 10
-4899.836079946848
 20
2468.944883490832
 30
0.0
 11
-4899.836079946848
 21
2313.544883490834
 31
0.0
  0
LINE
  5
128
330
1F
100
AcDbEntity
  8
0-7_金物
  6
Continuous
 62
     7
370
     9
100
AcDbLine
 10
-4806.71267081497
 20
2301.004263310759
 30
0.0
 11
-4752.153556720516
 21
2248.869998731616
 31
0.0
  0
LINE
  5
129
330
1F
100
AcDbEntity
  8
0-7_金物
  6
Continuous
 62
     7
370
     9
100
AcDbLine
 10
-4880.670581031894
 20
2488.930100747207
 30
0.0
 11
-4889.234290079634
 21
2490.357385588498
 31
0.0
  0
LINE
  5
12A
330
1F
100
AcDbEntity
  8
0-7_金物
  6
Continuous
 62
     7
370
     9
100
AcDbLine
 10
-4880.670581031894
 20
2488.930100747207
 30
0.0
 11
-4880.670581031894
 21
2496.204649293136
 31
0.0
  0
LINE
  5
12B
330
1F
100
AcDbEntity
  8
0-7_金物
  6
Continuous
 62
     7
370
     9
100
AcDbLine
 10
-4880.670581031894
 20
2496.204649293136
 30
0.0
 11
-4877.867255606297
 21
2497.606312005933
 31
0.0
  0
LINE
  5
12C
330
1F
100
AcDbEntity
  8
0-7_金物
  6
Continuous
 62
     7
370
     9
100
AcDbLine
 10
-4752.153556720516
 20
2248.869998731616
 30
0.0
 11
-4750.707375393953
 21
2218.50019087377
 31
0.0
  0
LINE
  5
12D
330
1F
100
AcDbEntity
  8
0-7_金物
  6
Continuous
 62
     7
370
     9
100
AcDbLine
 10
-4831.48091497238
 20
2218.50019087377
 30
0.0
 11
-4690.18091497238
 21
2218.50019087377
 31
0.0
  0
LINE
  5
12E
330
1F
100
AcDbEntity
  8
0-7_金物
  6
Continuous
 62
     7
370
     9
100
AcDbLine
 10
-4773.960076940194
 20
2218.50019087377
 30
0.0
 11
-4877.029301062505
 21
2266.405604902448
 31
0.0
  0
LINE
  5
12F
330
1F
100
AcDbEntity
  8
0-7_金物
  6
Continuous
 62
     7
370
     9
100
AcDbLine
 10
-4899.836079946848
 20
2313.544883490834
 30
0.0
 11
-4877.319460464961
 21
2313.544883490834
 31
0.0
  0
LINE
  5
130
330
1F
100
AcDbEntity
  8
0-7_金物
  6
Continuous
 62
     7
370
     9
100
AcDbLine
 10
-4877.029301062505
 20
2266.405604902448
 30
0.0
 11
-4877.336079946848
 21
2316.244883490832
 31
0.0
  0
LINE
  5
131
330
1F
100
AcDbEntity
  8
0-7_金物
  6
Continuous
 62
     7
370
     9
100
AcDbLine
 10
-4899.836079946848
 20
2468.944883490832
 30
0.0
 11
-4877.336079946848
 21
2468.944883490832
 31
0.0
  0
LINE
  5
132
330
1F
100
AcDbEntity
  8
0-7_金物
  6
Continuous
 62
     7
370
     9
100
AcDbLine
 10
-4877.336079946848
 20
2313.544883490834
 30
0.0
 11
-4877.336079946848
 21
2468.944883490832
 31
0.0
  0
LINE
  5
133
330
1F
100
AcDbEntity
  8
0-7_金物
  6
JWW_DASHED1
 62
     7
370
     9
100
AcDbLine
 10
-4831.48091497238
 20
2218.50019087377
 30
0.0
 11
-4831.48091497238
 21
2176.557630056308
 31
0.0
  0
LINE
  5
134
330
1F
100
AcDbEntity
  8
0-7_金物
  6
JWW_DASHED1
 62
     7
370
     9
100
AcDbLine
 10
-4690.18091497238
 20
2218.50019087377
 30
0.0
 11
-4690.18091497238
 21
2176.557630056308
 31
0.0
  0
LINE
  5
135
330
1F
100
AcDbEntity
  8
0-7_金物
  6
JWW_DASHED1
 62
     7
370
     9
100
AcDbLine
 10
-4831.48091497238
 20
2176.557630056308
 30
0.0
 11
-4690.18091497238
 21
2176.557630056308
 31
0.0
  0
LINE
  5
136
330
1F
100
AcDbEntity
  8
0-7_金物
  6
Continuous
 62
     7
370
     9
100
AcDbLine
 10
-919.4399358164221
 20
2516.953418350204
 30
0.0
 11
-948.9594890787432
 21
2301.004263310759
 31
0.0
  0
LINE
  5
137
330
1F
100
AcDbEntity
  8
0-7_金物
  6
Continuous
 62
     7
370
     9
100
AcDbLine
 10
-919.4399358164221
 20
2516.953418350204
 30
0.0
 11
-877.4409471610786
 21
2517.244883490833
 31
0.0
  0
LINE
  5
138
330
1F
100
AcDbEntity
  8
0-7_金物
  6
Continuous
 62
     7
370
     9
100
AcDbLine
 10
-867.7270303158914
 20
2507.116472112024
 30
0.0
 11
-866.4378698140808
 21
2490.357385588498
 31
0.0
  0
LINE
  5
139
330
1F
100
AcDbEntity
  8
0-7_金物
  6
Continuous
 62
     7
370
     9
100
AcDbLine
 10
-867.7270303158914
 20
2507.116472112024
 30
0.0
 11
-877.4929130356056
 21
2514.44088415181
 31
0.0
  0
LINE
  5
13A
330
1F
100
AcDbEntity
  8
0-7_金物
  6
Continuous
 62
     7
370
     9
100
AcDbLine
 10
-877.4409471610786
 20
2517.244883490833
 30
0.0
 11
-878.3360799468664
 21
2468.944883490832
 31
0.0
  0
LINE
  5
13B
330
1F
100
AcDbEntity
  8
0-7_金物
  6
Continuous
 62
     7
370
     9
100
AcDbLine
 10
-855.8360799468664
 20
2468.944883490832
 30
0.0
 11
-855.8360799468664
 21
2313.544883490834
 31
0.0
  0
LINE
  5
13C
330
1F
100
AcDbEntity
  8
0-7_金物
  6
Continuous
 62
     7
370
     9
100
AcDbLine
 10
-948.9594890787432
 20
2301.004263310759
 30
0.0
 11
-1003.518603173198
 21
2248.869998731616
 31
0.0
  0
LINE
  5
13D
330
1F
100
AcDbEntity
  8
0-7_金物
  6
Continuous
 62
     7
370
     9
100
AcDbLine
 10
-875.001578861818
 20
2488.930100747207
 30
0.0
 11
-866.4378698140808
 21
2490.357385588498
 31
0.0
  0
LINE
  5
13E
330
1F
100
AcDbEntity
  8
0-7_金物
  6
Continuous
 62
     7
370
     9
100
AcDbLine
 10
-875.001578861818
 20
2488.930100747207
 30
0.0
 11
-875.001578861818
 21
2496.204649293136
 31
0.0
  0
LINE
  5
13F
330
1F
100
AcDbEntity
  8
0-7_金物
  6
Continuous
 62
     7
370
     9
100
AcDbLine
 10
-875.001578861818
 20
2496.204649293136
 30
0.0
 11
-877.8049042874181
 21
2497.606312005933
 31
0.0
  0
LINE
  5
140
330
1F
100
AcDbEntity
  8
0-7_金物
  6
Continuous
 62
     7
370
     9
100
AcDbLine
 10
-1003.518603173198
 20
2248.869998731616
 30
0.0
 11
-1004.964784499762
 21
2218.50019087377
 31
0.0
  0
LINE
  5
141
330
1F
100
AcDbEntity
  8
0-7_金物
  6
Continuous
 62
     7
370
     9
100
AcDbLine
 10
-924.1912449213328
 20
2218.50019087377
 30
0.0
 11
-1065.491244921334
 21
2218.50019087377
 31
0.0
  0
LINE
  5
142
330
1F
100
AcDbEntity
  8
0-7_金物
  6
Continuous
 62
     7
370
     9
100
AcDbLine
 10
-981.7120829535185
 20
2218.50019087377
 30
0.0
 11
-878.6428588312085
 21
2266.405604902448
 31
0.0
  0
LINE
  5
143
330
1F
100
AcDbEntity
  8
0-7_金物
  6
Continuous
 62
     7
370
     9
100
AcDbLine
 10
-855.8360799468664
 20
2313.544883490834
 30
0.0
 11
-878.3526994287536
 21
2313.544883490834
 31
0.0
  0
LINE
  5
144
330
1F
100
AcDbEntity
  8
0-7_金物
  6
Continuous
 62
     7
370
     9
100
AcDbLine
 10
-878.6428588312085
 20
2266.405604902448
 30
0.0
 11
-878.3360799468664
 21
2316.244883490832
 31
0.0
  0
LINE
  5
145
330
1F
100
AcDbEntity
  8
0-7_金物
  6
Continuous
 62
     7
370
     9
100
AcDbLine
 10
-855.8360799468664
 20
2468.944883490832
 30
0.0
 11
-878.3360799468664
 21
2468.944883490832
 31
0.0
  0
LINE
  5
146
330
1F
100
AcDbEntity
  8
0-7_金物
  6
Continuous
 62
     7
370
     9
100
AcDbLine
 10
-878.3360799468664
 20
2313.544883490834
 30
0.0
 11
-878.3360799468664
 21
2468.944883490832
 31
0.0
  0
LINE
  5
147
330
1F
100
AcDbEntity
  8
0-7_金物
  6
JWW_DASHED1
 62
     7
370
     9
100
AcDbLine
 10
-924.1912449213328
 20
2218.50019087377
 30
0.0
 11
-924.1912449213328
 21
2176.557630056308
 31
0.0
  0
LINE
  5
148
330
1F
100
AcDbEntity
  8
0-7_金物
  6
JWW_DASHED1
 62
     7
370
     9
100
AcDbLine
 10
-1065.491244921334
 20
2218.50019087377
 30
0.0
 11
-1065.491244921334
 21
2176.557630056308
 31
0.0
  0
LINE
  5
149
330
1F
100
AcDbEntity
  8
0-7_金物
  6
JWW_DASHED1
 62
     7
370
     9
100
AcDbLine
 10
-924.1912449213328
 20
2176.557630056308
 30
0.0
 11
-1065.491244921334
 21
2176.557630056308
 31
0.0
  0
LWPOLYLINE
  5
14A
330
1F
100
AcDbEntity
  8
0-B_寸法
  6
Continuous
 62
     7
370
     9
100
AcDbPolyline
 90
        4
 70
     1
 43
6.0
 10
-5106.836401618621
 20
934.4997454820882
 42
0.4142135623731
 10
-5109.836401618621
 20
937.4997454820882
 42
0.4142135623731
 10
-5112.83640161862
 20
934.4997454820882
 42
0.4142135623731
 10
-5109.836401618621
 20
931.4997454820881
 42
0.4142135623731
  0
LWPOLYLINE
  5
14B
330
1F
100
AcDbEntity
  8
0-B_寸法
  6
Continuous
 62
     7
370
     9
100
AcDbPolyline
 90
        4
 70
     1
 43
6.0
 10
-642.8353871153693
 20
934.4997454820882
 42
0.4142135623731
 10
-645.8353871153693
 20
937.4997454820882
 42
0.4142135623731
 10
-648.8353871153694
 20
934.4997454820882
 42
0.4142135623731
 10
-645.8353871153693
 20
931.4997454820881
 42
0.4142135623731
  0
LINE
  5
14C
330
1F
100
AcDbEntity
  8
0-B_寸法
  6
Continuous
 62
   120
370
     5
100
AcDbLine
 10
-5109.836401618621
 20
934.4997454820882
 30
0.0
 11
-645.8353871153693
 21
934.4997454820882
 31
0.0
  0
LINE
  5
14D
330
1F
100
AcDbEntity
  8
0-B_寸法
  6
Continuous
 62
   120
370
     5
100
AcDbLine
 10
-645.8353871153693
 20
934.4997454820882
 30
0.0
 11
-645.8353871153693
 21
1834.500190873769
 31
0.0
  0
LINE
  5
14E
330
1F
100
AcDbEntity
  8
0-B_寸法
  6
Continuous
 62
   120
370
     5
100
AcDbLine
 10
-5109.836401618621
 20
934.4997454820882
 30
0.0
 11
-5109.836401618621
 21
1834.500190873769
 31
0.0
  0
LINE
  5
14F
330
1F
100
AcDbEntity
  8
0-C_ハッチ
  6
Continuous
 62
   120
370
     5
100
AcDbLine
 10
-850.3706315251355
 20
2033.034742452036
 30
0.0
 11
-675.8354860912802
 21
2207.56988788589
 31
0.0
  0
LINE
  5
150
330
1F
100
AcDbEntity
  8
0-7_金物
  6
Continuous
 62
     7
370
     9
100
AcDbLine
 10
-657.8358226094542
 20
2239.499893945983
 30
0.0
 11
-657.8358226094542
 21
2419.499745482089
 31
0.0
  0
LINE
  5
151
330
1F
100
AcDbEntity
  8
0-7_金物
  6
Continuous
 62
     7
370
     9
100
AcDbLine
 10
-645.8354860912965
 20
2419.499745482089
 30
0.0
 11
-657.8358226094542
 21
2419.499745482089
 31
0.0
  0
LINE
  5
152
330
1F
100
AcDbEntity
  8
0-7_金物
  6
Continuous
 62
     7
370
     9
100
AcDbLine
 10
-645.8354860912965
 20
2239.499893945983
 30
0.0
 11
-657.8358226094542
 21
2239.499893945983
 31
0.0
  0
LINE
  5
153
330
1F
100
AcDbEntity
  8
0-7_金物
  6
Continuous
 62
     7
370
     9
100
AcDbLine
 10
-657.8358226094542
 20
2269.499992921911
 30
0.0
 11
-669.8354168081465
 21
2269.499992921911
 31
0.0
  0
LINE
  5
154
330
1F
100
AcDbEntity
  8
0-7_金物
  6
Continuous
 62
     7
370
     9
100
AcDbLine
 10
-657.8358226094542
 20
2389.499646506159
 30
0.0
 11
-669.8354168081465
 21
2389.499646506159
 31
0.0
  0
LINE
  5
155
330
1F
100
AcDbEntity
  8
0-7_金物
  6
Continuous
 62
     7
370
     9
100
AcDbLine
 10
-669.8354168081465
 20
2269.499992921911
 30
0.0
 11
-669.8354168081465
 21
2389.499646506159
 31
0.0
  0
LINE
  5
156
330
1F
100
AcDbEntity
  8
0-7_金物
  6
Continuous
 62
     7
370
     9
100
AcDbLine
 10
-669.8354168081465
 20
2383.500220566548
 30
0.0
 11
-675.8354860912965
 21
2383.500220566548
 31
0.0
  0
LINE
  5
157
330
1F
100
AcDbEntity
  8
0-7_金物
  6
Continuous
 62
     7
370
     9
100
AcDbLine
 10
-669.8354168081465
 20
2275.50016118099
 30
0.0
 11
-675.8354860912965
 21
2275.50016118099
 31
0.0
  0
LINE
  5
158
330
1F
100
AcDbEntity
  8
0-7_金物
  6
Continuous
 62
     7
370
     9
100
AcDbLine
 10
-645.8354860912965
 20
2239.499893945983
 30
0.0
 11
-645.8354860912965
 21
2419.499745482089
 31
0.0
  0
LINE
  5
159
330
1F
100
AcDbEntity
  8
0-7_金物
  6
Continuous
 62
     7
370
     9
100
AcDbLine
 10
-5097.835966124532
 20
2419.500487801556
 30
0.0
 11
-5097.835966124532
 21
2239.500636265449
 31
0.0
  0
LINE
  5
15A
330
1F
100
AcDbEntity
  8
0-7_金物
  6
Continuous
 62
     7
370
     9
100
AcDbLine
 10
-5109.83630264269
 20
2239.500636265449
 30
0.0
 11
-5097.835966124532
 21
2239.500636265449
 31
0.0
  0
LINE
  5
15B
330
1F
100
AcDbEntity
  8
0-7_金物
  6
Continuous
 62
     7
370
     9
100
AcDbLine
 10
-5109.83630264269
 20
2419.500487801556
 30
0.0
 11
-5097.835966124532
 21
2419.500487801556
 31
0.0
  0
LINE
  5
15C
330
1F
100
AcDbEntity
  8
0-7_金物
  6
Continuous
 62
     7
370
     9
100
AcDbLine
 10
-5097.835966124532
 20
2389.500388825628
 30
0.0
 11
-5085.83637192584
 21
2389.500388825628
 31
0.0
  0
LINE
  5
15D
330
1F
100
AcDbEntity
  8
0-7_金物
  6
Continuous
 62
     7
370
     9
100
AcDbLine
 10
-5097.835966124532
 20
2269.50073524138
 30
0.0
 11
-5085.83637192584
 21
2269.50073524138
 31
0.0
  0
LINE
  5
15E
330
1F
100
AcDbEntity
  8
0-7_金物
  6
Continuous
 62
     7
370
     9
100
AcDbLine
 10
-5085.83637192584
 20
2389.500388825628
 30
0.0
 11
-5085.83637192584
 21
2269.50073524138
 31
0.0
  0
LINE
  5
15F
330
1F
100
AcDbEntity
  8
0-7_金物
  6
Continuous
 62
     7
370
     9
100
AcDbLine
 10
-5085.83637192584
 20
2275.50016118099
 30
0.0
 11
-5079.83630264269
 21
2275.50016118099
 31
0.0
  0
LINE
  5
160
330
1F
100
AcDbEntity
  8
0-7_金物
  6
Continuous
 62
     7
370
     9
100
AcDbLine
 10
-5085.83637192584
 20
2383.500220566548
 30
0.0
 11
-5079.83630264269
 21
2383.500220566548
 31
0.0
  0
LINE
  5
161
330
1F
100
AcDbEntity
  8
0-7_金物
  6
Continuous
 62
     7
370
     9
100
AcDbLine
 10
-5109.83630264269
 20
2419.500487801556
 30
0.0
 11
-5109.83630264269
 21
2239.500636265449
 31
0.0
  0
LINE
  5
162
330
1F
100
AcDbEntity
  8
0-6_扉
  6
Continuous
 62
   200
370
    20
100
AcDbLine
 10
-2871.836079946852
 20
2200.500190873771
 30
0.0
 11
-867.836079946853
 21
2200.500190873771
 31
0.0
  0
LINE
  5
163
330
1F
100
AcDbEntity
  8
0-6_扉
  6
Continuous
 62
   200
370
    20
100
AcDbLine
 10
-4887.836079946852
 20
2200.500190873771
 30
0.0
 11
-2883.836079946853
 21
2200.500190873771
 31
0.0
  0
LINE
  5
164
330
1F
100
AcDbEntity
  8
0-B_寸法
  6
Continuous
 62
   120
370
     5
100
AcDbLine
 10
-4296.62375684385
 20
2200.500190873771
 30
0.0
 11
-4225.2623594357
 21
2200.500190873771
 31
0.0
  0
LWPOLYLINE
  5
165
330
1F
100
AcDbEntity
  8
0-B_寸法
  6
Continuous
 62
     7
370
     9
100
AcDbPolyline
 90
        4
 70
     1
 43
6.0
 10
-4222.262359435701
 20
2200.500190873771
 42
0.4142135623731
 10
-4225.2623594357
 20
2203.50019087377
 42
0.4142135623731
 10
-4228.2623594357
 20
2200.500190873771
 42
0.4142135623731
 10
-4225.2623594357
 20
2197.500190873771
 42
0.4142135623731
  0
LINE
  5
166
330
1F
100
AcDbEntity
  8
0-6_扉
  6
Continuous
 62
   200
370
    20
100
AcDbLine
 10
-2871.836079946852
 20
2074.500101795435
 30
0.0
 11
-867.836079946853
 21
2074.500101795435
 31
0.0
  0
LINE
  5
167
330
1F
100
AcDbEntity
  8
0-6_扉
  6
Continuous
 62
   200
370
    20
100
AcDbLine
 10
-4887.836079946852
 20
2074.500101795435
 30
0.0
 11
-2883.836079946853
 21
2074.500101795435
 31
0.0
  0
LINE
  5
168
330
1F
100
AcDbEntity
  8
0-B_寸法
  6
Continuous
 62
   120
370
     5
100
AcDbLine
 10
-4296.62375684385
 20
2074.497874837029
 30
0.0
 11
-4225.2623594357
 21
2074.497874837029
 31
0.0
  0
LWPOLYLINE
  5
169
330
1F
100
AcDbEntity
  8
0-B_寸法
  6
Continuous
 62
     7
370
     9
100
AcDbPolyline
 90
        4
 70
     1
 43
6.0
 10
-4222.262359435701
 20
2074.497874837029
 42
0.4142135623731
 10
-4225.2623594357
 20
2077.497874837029
 42
0.4142135623731
 10
-4228.2623594357
 20
2074.497874837029
 42
0.4142135623731
 10
-4225.2623594357
 20
2071.497874837029
 42
0.4142135623731
  0
LINE
  5
16A
330
1F
100
AcDbEntity
  8
0-6_扉
  6
Continuous
 62
   200
370
    20
100
AcDbLine
 10
-2883.836079946853
 20
2200.500190873771
 30
0.0
 11
-2883.836079946853
 21
2074.500101795435
 31
0.0
  0
LINE
  5
16B
330
1F
100
AcDbEntity
  8
0-6_扉
  6
Continuous
 62
   200
370
    20
100
AcDbLine
 10
-2871.836079946852
 20
2200.500190873771
 30
0.0
 11
-2871.836079946852
 21
2074.500101795435
 31
0.0
  0
LINE
  5
16C
330
1F
100
AcDbEntity
  8
0-6_扉
  6
Continuous
 62
   200
370
    20
100
AcDbLine
 10
-4887.836079946852
 20
2200.500190873771
 30
0.0
 11
-4887.836079946852
 21
2074.500101795435
 31
0.0
  0
LINE
  5
16D
330
1F
100
AcDbEntity
  8
0-6_扉
  6
Continuous
 62
   200
370
    20
100
AcDbLine
 10
-867.836079946853
 20
2200.500190873771
 30
0.0
 11
-867.836079946853
 21
2074.500101795435
 31
0.0
  0
LINE
  5
16E
330
1F
100
AcDbEntity
  8
0-B_寸法
  6
Continuous
 62
   120
370
     5
100
AcDbLine
 10
-4225.2623594357
 20
2200.500190873771
 30
0.0
 11
-4225.2623594357
 21
2074.497874837029
 31
0.0
  0
TEXT
  5
16F
330
1F
100
AcDbEntity
  8
0-B_寸法
  6
Continuous
 62
     7
370
     0
100
AcDbText
 10
-4539.149895270963
 20
2215.500507596743
 30
0.0
 40
91.44
  1
105
 50
90.0
 41
1.083333333333333
  7
ＭＳ ゴシック
100
AcDbText
  0
TEXT
  5
170
330
1F
100
AcDbEntity
  8
0-B_寸法
  6
Continuous
 62
     7
370
     0
100
AcDbText
 10
-4257.182408923664
 20
2073.749032855399
 30
0.0
 40
91.44
  1
21
 50
90.0
 41
1.0625
  7
ＭＳ ゴシック
100
AcDbText
  0
TEXT
  5
171
330
1F
100
AcDbEntity
  8
0-B_寸法
  6
Continuous
 62
     7
370
   211
100
AcDbText
 10
-4886.114920976412
 20
1506.42019087377
 30
0.0
 40
91.44
  1
2
  7
ＭＳ ゴシック
100
AcDbText
  0
TEXT
  5
172
330
1F
100
AcDbEntity
  8
0-B_寸法
  6
Continuous
 62
     7
370
   211
100
AcDbText
 10
-4185.836079946855
 20
1506.42019087377
 30
0.0
 40
91.44
  1
ＤＷ＝334
 41
1.111111111111111
  7
ＭＳ ゴシック
100
AcDbText
  0
TEXT
  5
173
330
1F
100
AcDbEntity
  8
0-B_寸法
  6
Continuous
 62
     7
370
   211
100
AcDbText
 10
-2866.666453482151
 20
1506.42019087377
 30
0.0
 40
91.44
  1
2
  7
ＭＳ ゴシック
100
AcDbText
  0
TEXT
  5
174
330
1F
100
AcDbEntity
  8
0-B_寸法
  6
Continuous
 62
     7
370
   211
100
AcDbText
 10
-2169.836079946853
 20
1506.42019087377
 30
0.0
 40
91.44
  1
ＤＷ＝334
 41
1.111111111111111
  7
ＭＳ ゴシック
100
AcDbText
  0
TEXT
  5
175
330
1F
100
AcDbEntity
  8
0-B_寸法
  6
Continuous
 62
     7
370
   211
100
AcDbText
 10
-930.482680400242
 20
1506.42019087377
 30
0.0
 40
91.44
  1
2
  7
ＭＳ ゴシック
100
AcDbText
  0
TEXT
  5
176
330
1F
100
AcDbEntity
  8
0-B_寸法
  6
Continuous
 62
     7
370
     0
100
AcDbText
 10
-5057.336389246626
 20
1326.420017665893
 30
0.0
 40
91.44
  1
30
 41
1.0625
  7
ＭＳ ゴシック
100
AcDbText
  0
TEXT
  5
177
330
1F
100
AcDbEntity
  8
0-B_寸法
  6
Continuous
 62
     7
370
     0
100
AcDbText
 10
-833.335238651473
 20
1326.420017665893
 30
0.0
 40
91.44
  1
30
 41
1.0625
  7
ＭＳ ゴシック
100
AcDbText
  0
TEXT
  5
178
330
1F
100
AcDbEntity
  8
0-B_寸法
  6
Continuous
 62
     7
370
     0
100
AcDbText
 10
-3177.835894366992
 20
1323.419968177928
 30
0.0
 40
91.44
  1
枠内＝674
 41
1.111111111111111
  7
ＭＳ ゴシック
100
AcDbText
  0
TEXT
  5
179
330
1F
100
AcDbEntity
  8
0-B_寸法
  6
Continuous
 62
     7
370
   211
100
AcDbText
 10
-5068.143009365741
 20
1146.419745482088
 30
0.0
 40
91.44
  1
5
  7
ＭＳ ゴシック
100
AcDbText
  0
TEXT
  5
17A
330
1F
100
AcDbEntity
  8
0-B_寸法
  6
Continuous
 62
     7
370
   211
100
AcDbText
 10
-743.4371270127986
 20
1146.419745482088
 30
0.0
 40
91.44
  1
5
  7
ＭＳ ゴシック
100
AcDbText
  0
TEXT
  5
17B
330
1F
100
AcDbEntity
  8
0-B_寸法
  6
Continuous
 62
     7
370
     0
100
AcDbText
 10
-3177.835894366992
 20
1143.419745482089
 30
0.0
 40
91.44
  1
枠外＝734
 41
1.111111111111111
  7
ＭＳ ゴシック
100
AcDbText
  0
TEXT
  5
17C
330
1F
100
AcDbEntity
  8
0-B_寸法
  6
Continuous
 62
     7
370
   211
100
AcDbText
 10
-3245.335894366995
 20
956.6412948227284
 30
0.0
 40
91.44
  1
ＲＯＷ＝744
 41
1.113636363636364
  7
ＭＳ ゴシック
100
AcDbText
  0
LINE
  5
17D
330
1F
100
AcDbEntity
  8
0-C_ハッチ
  6
JWW_DASHED1
 62
   120
370
     5
100
AcDbLine
 10
-264.0144609646057
 20
2086.500190873769
 30
0.0
 11
-189.0142135247839
 21
2161.500438313593
 31
0.0
  0
LINE
  5
17E
330
1F
100
AcDbEntity
  8
0-C_ハッチ
  6
JWW_DASHED1
 62
   120
370
     5
100
AcDbLine
 10
-221.5886764154089
 20
2086.500190873769
 30
0.0
 11
-146.5884289755871
 21
2161.500438313593
 31
0.0
  0
LINE
  5
17F
330
1F
100
AcDbEntity
  8
0-C_ハッチ
  6
JWW_DASHED1
 62
   120
370
     5
100
AcDbLine
 10
-179.1621495467433
 20
2086.500190873769
 30
0.0
 11
-104.1619021069215
 21
2161.500438313593
 31
0.0
  0
LINE
  5
180
330
1F
100
AcDbEntity
  8
0-1_通り芯
  6
JWW_CENTER1
 62
   120
370
     5
100
AcDbLine
 10
-5679.83630264269
 20
2329.500190873769
 30
0.0
 11
-75.8354860912965
 21
2329.500190873769
 31
0.0
  0
LINE
  5
181
330
1F
100
AcDbEntity
  8
0-3_仕上げ
  6
Continuous
 62
    40
370
    15
100
AcDbLine
 10
-675.8354860912965
 20
2161.500438313593
 30
0.0
 11
-75.8354860912965
 21
2161.500438313593
 31
0.0
  0
LINE
  5
182
330
1F
100
AcDbEntity
  8
0-3_仕上げ
  6
Continuous
 62
    40
370
    15
100
AcDbLine
 10
-675.8354860912965
 20
2086.500190873769
 30
0.0
 11
-75.8354860912965
 21
2086.500190873769
 31
0.0
  0
LINE
  5
183
330
1F
100
AcDbEntity
  8
0-C_ハッチ
  6
JWW_DASHED1
 62
   120
370
     5
100
AcDbLine
 10
-94.30983812888087
 20
2086.500190873769
 30
0.0
 11
-75.8354860912965
 21
2104.974542911355
 31
0.0
  0
LINE
  5
184
330
1F
100
AcDbEntity
  8
0-C_ハッチ
  6
JWW_DASHED1
 62
   120
370
     5
100
AcDbLine
 10
-136.7363649975465
 20
2086.500190873769
 30
0.0
 11
-75.8354860912965
 21
2147.400467015867
 31
0.0
  0
LINE
  5
185
330
1F
100
AcDbEntity
  8
0-0_補助線
  6
JWW_HOJO
 62
   120
370
     5
100
AcDbLine
 10
-75.8354860912965
 20
2824.500190873769
 30
0.0
 11
-75.8354860912965
 21
1834.500190873769
 31
0.0
  0
LINE
  5
186
330
1F
100
AcDbEntity
  8
0-0_補助線
  6
JWW_HOJO
 62
   120
370
     5
100
AcDbLine
 10
-75.8354860912965
 20
1834.500190873769
 30
0.0
 11
-5679.83630264269
 21
1834.500190873769
 31
0.0
  0
LINE
  5
187
330
1F
100
AcDbEntity
  8
0-0_補助線
  6
JWW_HOJO
 62
   120
370
     5
100
AcDbLine
 10
-75.8354860912965
 20
2824.500190873769
 30
0.0
 11
-5679.83630264269
 21
2824.500190873769
 31
0.0
  0
TEXT
  5
188
330
1F
100
AcDbEntity
  8
0-A_文字
  6
Continuous
 62
     7
370
     9
100
AcDbText
 10
-5684.883234941844
 20
2957.360755482369
 30
0.0
 40
91.44
  1
■横断面図　Ｈ＝８尺、７尺、６尺
 41
0.9999999999999982
  7
ＭＳ ゴシック
100
AcDbText
  0
LINE
  5
189
330
1F
100
AcDbEntity
  8
0-0_補助線
  6
JWW_HOJO
 62
   120
370
     5
100
AcDbLine
 10
-1837.095854108411
 20
2484.218635715792
 30
0.0
 11
-1837.095854108411
 21
1494.218635715792
 31
0.0
  0
TEXT
  5
18A
330
1F
100
AcDbEntity
  8
0-B_寸法
  6
Continuous
 62
     7
370
     0
100
AcDbText
 10
718.7433178951178
 20
-3456.497797917278
 30
0.0
 40
68.58
  1
※Ｈ＝４尺、Ｈ＝３尺には躯体接合金具は装備されていません。
 41
1.160919540229885
  7
ＭＳ ゴシック
100
AcDbText
  0
LWPOLYLINE
  5
18B
330
1F
100
AcDbEntity
  8
0-B_寸法
  6
Continuous
 62
     7
370
     9
100
AcDbPolyline
 90
        4
 70
     1
 43
6.0
 10
2723.21502803375
 20
-3115.281748740978
 42
0.4142135623731
 10
2720.21502803375
 20
-3112.281748740979
 42
0.4142135623731
 10
2717.215028033751
 20
-3115.281748740978
 42
0.4142135623731
 10
2720.21502803375
 20
-3118.281748740978
 42
0.4142135623731
  0
LINE
  5
18C
330
1F
100
AcDbEntity
  8
0-B_寸法
  6
Continuous
 62
   120
370
     5
100
AcDbLine
 10
2360.21502803375
 20
-3115.281986283207
 30
0.0
 11
2900.21502803375
 21
-3115.281986283207
 31
0.0
  0
LWPOLYLINE
  5
18D
330
1F
100
AcDbEntity
  8
0-B_寸法
  6
Continuous
 62
     7
370
     9
100
AcDbPolyline
 90
        4
 70
     1
 43
6.0
 10
2903.21502803375
 20
-3115.281986283207
 42
0.4142135623731
 10
2900.21502803375
 20
-3112.281986283208
 42
0.4142135623731
 10
2897.215028033751
 20
-3115.281986283207
 42
0.4142135623731
 10
2900.21502803375
 20
-3118.281986283207
 42
0.4142135623731
  0
LWPOLYLINE
  5
18E
330
1F
100
AcDbEntity
  8
0-B_寸法
  6
Continuous
 62
     7
370
     9
100
AcDbPolyline
 90
        4
 70
     1
 43
6.0
 10
2903.21502803375
 20
-3115.281748740978
 42
0.4142135623731
 10
2900.21502803375
 20
-3112.281748740979
 42
0.4142135623731
 10
2897.215028033751
 20
-3115.281748740978
 42
0.4142135623731
 10
2900.21502803375
 20
-3118.281748740978
 42
0.4142135623731
  0
LWPOLYLINE
  5
18F
330
1F
100
AcDbEntity
  8
0-B_寸法
  6
Continuous
 62
     7
370
     9
100
AcDbPolyline
 90
        4
 70
     1
 43
6.0
 10
3083.21502803375
 20
-3187.281540891527
 42
0.4142135623731
 10
3080.21502803375
 20
-3184.281540891527
 42
0.4142135623731
 10
3077.215028033751
 20
-3187.281540891527
 42
0.4142135623731
 10
3080.21502803375
 20
-3190.281540891527
 42
0.4142135623731
  0
LINE
  5
190
330
1F
100
AcDbEntity
  8
0-B_寸法
  6
Continuous
 62
   120
370
     5
100
AcDbLine
 10
2360.21502803375
 20
-3187.281540891527
 30
0.0
 11
3080.21502803375
 21
-3187.281540891527
 31
0.0
  0
LINE
  5
191
330
1F
100
AcDbEntity
  8
0-0_補助線
  6
JWW_HOJO
 62
   120
370
     5
100
AcDbLine
 10
698.2142857142846
 20
-3187.281541010995
 30
0.0
 11
2720.21502803375
 21
-3187.281541010995
 31
0.0
  0
LINE
  5
192
330
1F
100
AcDbEntity
  8
0-3_仕上げ
  6
Continuous
 62
    40
370
    15
100
AcDbLine
 10
1061.341677632569
 20
-3115.281748740978
 30
0.0
 11
2360.215770353219
 21
-3115.281748740978
 31
0.0
  0
LINE
  5
193
330
1F
100
AcDbEntity
  8
0-3_仕上げ
  6
Continuous
 62
     7
370
     9
100
AcDbLine
 10
2360.215770353219
 20
-3163.282352494145
 30
0.0
 11
1058.215028033753
 21
-3163.282352494145
 31
0.0
  0
LINE
  5
194
330
1F
100
AcDbEntity
  8
0-3_仕上げ
  6
Continuous
 62
     7
370
     9
100
AcDbLine
 10
1058.215028033753
 20
-3127.282085259137
 30
0.0
 11
2360.215770353219
 21
-3127.282085259137
 31
0.0
  0
LINE
  5
195
330
1F
100
AcDbEntity
  8
0-3_仕上げ
  6
Continuous
 62
     7
370
     9
100
AcDbLine
 10
1058.215028033753
 20
-3139.281679457827
 30
0.0
 11
2360.215770353219
 21
-3139.281679457827
 31
0.0
  0
LINE
  5
196
330
1F
100
AcDbEntity
  8
0-3_仕上げ
  6
Continuous
 62
     7
370
     9
100
AcDbLine
 10
2360.215770353219
 20
-3151.282015975987
 30
0.0
 11
1058.215028033753
 21
-3151.282015975987
 31
0.0
  0
LINE
  5
197
330
1F
100
AcDbEntity
  8
0-3_仕上げ
  6
Continuous
 62
     7
370
     9
100
AcDbLine
 10
2360.215770353219
 20
-3175.281946692834
 30
0.0
 11
1058.215028033753
 21
-3175.281946692834
 31
0.0
  0
LINE
  5
198
330
1F
100
AcDbEntity
  8
0-3_仕上げ
  6
Continuous
 62
    40
370
    15
100
AcDbLine
 10
1058.215028033753
 20
-3187.281540891527
 30
0.0
 11
2360.215770353219
 21
-3187.281540891527
 31
0.0
  0
LINE
  5
199
330
1F
100
AcDbEntity
  8
0-B_寸法
  6
Continuous
 62
   120
370
     5
100
AcDbLine
 10
2720.21502803375
 20
-3115.281748740978
 30
0.0
 11
3080.21502803375
 21
-3115.281748740978
 31
0.0
  0
LWPOLYLINE
  5
19A
330
1F
100
AcDbEntity
  8
0-B_寸法
  6
Continuous
 62
     7
370
     9
100
AcDbPolyline
 90
        4
 70
     1
 43
6.0
 10
3083.21502803375
 20
-3115.281748740978
 42
0.4142135623731
 10
3080.21502803375
 20
-3112.281748740979
 42
0.4142135623731
 10
3077.215028033751
 20
-3115.281748740978
 42
0.4142135623731
 10
3080.21502803375
 20
-3118.281748740978
 42
0.4142135623731
  0
LWPOLYLINE
  5
19B
330
1F
100
AcDbEntity
  8
0-B_寸法
  6
Continuous
 62
     7
370
     9
100
AcDbPolyline
 90
        4
 70
     1
 43
6.0
 10
2903.21502803375
 20
-733.281406714908
 42
0.4142135623731
 10
2900.21502803375
 20
-730.2814067149079
 42
0.4142135623731
 10
2897.215028033751
 20
-733.281406714908
 42
0.4142135623731
 10
2900.21502803375
 20
-736.281406714908
 42
0.4142135623731
  0
LINE
  5
19C
330
1F
100
AcDbEntity
  8
0-B_寸法
  6
Continuous
 62
   120
370
     5
100
AcDbLine
 10
2720.21502803375
 20
-733.281406714908
 30
0.0
 11
2900.21502803375
 21
-733.281406714908
 31
0.0
  0
LINE
  5
19D
330
1F
100
AcDbEntity
  8
0-B_寸法
  6
Continuous
 62
   120
370
     5
100
AcDbLine
 10
2720.21502803375
 20
-3115.281748740978
 30
0.0
 11
2720.21502803375
 21
-733.281406714908
 31
0.0
  0
LINE
  5
19E
330
1F
100
AcDbEntity
  8
0-C_ハッチ
  6
JWW_DASHED1
 62
   120
370
     5
100
AcDbLine
 10
1952.21577035322
 20
-224.4715180298348
 30
0.0
 11
1877.216265232865
 21
-149.4720129094804
 31
0.0
  0
LINE
  5
19F
330
1F
100
AcDbEntity
  8
0-C_ハッチ
  6
JWW_DASHED1
 62
   120
370
     5
100
AcDbLine
 10
1952.21577035322
 20
-266.8969314192992
 30
0.0
 11
1877.216265232865
 21
-191.8974262989443
 31
0.0
  0
LINE
  5
1A0
330
1F
100
AcDbEntity
  8
0-C_ハッチ
  6
JWW_DASHED1
 62
   120
370
     5
100
AcDbLine
 10
1952.21577035322
 20
-309.3234582879648
 30
0.0
 11
1877.216265232865
 21
-234.3239531676099
 31
0.0
  0
LINE
  5
1A1
330
1F
100
AcDbEntity
  8
0-C_ハッチ
  6
JWW_DASHED1
 62
   120
370
     5
100
AcDbLine
 10
1952.21577035322
 20
-351.7499851566304
 30
0.0
 11
1877.216265232865
 21
-276.7504800362755
 31
0.0
  0
LINE
  5
1A2
330
1F
100
AcDbEntity
  8
0-C_ハッチ
  6
JWW_DASHED1
 62
   120
370
     5
100
AcDbLine
 10
1952.21577035322
 20
-394.1761408655616
 30
0.0
 11
1877.216265232865
 21
-319.1766357452067
 31
0.0
  0
LINE
  5
1A3
330
1F
100
AcDbEntity
  8
0-C_ハッチ
  6
JWW_DASHED1
 62
   120
370
     5
100
AcDbLine
 10
1952.21577035322
 20
-436.6026677342273
 30
0.0
 11
1877.216265232865
 21
-361.6031626138732
 31
0.0
  0
LINE
  5
1A4
330
1F
100
AcDbEntity
  8
0-C_ハッチ
  6
JWW_DASHED1
 62
   120
370
     5
100
AcDbLine
 10
1952.21577035322
 20
-479.0291946028929
 30
0.0
 11
1877.216265232865
 21
-404.0296894825393
 31
0.0
  0
LINE
  5
1A5
330
1F
100
AcDbEntity
  8
0-C_ハッチ
  6
JWW_DASHED1
 62
   120
370
     5
100
AcDbLine
 10
1952.21577035322
 20
-521.4546079923564
 30
0.0
 11
1877.216265232865
 21
-446.4551028720017
 31
0.0
  0
LINE
  5
1A6
330
1F
100
AcDbEntity
  8
0-C_ハッチ
  6
JWW_DASHED1
 62
   120
370
     5
100
AcDbLine
 10
1941.616190671
 20
-553.2815551788018
 30
0.0
 11
1877.216265232865
 21
-488.8816297406669
 31
0.0
  0
LINE
  5
1A7
330
1F
100
AcDbEntity
  8
0-C_ハッチ
  6
JWW_DASHED1
 62
   120
370
     5
100
AcDbLine
 10
1899.189663802334
 20
-553.2815551788018
 30
0.0
 11
1877.216265232865
 21
-531.308156609333
 31
0.0
  0
LINE
  5
1A8
330
1F
100
AcDbEntity
  8
0-C_ハッチ
  6
Continuous
 62
   120
370
     5
100
AcDbLine
 10
1451.052746142684
 20
-733.281777874633
 30
0.0
 11
1418.215028033752
 21
-700.4440597657012
 31
0.0
  0
LINE
  5
1A9
330
1F
100
AcDbEntity
  8
0-C_ハッチ
  6
Continuous
 62
   120
370
     5
100
AcDbLine
 10
1629.243655001691
 20
-733.2817778746322
 30
0.0
 11
1449.243432305858
 21
-553.2815551788018
 31
0.0
  0
LINE
  5
1AA
330
1F
100
AcDbEntity
  8
0-C_ハッチ
  6
Continuous
 62
   120
370
     5
100
AcDbLine
 10
1569.846685382
 20
-733.2817778746432
 30
0.0
 11
1418.215028033752
 21
-581.650120526396
 31
0.0
  0
LINE
  5
1AB
330
1F
100
AcDbEntity
  8
0-C_ハッチ
  6
Continuous
 62
   120
370
     5
100
AcDbLine
 10
1510.449715762342
 20
-733.281777874633
 30
0.0
 11
1418.215028033752
 21
-641.047090146045
 31
0.0
  0
LINE
  5
1AC
330
1F
100
AcDbEntity
  8
0-C_ハッチ
  6
Continuous
 62
   120
370
     5
100
AcDbLine
 10
2000.215770353226
 20
-569.6811666491258
 30
0.0
 11
1983.816158882894
 21
-553.2815551787933
 31
0.0
  0
LINE
  5
1AD
330
1F
100
AcDbEntity
  8
0-C_ハッチ
  6
Continuous
 62
   120
370
     5
100
AcDbLine
 10
2000.215770353212
 20
-629.0781362688118
 30
0.0
 11
1924.419189263206
 21
-553.2815551788069
 31
0.0
  0
LINE
  5
1AE
330
1F
100
AcDbEntity
  8
0-C_ハッチ
  6
Continuous
 62
   120
370
     5
100
AcDbLine
 10
2000.215770353223
 20
-688.4751058884701
 30
0.0
 11
1865.022219643546
 21
-553.281555178795
 31
0.0
  0
LINE
  5
1AF
330
1F
100
AcDbEntity
  8
0-C_ハッチ
  6
Continuous
 62
   120
370
     5
100
AcDbLine
 10
1985.62547271969
 20
-733.281777874639
 30
0.0
 11
1805.625250023851
 21
-553.2815551787979
 31
0.0
  0
LINE
  5
1B0
330
1F
100
AcDbEntity
  8
0-C_ハッチ
  6
Continuous
 62
   120
370
     5
100
AcDbLine
 10
1926.228503100044
 20
-733.2817778746412
 30
0.0
 11
1746.228280404199
 21
-553.281555178795
 31
0.0
  0
LINE
  5
1B1
330
1F
100
AcDbEntity
  8
0-C_ハッチ
  6
Continuous
 62
   120
370
     5
100
AcDbLine
 10
1866.831533480406
 20
-733.2817778746488
 30
0.0
 11
1686.831310784565
 21
-553.2815551788086
 31
0.0
  0
LINE
  5
1B2
330
1F
100
AcDbEntity
  8
0-C_ハッチ
  6
Continuous
 62
   120
370
     5
100
AcDbLine
 10
1807.434563860698
 20
-733.281777874642
 30
0.0
 11
1627.434341164851
 21
-553.2815551787971
 31
0.0
  0
LINE
  5
1B3
330
1F
100
AcDbEntity
  8
0-C_ハッチ
  6
Continuous
 62
   120
370
     5
100
AcDbLine
 10
1748.037594241037
 20
-733.2817778746305
 30
0.0
 11
1568.037371545193
 21
-553.2815551787843
 31
0.0
  0
LINE
  5
1B4
330
1F
100
AcDbEntity
  8
0-C_ハッチ
  6
Continuous
 62
   120
370
     5
100
AcDbLine
 10
1688.640624621349
 20
-733.2817778746441
 30
0.0
 11
1508.640401925505
 21
-553.2815551787979
 31
0.0
  0
LWPOLYLINE
  5
1B5
330
1F
100
AcDbEntity
  8
0-B_寸法
  6
Continuous
 62
     7
370
     9
100
AcDbPolyline
 90
        4
 70
     1
 43
6.0
 10
2003.215028033755
 20
-1068.267170677112
 42
0.4142135623731
 10
2000.215028033756
 20
-1065.267170677112
 42
0.4142135623731
 10
1997.215028033756
 20
-1068.267170677112
 42
0.4142135623731
 10
2000.215028033756
 20
-1071.267170677112
 42
0.4142135623731
  0
LINE
  5
1B6
330
1F
100
AcDbEntity
  8
0-B_寸法
  6
Continuous
 62
   120
370
     5
100
AcDbLine
 10
2000.215028033756
 20
-916.0419443521549
 30
0.0
 11
2000.215028033756
 21
-1068.267170677112
 31
0.0
  0
LINE
  5
1B7
330
1F
100
AcDbEntity
  8
0-4_枠
  6
Continuous
 62
    92
370
    13
100
AcDbLine
 10
1418.215028033752
 20
-733.281777874642
 30
0.0
 11
2000.215770353219
 21
-733.281777874642
 31
0.0
  0
LINE
  5
1B8
330
1F
100
AcDbEntity
  8
0-4_枠
  6
Continuous
 62
    92
370
    13
100
AcDbLine
 10
1418.215028033752
 20
-553.2815551788018
 30
0.0
 11
1418.215028033752
 21
-733.281777874642
 31
0.0
  0
LINE
  5
1B9
330
1F
100
AcDbEntity
  8
0-4_枠
  6
Continuous
 62
    92
370
    13
100
AcDbLine
 10
2000.215770353219
 20
-553.2815551788018
 30
0.0
 11
2000.215770353219
 21
-733.281777874642
 31
0.0
  0
LINE
  5
1BA
330
1F
100
AcDbEntity
  8
0-4_枠
  6
Continuous
 62
    92
370
    13
100
AcDbLine
 10
2000.215770353219
 20
-553.2815551788018
 30
0.0
 11
1418.215028033752
 21
-553.2815551788018
 31
0.0
  0
LWPOLYLINE
  5
1BB
330
1F
100
AcDbEntity
  8
0-B_寸法
  6
Continuous
 62
     7
370
     9
100
AcDbPolyline
 90
        4
 70
     1
 43
6.0
 10
1421.215028033752
 20
-1068.267170677112
 42
0.4142135623731
 10
1418.215028033752
 20
-1065.267170677112
 42
0.4142135623731
 10
1415.215028033752
 20
-1068.267170677112
 42
0.4142135623731
 10
1418.215028033752
 20
-1071.267170677112
 42
0.4142135623731
  0
LINE
  5
1BC
330
1F
100
AcDbEntity
  8
0-B_寸法
  6
Continuous
 62
   120
370
     5
100
AcDbLine
 10
2000.215028033756
 20
-1068.267170677112
 30
0.0
 11
1418.215028033752
 21
-1068.267170677112
 31
0.0
  0
LINE
  5
1BD
330
1F
100
AcDbEntity
  8
0-B_寸法
  6
Continuous
 62
   120
370
     5
100
AcDbLine
 10
1418.215028033752
 20
-916.0419443521549
 30
0.0
 11
1418.215028033752
 21
-1068.267170677112
 31
0.0
  0
LWPOLYLINE
  5
1BE
330
1F
100
AcDbEntity
  8
0-B_寸法
  6
Continuous
 62
     7
370
     9
100
AcDbPolyline
 90
        4
 70
     1
 43
6.0
 10
3083.21502803375
 20
-553.280812859333
 42
0.4142135623731
 10
3080.21502803375
 20
-550.2808128593329
 42
0.4142135623731
 10
3077.215028033751
 20
-553.280812859333
 42
0.4142135623731
 10
3080.21502803375
 20
-556.280812859333
 42
0.4142135623731
  0
LWPOLYLINE
  5
1BF
330
1F
100
AcDbEntity
  8
0-B_寸法
  6
Continuous
 62
     7
370
     9
100
AcDbPolyline
 90
        4
 70
     1
 43
6.0
 10
3083.21502803375
 20
-553.2815551788018
 42
0.4142135623731
 10
3080.21502803375
 20
-550.2815551788017
 42
0.4142135623731
 10
3077.215028033751
 20
-553.2815551788018
 42
0.4142135623731
 10
3080.21502803375
 20
-556.2815551788018
 42
0.4142135623731
  0
LINE
  5
1C0
330
1F
100
AcDbEntity
  8
0-B_寸法
  6
Continuous
 62
   120
370
     5
100
AcDbLine
 10
3080.21502803375
 20
-3187.281540891527
 30
0.0
 11
3080.21502803375
 21
-553.2815551788018
 31
0.0
  0
LINE
  5
1C1
330
1F
100
AcDbEntity
  8
0-B_寸法
  6
Continuous
 62
   120
370
     5
100
AcDbLine
 10
3080.21502803375
 20
-553.280812859333
 30
0.0
 11
2624.215305166352
 21
-553.280812859333
 31
0.0
  0
LINE
  5
1C2
330
1F
100
AcDbEntity
  8
0-B_寸法
  6
Continuous
 62
   120
370
     5
100
AcDbLine
 10
2360.21502803375
 20
-553.2815551788018
 30
0.0
 11
3080.21502803375
 21
-553.2815551788018
 31
0.0
  0
LWPOLYLINE
  5
1C3
330
1F
100
AcDbEntity
  8
0-B_寸法
  6
Continuous
 62
     7
370
     9
100
AcDbPolyline
 90
        4
 70
     1
 43
6.0
 10
2903.21502803375
 20
-553.2815551788018
 42
0.4142135623731
 10
2900.21502803375
 20
-550.2815551788017
 42
0.4142135623731
 10
2897.215028033751
 20
-553.2815551788018
 42
0.4142135623731
 10
2900.21502803375
 20
-556.2815551788018
 42
0.4142135623731
  0
LWPOLYLINE
  5
1C4
330
1F
100
AcDbEntity
  8
0-B_寸法
  6
Continuous
 62
     7
370
     9
100
AcDbPolyline
 90
        4
 70
     1
 43
6.0
 10
2723.21502803375
 20
-733.281406714908
 42
0.4142135623731
 10
2720.21502803375
 20
-730.2814067149079
 42
0.4142135623731
 10
2717.215028033751
 20
-733.281406714908
 42
0.4142135623731
 10
2720.21502803375
 20
-736.281406714908
 42
0.4142135623731
  0
LWPOLYLINE
  5
1C5
330
1F
100
AcDbEntity
  8
0-B_寸法
  6
Continuous
 62
     7
370
     9
100
AcDbPolyline
 90
        4
 70
     1
 43
6.0
 10
2723.21502803375
 20
-751.2815403324119
 42
0.4142135623731
 10
2720.21502803375
 20
-748.2815403324119
 42
0.4142135623731
 10
2717.215028033751
 20
-751.2815403324119
 42
0.4142135623731
 10
2720.21502803375
 20
-754.281540332412
 42
0.4142135623731
  0
LINE
  5
1C6
330
1F
100
AcDbEntity
  8
0-B_寸法
  6
Continuous
 62
   120
370
     5
100
AcDbLine
 10
2720.21502803375
 20
-733.281406714908
 30
0.0
 11
2360.21502803375
 21
-733.281406714908
 31
0.0
  0
LINE
  5
1C7
330
1F
100
AcDbEntity
  8
0-B_寸法
  6
Continuous
 62
   120
370
     5
100
AcDbLine
 10
2360.21502803375
 20
-751.2815403324119
 30
0.0
 11
2720.21502803375
 21
-751.2815403324119
 31
0.0
  0
LINE
  5
1C8
330
1F
100
AcDbEntity
  8
0-6_扉
  6
Continuous
 62
   200
370
    20
100
AcDbLine
 10
1967.214938955417
 20
-751.2815403324119
 30
0.0
 11
1841.214938955417
 21
-751.2815403324119
 31
0.0
  0
LINE
  5
1C9
330
1F
100
AcDbEntity
  8
0-0_補助線
  6
JWW_HOJO
 62
   120
370
     5
100
AcDbLine
 10
2360.215770353219
 20
-139.281540514917
 30
0.0
 11
2360.215770353219
 21
-3187.281541010995
 31
0.0
  0
LINE
  5
1CA
330
1F
100
AcDbEntity
  8
0-0_補助線
  6
JWW_HOJO
 62
   120
370
     5
100
AcDbLine
 10
1058.215028033753
 20
-139.281540514917
 30
0.0
 11
1058.215028033753
 21
-3187.281541010995
 31
0.0
  0
LINE
  5
1CB
330
1F
100
AcDbEntity
  8
0-0_補助線
  6
JWW_HOJO
 62
   120
370
     5
100
AcDbLine
 10
698.2142857142846
 20
-139.281540514917
 30
0.0
 11
698.2142857142846
 21
-3187.281541010995
 31
0.0
  0
LINE
  5
1CC
330
1F
100
AcDbEntity
  8
0-0_補助線
  6
JWW_HOJO
 62
   120
370
     5
100
AcDbLine
 10
2720.21502803375
 20
-139.281540514917
 30
0.0
 11
2720.21502803375
 21
-3187.281541010995
 31
0.0
  0
LINE
  5
1CD
330
1F
100
AcDbEntity
  8
0-3_仕上げ
  6
Continuous
 62
    40
370
    15
100
AcDbLine
 10
1877.216265232865
 20
-553.2815551788018
 30
0.0
 11
1877.216265232865
 21
-139.281540514917
 31
0.0
  0
LINE
  5
1CE
330
1F
100
AcDbEntity
  8
0-3_仕上げ
  6
Continuous
 62
    40
370
    15
100
AcDbLine
 10
1952.21577035322
 20
-553.2815551788018
 30
0.0
 11
1952.21577035322
 21
-139.281540514917
 31
0.0
  0
LINE
  5
1CF
330
1F
100
AcDbEntity
  8
0-C_ハッチ
  6
JWW_DASHED1
 62
   120
370
     5
100
AcDbLine
 10
1952.21577035322
 20
-182.0449911611692
 30
0.0
 11
1909.452319706967
 21
-139.281540514917
 31
0.0
  0
LINE
  5
1D0
330
1F
100
AcDbEntity
  8
0-1_通り芯
  6
JWW_CENTER1
 62
   120
370
     5
100
AcDbLine
 10
1709.215028033752
 20
-3268.775612243934
 30
0.0
 11
1709.215028033752
 21
-139.281540514917
 31
0.0
  0
LINE
  5
1D1
330
1F
100
AcDbEntity
  8
0-0_補助線
  6
JWW_HOJO
 62
   120
370
     5
100
AcDbLine
 10
698.2142857142846
 20
-139.281540514917
 30
0.0
 11
2720.21502803375
 21
-139.281540514917
 31
0.0
  0
LINE
  5
1D2
330
1F
100
AcDbEntity
  8
0-0_補助線
  6
JWW_HOJO
 62
   120
370
     5
100
AcDbLine
 10
2093.214983494584
 20
-1861.281644536695
 30
0.0
 11
1715.214894416248
 21
-1861.281644536695
 31
0.0
  0
LINE
  5
1D3
330
1F
100
AcDbEntity
  8
0-0_補助線
  6
JWW_HOJO
 62
   120
370
     5
100
AcDbLine
 10
2093.214983494584
 20
-1981.281644536695
 30
0.0
 11
1715.214894416248
 21
-1981.281644536695
 31
0.0
  0
LWPOLYLINE
  5
1D4
330
1F
100
AcDbEntity
  8
0-B_寸法
  6
Continuous
 62
     7
370
     9
100
AcDbPolyline
 90
        4
 70
     1
 43
6.0
 10
1970.214938955416
 20
-1453.281667465567
 42
0.4142135623731
 10
1967.214938955417
 20
-1450.281667465567
 42
0.4142135623731
 10
1964.214938955417
 20
-1453.281667465567
 42
0.4142135623731
 10
1967.214938955417
 20
-1456.281667465568
 42
0.4142135623731
  0
LINE
  5
1D5
330
1F
100
AcDbEntity
  8
0-B_寸法
  6
Continuous
 62
   120
370
     5
100
AcDbLine
 10
1967.214938955417
 20
-1387.790532409613
 30
0.0
 11
1967.214938955417
 21
-1453.281667465567
 31
0.0
  0
LWPOLYLINE
  5
1D6
330
1F
100
AcDbEntity
  8
0-B_寸法
  6
Continuous
 62
     7
370
     9
100
AcDbPolyline
 90
        4
 70
     1
 43
6.0
 10
1844.214938955417
 20
-1453.281667465567
 42
0.4142135623731
 10
1841.214938955417
 20
-1450.281667465567
 42
0.4142135623731
 10
1838.214938955417
 20
-1453.281667465567
 42
0.4142135623731
 10
1841.214938955417
 20
-1456.281667465568
 42
0.4142135623731
  0
LINE
  5
1D7
330
1F
100
AcDbEntity
  8
0-B_寸法
  6
Continuous
 62
   120
370
     5
100
AcDbLine
 10
1841.214938955417
 20
-1387.790532409613
 30
0.0
 11
1841.214938955417
 21
-1453.281667465567
 31
0.0
  0
LINE
  5
1D8
330
1F
100
AcDbEntity
  8
0-B_寸法
  6
Continuous
 62
   120
370
     5
100
AcDbLine
 10
1967.214938955417
 20
-1453.281667465567
 30
0.0
 11
1841.214938955417
 21
-1453.281667465567
 31
0.0
  0
LINE
  5
1D9
330
1F
100
AcDbEntity
  8
0-6_扉
  6
Continuous
 62
   200
370
    20
100
AcDbLine
 10
1967.214938955417
 20
-1861.281644536695
 30
0.0
 11
1967.214938955417
 21
-751.2815403324119
 31
0.0
  0
LINE
  5
1DA
330
1F
100
AcDbEntity
  8
0-6_扉
  6
Continuous
 62
   200
370
    20
100
AcDbLine
 10
1841.214938955417
 20
-1861.281644536695
 30
0.0
 11
1841.214938955417
 21
-751.2815403324119
 31
0.0
  0
TEXT
  5
1DB
330
1F
100
AcDbEntity
  8
0-B_寸法
  6
Continuous
 62
     7
370
     0
100
AcDbText
 10
2868.294978545788
 20
-709.8023739406783
 30
0.0
 40
91.44
  1
30
 50
90.0
 41
1.0625
  7
ＭＳ ゴシック
100
AcDbText
  0
TEXT
  5
1DC
330
1F
100
AcDbEntity
  8
0-B_寸法
  6
Continuous
 62
     7
370
     0
100
AcDbText
 10
1660.465639210113
 20
-1036.347121189147
 30
0.0
 40
91.44
  1
97
 41
1.0625
  7
ＭＳ ゴシック
100
AcDbText
  0
TEXT
  5
1DD
330
1F
100
AcDbEntity
  8
0-B_寸法
  6
Continuous
 62
     7
370
     0
100
AcDbText
 10
1840.464938955416
 20
-1421.361617977603
 30
0.0
 40
91.44
  1
21
 41
1.0625
  7
ＭＳ ゴシック
100
AcDbText
  0
LINE
  5
1DE
330
1F
100
AcDbEntity
  8
0-B_寸法
  6
Continuous
 62
   120
370
     5
100
AcDbLine
 10
2900.21502803375
 20
-3115.281748740978
 30
0.0
 11
2900.21502803375
 21
-553.2815551788018
 31
0.0
  0
LWPOLYLINE
  5
1DF
330
1F
100
AcDbEntity
  8
0-B_寸法
  6
Continuous
 62
     7
370
     9
100
AcDbPolyline
 90
        4
 70
     1
 43
6.0
 10
2723.21502803375
 20
-3055.281748740978
 42
0.4142135623731
 10
2720.21502803375
 20
-3052.281748740979
 42
0.4142135623731
 10
2717.215028033751
 20
-3055.281748740978
 42
0.4142135623731
 10
2720.21502803375
 20
-3058.281748740978
 42
0.4142135623731
  0
LINE
  5
1E0
330
1F
100
AcDbEntity
  8
0-B_寸法
  6
Continuous
 62
   120
370
     5
100
AcDbLine
 10
2360.21502803375
 20
-3055.281748740978
 30
0.0
 11
2720.21502803375
 21
-3055.281748740978
 31
0.0
  0
LINE
  5
1E1
330
1F
100
AcDbEntity
  8
0-6_扉
  6
Continuous
 62
   200
370
    20
100
AcDbLine
 10
1841.214938955417
 20
-3055.281748740978
 30
0.0
 11
1967.214938955417
 21
-3055.281748740978
 31
0.0
  0
LINE
  5
1E2
330
1F
100
AcDbEntity
  8
0-6_扉
  6
Continuous
 62
   200
370
    20
100
AcDbLine
 10
1841.214938955417
 20
-3055.281748740978
 30
0.0
 11
1841.214938955417
 21
-1981.281644536695
 31
0.0
  0
LINE
  5
1E3
330
1F
100
AcDbEntity
  8
0-6_扉
  6
Continuous
 62
   200
370
    20
100
AcDbLine
 10
1967.214938955417
 20
-3055.281748740978
 30
0.0
 11
1967.214938955417
 21
-1981.281644536695
 31
0.0
  0
LINE
  5
1E4
330
1F
100
AcDbEntity
  8
0-B_寸法
  6
Continuous
 62
   120
370
     5
100
AcDbLine
 10
-4389.835659299151
 20
-826.0419443521545
 30
0.0
 11
-4389.835659299151
 21
-978.2671706771114
 31
0.0
  0
LINE
  5
1E5
330
1F
100
AcDbEntity
  8
0-B_寸法
  6
Continuous
 62
   120
370
     5
100
AcDbLine
 10
-3807.835659299149
 20
-978.2671706771114
 30
0.0
 11
-4389.835659299151
 21
-978.2671706771114
 31
0.0
  0
LWPOLYLINE
  5
1E6
330
1F
100
AcDbEntity
  8
0-B_寸法
  6
Continuous
 62
     7
370
     9
100
AcDbPolyline
 90
        4
 70
     1
 43
6.0
 10
-4386.835659299151
 20
-978.2671706771114
 42
0.4142135623731
 10
-4389.835659299151
 20
-975.2671706771114
 42
0.4142135623731
 10
-4392.835659299151
 20
-978.2671706771114
 42
0.4142135623731
 10
-4389.835659299151
 20
-981.2671706771115
 42
0.4142135623731
  0
LINE
  5
1E7
330
1F
100
AcDbEntity
  8
0-4_枠
  6
Continuous
 62
    92
370
    13
100
AcDbLine
 10
-3807.834916979687
 20
-463.2815551788013
 30
0.0
 11
-4389.835659299151
 21
-463.2815551788013
 31
0.0
  0
LINE
  5
1E8
330
1F
100
AcDbEntity
  8
0-4_枠
  6
Continuous
 62
    92
370
    13
100
AcDbLine
 10
-3807.834916979687
 20
-463.2815551788013
 30
0.0
 11
-3807.834916979687
 21
-643.281777874642
 31
0.0
  0
LINE
  5
1E9
330
1F
100
AcDbEntity
  8
0-4_枠
  6
Continuous
 62
    92
370
    13
100
AcDbLine
 10
-4389.835659299151
 20
-463.2815551788013
 30
0.0
 11
-4389.835659299151
 21
-643.281777874642
 31
0.0
  0
LINE
  5
1EA
330
1F
100
AcDbEntity
  8
0-4_枠
  6
Continuous
 62
    92
370
    13
100
AcDbLine
 10
-4389.835659299151
 20
-643.281777874642
 30
0.0
 11
-3807.834916979687
 21
-643.281777874642
 31
0.0
  0
LINE
  5
1EB
330
1F
100
AcDbEntity
  8
0-B_寸法
  6
Continuous
 62
   120
370
     5
100
AcDbLine
 10
-3807.835659299149
 20
-826.0419443521545
 30
0.0
 11
-3807.835659299149
 21
-978.2671706771114
 31
0.0
  0
LWPOLYLINE
  5
1EC
330
1F
100
AcDbEntity
  8
0-B_寸法
  6
Continuous
 62
     7
370
     9
100
AcDbPolyline
 90
        4
 70
     1
 43
6.0
 10
-3804.835659299149
 20
-978.2671706771114
 42
0.4142135623731
 10
-3807.835659299149
 20
-975.2671706771114
 42
0.4142135623731
 10
-3810.835659299149
 20
-978.2671706771114
 42
0.4142135623731
 10
-3807.835659299149
 20
-981.2671706771115
 42
0.4142135623731
  0
LINE
  5
1ED
330
1F
100
AcDbEntity
  8
0-C_ハッチ
  6
Continuous
 62
   120
370
     5
100
AcDbLine
 10
-4119.410062711554
 20
-643.2817778746437
 30
0.0
 11
-4299.410285407398
 21
-463.2815551787979
 31
0.0
  0
LINE
  5
1EE
330
1F
100
AcDbEntity
  8
0-C_ハッチ
  6
Continuous
 62
   120
370
     5
100
AcDbLine
 10
-4060.013093091866
 20
-643.28177787463
 30
0.0
 11
-4240.01331578771
 21
-463.2815551787843
 31
0.0
  0
LINE
  5
1EF
330
1F
100
AcDbEntity
  8
0-C_ハッチ
  6
Continuous
 62
   120
370
     5
100
AcDbLine
 10
-4000.616123472205
 20
-643.281777874642
 30
0.0
 11
-4180.616346168054
 21
-463.2815551787971
 31
0.0
  0
LINE
  5
1F0
330
1F
100
AcDbEntity
  8
0-C_ハッチ
  6
Continuous
 62
   120
370
     5
100
AcDbLine
 10
-3941.219153852498
 20
-643.2817778746488
 30
0.0
 11
-4121.219376548341
 21
-463.2815551788082
 31
0.0
  0
LINE
  5
1F1
330
1F
100
AcDbEntity
  8
0-C_ハッチ
  6
Continuous
 62
   120
370
     5
100
AcDbLine
 10
-3881.822184232861
 20
-643.2817778746412
 30
0.0
 11
-4061.822406928707
 21
-463.2815551787945
 31
0.0
  0
LINE
  5
1F2
330
1F
100
AcDbEntity
  8
0-C_ハッチ
  6
Continuous
 62
   120
370
     5
100
AcDbLine
 10
-3822.425214613215
 20
-643.2817778746386
 30
0.0
 11
-4002.425437309053
 21
-463.2815551787979
 31
0.0
  0
LINE
  5
1F3
330
1F
100
AcDbEntity
  8
0-C_ハッチ
  6
Continuous
 62
   120
370
     5
100
AcDbLine
 10
-3807.834916979682
 20
-598.4751058884697
 30
0.0
 11
-3943.028467689358
 21
-463.2815551787945
 31
0.0
  0
LINE
  5
1F4
330
1F
100
AcDbEntity
  8
0-C_ハッチ
  6
Continuous
 62
   120
370
     5
100
AcDbLine
 10
-3807.834916979693
 20
-539.0781362688114
 30
0.0
 11
-3883.631498069698
 21
-463.2815551788065
 31
0.0
  0
LINE
  5
1F5
330
1F
100
AcDbEntity
  8
0-C_ハッチ
  6
Continuous
 62
   120
370
     5
100
AcDbLine
 10
-3807.83491697968
 20
-479.6811666491257
 30
0.0
 11
-3824.23452845001
 21
-463.2815551787928
 31
0.0
  0
LINE
  5
1F6
330
1F
100
AcDbEntity
  8
0-C_ハッチ
  6
Continuous
 62
   120
370
     5
100
AcDbLine
 10
-4297.600971570564
 20
-643.2817778746326
 30
0.0
 11
-4389.835659299151
 21
-551.0470901460445
 31
0.0
  0
LINE
  5
1F7
330
1F
100
AcDbEntity
  8
0-C_ハッチ
  6
Continuous
 62
   120
370
     5
100
AcDbLine
 10
-4238.204001950903
 20
-643.2817778746428
 30
0.0
 11
-4389.835659299151
 21
-491.6501205263955
 31
0.0
  0
LINE
  5
1F8
330
1F
100
AcDbEntity
  8
0-C_ハッチ
  6
Continuous
 62
   120
370
     5
100
AcDbLine
 10
-4178.807032331215
 20
-643.2817778746318
 30
0.0
 11
-4358.807255027045
 21
-463.2815551788013
 31
0.0
  0
LINE
  5
1F9
330
1F
100
AcDbEntity
  8
0-C_ハッチ
  6
Continuous
 62
   120
370
     5
100
AcDbLine
 10
-4356.99794119022
 20
-643.2817778746326
 30
0.0
 11
-4389.835659299151
 21
-610.4440597657012
 31
0.0
  0
LINE
  5
1FA
330
1F
100
AcDbEntity
  8
0-C_ハッチ
  6
JWW_DASHED1
 62
   120
370
     5
100
AcDbLine
 10
-3908.861023530571
 20
-463.2815551788013
 30
0.0
 11
-3930.83442210004
 21
-441.3081566093325
 31
0.0
  0
LINE
  5
1FB
330
1F
100
AcDbEntity
  8
0-C_ハッチ
  6
JWW_DASHED1
 62
   120
370
     5
100
AcDbLine
 10
-3866.434496661904
 20
-463.2815551788013
 30
0.0
 11
-3930.83442210004
 21
-398.8816297406669
 31
0.0
  0
LINE
  5
1FC
330
1F
100
AcDbEntity
  8
0-C_ハッチ
  6
JWW_DASHED1
 62
   120
370
     5
100
AcDbLine
 10
-3855.834916979684
 20
-431.4546079923559
 30
0.0
 11
-3930.83442210004
 21
-356.4551028720012
 31
0.0
  0
LINE
  5
1FD
330
1F
100
AcDbEntity
  8
0-C_ハッチ
  6
JWW_DASHED1
 62
   120
370
     5
100
AcDbLine
 10
-3855.834916979684
 20
-389.0291946028927
 30
0.0
 11
-3930.83442210004
 21
-314.0296894825389
 31
0.0
  0
LINE
  5
1FE
330
1F
100
AcDbEntity
  8
0-C_ハッチ
  6
JWW_DASHED1
 62
   120
370
     5
100
AcDbLine
 10
-3855.834916979684
 20
-346.6026677342271
 30
0.0
 11
-3930.83442210004
 21
-271.6031626138732
 31
0.0
  0
LINE
  5
1FF
330
1F
100
AcDbEntity
  8
0-C_ハッチ
  6
JWW_DASHED1
 62
   120
370
     5
100
AcDbLine
 10
-3855.834916979684
 20
-304.1761408655614
 30
0.0
 11
-3930.83442210004
 21
-229.1766357452067
 31
0.0
  0
LINE
  5
200
330
1F
100
AcDbEntity
  8
0-C_ハッチ
  6
JWW_DASHED1
 62
   120
370
     5
100
AcDbLine
 10
-3855.834916979684
 20
-261.7499851566302
 30
0.0
 11
-3930.83442210004
 21
-186.7504800362755
 31
0.0
  0
LINE
  5
201
330
1F
100
AcDbEntity
  8
0-7_金物
  6
Continuous
 62
     7
370
     9
100
AcDbLine
 10
-4152.835693631427
 20
-463.2815551788013
 30
0.0
 11
-4152.835693631427
 21
-439.2814864934257
 31
0.0
  0
LINE
  5
202
330
1F
100
AcDbEntity
  8
0-7_金物
  6
Continuous
 62
     7
370
     9
100
AcDbLine
 10
-4044.835624966876
 20
-439.2814864934257
 30
0.0
 11
-4044.835624966876
 21
-463.2815551788013
 31
0.0
  0
LINE
  5
203
330
1F
100
AcDbEntity
  8
0-7_金物
  6
Continuous
 62
     7
370
     9
100
AcDbLine
 10
-4038.835459027545
 20
-439.2814864934257
 30
0.0
 11
-4158.835115704791
 21
-439.2814864934257
 31
0.0
  0
LINE
  5
204
330
1F
100
AcDbEntity
  8
0-7_金物
  6
Continuous
 62
     7
370
     9
100
AcDbLine
 10
-4158.835115704791
 20
-427.2818927586849
 30
0.0
 11
-4158.835115704791
 21
-439.2814864934257
 31
0.0
  0
LINE
  5
205
330
1F
100
AcDbEntity
  8
0-7_金物
  6
Continuous
 62
     7
370
     9
100
AcDbLine
 10
-4038.835459027545
 20
-427.2818927586849
 30
0.0
 11
-4038.835459027545
 21
-439.2814864934257
 31
0.0
  0
LINE
  5
206
330
1F
100
AcDbEntity
  8
0-7_金物
  6
Continuous
 62
     7
370
     9
100
AcDbLine
 10
-4008.83535603072
 20
-415.2815551579755
 30
0.0
 11
-4188.835218701618
 21
-415.2815551579755
 31
0.0
  0
LINE
  5
207
330
1F
100
AcDbEntity
  8
0-7_金物
  6
Continuous
 62
     7
370
     9
100
AcDbLine
 10
-4008.83535603072
 20
-415.2815551579755
 30
0.0
 11
-4008.83535603072
 21
-427.2818927586849
 31
0.0
  0
LINE
  5
208
330
1F
100
AcDbEntity
  8
0-7_金物
  6
Continuous
 62
     7
370
     9
100
AcDbLine
 10
-4188.835218701618
 20
-415.2815551579755
 30
0.0
 11
-4188.835218701618
 21
-427.2818927586849
 31
0.0
  0
LINE
  5
209
330
1F
100
AcDbEntity
  8
0-7_金物
  6
Continuous
 62
     7
370
     9
100
AcDbLine
 10
-4008.83535603072
 20
-427.2818927586849
 30
0.0
 11
-4188.835218701618
 21
-427.2818927586849
 31
0.0
  0
LINE
  5
20A
330
1F
100
AcDbEntity
  8
0-3_仕上げ
  6
Continuous
 62
   120
370
     5
100
AcDbLine
 10
-3930.83442210004
 20
-415.2815551579755
 30
0.0
 11
-3930.83442210004
 21
-235.2815551579755
 31
0.0
  0
LINE
  5
20B
330
1F
100
AcDbEntity
  8
0-3_仕上げ
  6
Continuous
 62
   120
370
     5
100
AcDbLine
 10
-3930.83442210004
 20
-235.2815551579755
 30
0.0
 11
-4350.834422100041
 21
-235.2815551579755
 31
0.0
  0
LINE
  5
20C
330
1F
100
AcDbEntity
  8
0-3_仕上げ
  6
Continuous
 62
   120
370
     5
100
AcDbLine
 10
-4350.834422100041
 20
-235.2815551579755
 30
0.0
 11
-4350.834422100041
 21
-415.2815551579755
 31
0.0
  0
LINE
  5
20D
330
1F
100
AcDbEntity
  8
0-3_仕上げ
  6
Continuous
 62
   120
370
     5
100
AcDbLine
 10
-3930.83442210004
 20
-235.2815551579755
 30
0.0
 11
-4350.834422100041
 21
-415.2815551579755
 31
0.0
  0
LINE
  5
20E
330
1F
100
AcDbEntity
  8
0-3_仕上げ
  6
Continuous
 62
   120
370
     5
100
AcDbLine
 10
-4350.834422100041
 20
-415.2815551579755
 30
0.0
 11
-3930.83442210004
 21
-415.2815551579755
 31
0.0
  0
LINE
  5
20F
330
1F
100
AcDbEntity
  8
0-6_扉
  6
Continuous
 62
   200
370
    20
100
AcDbLine
 10
-3840.835748377488
 20
-661.2815403324114
 30
0.0
 11
-3966.835748377489
 21
-661.2815403324114
 31
0.0
  0
LINE
  5
210
330
1F
100
AcDbEntity
  8
0-C_ハッチ
  6
JWW_DASHED1
 62
   120
370
     5
100
AcDbLine
 10
-3855.834916979684
 20
-176.8969314192989
 30
0.0
 11
-3893.450307884066
 21
-139.281540514917
 31
0.0
  0
LINE
  5
211
330
1F
100
AcDbEntity
  8
0-3_仕上げ
  6
Continuous
 62
    40
370
    15
100
AcDbLine
 10
-3855.834916979684
 20
-463.2815551788013
 30
0.0
 11
-3855.834916979684
 21
-139.281540514917
 31
0.0
  0
LINE
  5
212
330
1F
100
AcDbEntity
  8
0-3_仕上げ
  6
Continuous
 62
    40
370
    15
100
AcDbLine
 10
-3930.83442210004
 20
-463.2815551788013
 30
0.0
 11
-3930.83442210004
 21
-139.281540514917
 31
0.0
  0
LINE
  5
213
330
1F
100
AcDbEntity
  8
0-0_補助線
  6
JWW_HOJO
 62
   120
370
     5
100
AcDbLine
 10
-4749.835659299151
 20
-139.281540514917
 30
0.0
 11
-4749.835659299151
 21
-3187.281541010995
 31
0.0
  0
LINE
  5
214
330
1F
100
AcDbEntity
  8
0-0_補助線
  6
JWW_HOJO
 62
   120
370
     5
100
AcDbLine
 10
-3447.834916979687
 20
-139.281540514917
 30
0.0
 11
-3447.834916979687
 21
-3187.281541010995
 31
0.0
  0
LINE
  5
215
330
1F
100
AcDbEntity
  8
0-1_通り芯
  6
JWW_CENTER1
 62
   120
370
     5
100
AcDbLine
 10
-4098.835659299151
 20
-3268.775612243934
 30
0.0
 11
-4098.835659299151
 21
-139.281540514917
 31
0.0
  0
LINE
  5
216
330
1F
100
AcDbEntity
  8
0-C_ハッチ
  6
JWW_DASHED1
 62
   120
370
     5
100
AcDbLine
 10
-3855.834916979684
 20
-219.3234582879646
 30
0.0
 11
-3930.83442210004
 21
-144.3239531676099
 31
0.0
  0
LINE
  5
217
330
1F
100
AcDbEntity
  8
0-0_補助線
  6
JWW_HOJO
 62
   120
370
     5
100
AcDbLine
 10
-3714.835703838319
 20
-1861.281644536695
 30
0.0
 11
-4092.835792916656
 21
-1861.281644536695
 31
0.0
  0
LINE
  5
218
330
1F
100
AcDbEntity
  8
0-0_補助線
  6
JWW_HOJO
 62
   120
370
     5
100
AcDbLine
 10
-3714.835703838319
 20
-1981.281644536695
 30
0.0
 11
-4092.835792916656
 21
-1981.281644536695
 31
0.0
  0
LINE
  5
219
330
1F
100
AcDbEntity
  8
0-B_寸法
  6
Continuous
 62
   120
370
     5
100
AcDbLine
 10
-3840.835748377488
 20
-1387.790532409612
 30
0.0
 11
-3840.835748377488
 21
-1453.281667465567
 31
0.0
  0
LWPOLYLINE
  5
21A
330
1F
100
AcDbEntity
  8
0-B_寸法
  6
Continuous
 62
     7
370
     9
100
AcDbPolyline
 90
        4
 70
     1
 43
6.0
 10
-3837.835748377488
 20
-1453.281667465567
 42
0.4142135623731
 10
-3840.835748377488
 20
-1450.281667465567
 42
0.4142135623731
 10
-3843.835748377488
 20
-1453.281667465567
 42
0.4142135623731
 10
-3840.835748377488
 20
-1456.281667465568
 42
0.4142135623731
  0
LINE
  5
21B
330
1F
100
AcDbEntity
  8
0-B_寸法
  6
Continuous
 62
   120
370
     5
100
AcDbLine
 10
-3966.835748377489
 20
-1387.790532409612
 30
0.0
 11
-3966.835748377489
 21
-1453.281667465567
 31
0.0
  0
LWPOLYLINE
  5
21C
330
1F
100
AcDbEntity
  8
0-B_寸法
  6
Continuous
 62
     7
370
     9
100
AcDbPolyline
 90
        4
 70
     1
 43
6.0
 10
-3963.835748377489
 20
-1453.281667465567
 42
0.4142135623731
 10
-3966.835748377489
 20
-1450.281667465567
 42
0.4142135623731
 10
-3969.835748377489
 20
-1453.281667465567
 42
0.4142135623731
 10
-3966.835748377489
 20
-1456.281667465568
 42
0.4142135623731
  0
LINE
  5
21D
330
1F
100
AcDbEntity
  8
0-B_寸法
  6
Continuous
 62
   120
370
     5
100
AcDbLine
 10
-3840.835748377488
 20
-1453.281667465567
 30
0.0
 11
-3966.835748377489
 21
-1453.281667465567
 31
0.0
  0
LINE
  5
21E
330
1F
100
AcDbEntity
  8
0-6_扉
  6
Continuous
 62
   200
370
    20
100
AcDbLine
 10
-3840.835748377488
 20
-1861.281644536695
 30
0.0
 11
-3840.835748377488
 21
-661.2815403324114
 31
0.0
  0
LINE
  5
21F
330
1F
100
AcDbEntity
  8
0-6_扉
  6
Continuous
 62
   200
370
    20
100
AcDbLine
 10
-3966.835748377489
 20
-1861.281644536695
 30
0.0
 11
-3966.835748377489
 21
-661.2815403324114
 31
0.0
  0
TEXT
  5
220
330
1F
100
AcDbEntity
  8
0-B_寸法
  6
Continuous
 62
     7
370
     0
100
AcDbText
 10
-4147.585048122791
 20
-946.3471211891475
 30
0.0
 40
91.44
  1
97
 41
1.0625
  7
ＭＳ ゴシック
100
AcDbText
  0
TEXT
  5
221
330
1F
100
AcDbEntity
  8
0-B_寸法
  6
Continuous
 62
     7
370
     0
100
AcDbText
 10
-3963.835691466327
 20
-1421.361617977602
 30
0.0
 40
91.44
  1
21
 41
1.0625
  7
ＭＳ ゴシック
100
AcDbText
  0
LINE
  5
222
330
1F
100
AcDbEntity
  8
0-0_補助線
  6
JWW_HOJO
 62
   120
370
     5
100
AcDbLine
 10
-5109.836401618621
 20
-3187.281541010995
 30
0.0
 11
-3087.835659299154
 21
-3187.281541010995
 31
0.0
  0
LWPOLYLINE
  5
223
330
1F
100
AcDbEntity
  8
0-B_寸法
  6
Continuous
 62
     7
370
     9
100
AcDbPolyline
 90
        4
 70
     1
 43
6.0
 10
-5106.836401618621
 20
-3187.281541010995
 42
0.4142135623731
 10
-5109.836401618621
 20
-3184.281541010996
 42
0.4142135623731
 10
-5112.83640161862
 20
-3187.281541010995
 42
0.4142135623731
 10
-5109.836401618621
 20
-3190.281541010995
 42
0.4142135623731
  0
LINE
  5
224
330
1F
100
AcDbEntity
  8
0-B_寸法
  6
Continuous
 62
   120
370
     5
100
AcDbLine
 10
-5109.836401618621
 20
-3187.281541010995
 30
0.0
 11
-4749.836401618621
 21
-3187.281541010995
 31
0.0
  0
LINE
  5
225
330
1F
100
AcDbEntity
  8
0-B_寸法
  6
Continuous
 62
   120
370
     5
100
AcDbLine
 10
-3447.835659299155
 20
-661.2815403324114
 30
0.0
 11
-3087.835659299154
 21
-661.2815403324114
 31
0.0
  0
LINE
  5
226
330
1F
100
AcDbEntity
  8
0-B_寸法
  6
Continuous
 62
   120
370
     5
100
AcDbLine
 10
-3087.835659299154
 20
-643.2814067149076
 30
0.0
 11
-3447.835659299155
 21
-643.2814067149076
 31
0.0
  0
LWPOLYLINE
  5
227
330
1F
100
AcDbEntity
  8
0-B_寸法
  6
Continuous
 62
     7
370
     9
100
AcDbPolyline
 90
        4
 70
     1
 43
6.0
 10
-3084.835659299154
 20
-661.2815403324114
 42
0.4142135623731
 10
-3087.835659299154
 20
-658.2815403324114
 42
0.4142135623731
 10
-3090.835659299154
 20
-661.2815403324114
 42
0.4142135623731
 10
-3087.835659299154
 20
-664.2815403324115
 42
0.4142135623731
  0
LWPOLYLINE
  5
228
330
1F
100
AcDbEntity
  8
0-B_寸法
  6
Continuous
 62
     7
370
     9
100
AcDbPolyline
 90
        4
 70
     1
 43
6.0
 10
-3084.835659299154
 20
-643.2814067149076
 42
0.4142135623731
 10
-3087.835659299154
 20
-640.2814067149076
 42
0.4142135623731
 10
-3090.835659299154
 20
-643.2814067149076
 42
0.4142135623731
 10
-3087.835659299154
 20
-646.2814067149076
 42
0.4142135623731
  0
LWPOLYLINE
  5
229
330
1F
100
AcDbEntity
  8
0-B_寸法
  6
Continuous
 62
     7
370
     9
100
AcDbPolyline
 90
        4
 70
     1
 43
6.0
 10
-2904.835659299154
 20
-463.2815551788013
 42
0.4142135623731
 10
-2907.835659299154
 20
-460.2815551788013
 42
0.4142135623731
 10
-2910.835659299154
 20
-463.2815551788013
 42
0.4142135623731
 10
-2907.835659299154
 20
-466.2815551788013
 42
0.4142135623731
  0
LINE
  5
22A
330
1F
100
AcDbEntity
  8
0-B_寸法
  6
Continuous
 62
   120
370
     5
100
AcDbLine
 10
-3447.835659299155
 20
-463.2815551788013
 30
0.0
 11
-2727.835659299155
 21
-463.2815551788013
 31
0.0
  0
LINE
  5
22B
330
1F
100
AcDbEntity
  8
0-B_寸法
  6
Continuous
 62
   120
370
     5
100
AcDbLine
 10
-2727.835659299155
 20
-463.2808128593325
 30
0.0
 11
-3183.835382166552
 21
-463.2808128593325
 31
0.0
  0
LWPOLYLINE
  5
22C
330
1F
100
AcDbEntity
  8
0-B_寸法
  6
Continuous
 62
     7
370
     9
100
AcDbPolyline
 90
        4
 70
     1
 43
6.0
 10
-2724.835659299155
 20
-463.2815551788013
 42
0.4142135623731
 10
-2727.835659299155
 20
-460.2815551788013
 42
0.4142135623731
 10
-2730.835659299155
 20
-463.2815551788013
 42
0.4142135623731
 10
-2727.835659299155
 20
-466.2815551788013
 42
0.4142135623731
  0
LWPOLYLINE
  5
22D
330
1F
100
AcDbEntity
  8
0-B_寸法
  6
Continuous
 62
     7
370
     9
100
AcDbPolyline
 90
        4
 70
     1
 43
6.0
 10
-2724.835659299155
 20
-463.2808128593325
 42
0.4142135623731
 10
-2727.835659299155
 20
-460.2808128593325
 42
0.4142135623731
 10
-2730.835659299155
 20
-463.2808128593325
 42
0.4142135623731
 10
-2727.835659299155
 20
-466.2808128593325
 42
0.4142135623731
  0
LINE
  5
22E
330
1F
100
AcDbEntity
  8
0-B_寸法
  6
Continuous
 62
   120
370
     5
100
AcDbLine
 10
-3087.835659299154
 20
-643.2814067149076
 30
0.0
 11
-2907.835659299154
 21
-643.2814067149076
 31
0.0
  0
LWPOLYLINE
  5
22F
330
1F
100
AcDbEntity
  8
0-B_寸法
  6
Continuous
 62
     7
370
     9
100
AcDbPolyline
 90
        4
 70
     1
 43
6.0
 10
-2904.835659299154
 20
-643.2814067149076
 42
0.4142135623731
 10
-2907.835659299154
 20
-640.2814067149076
 42
0.4142135623731
 10
-2910.835659299154
 20
-643.2814067149076
 42
0.4142135623731
 10
-2907.835659299154
 20
-646.2814067149076
 42
0.4142135623731
  0
LWPOLYLINE
  5
230
330
1F
100
AcDbEntity
  8
0-B_寸法
  6
Continuous
 62
     7
370
     9
100
AcDbPolyline
 90
        4
 70
     1
 43
6.0
 10
-5106.836401618621
 20
-415.2815551579755
 42
0.4142135623731
 10
-5109.836401618621
 20
-412.2815551579755
 42
0.4142135623731
 10
-5112.83640161862
 20
-415.2815551579755
 42
0.4142135623731
 10
-5109.836401618621
 20
-418.2815551579755
 42
0.4142135623731
  0
LINE
  5
231
330
1F
100
AcDbEntity
  8
0-B_寸法
  6
Continuous
 62
   120
370
     5
100
AcDbLine
 10
-5109.836401618621
 20
-415.2815551579755
 30
0.0
 11
-4749.836401618621
 21
-415.2815551579755
 31
0.0
  0
LINE
  5
232
330
1F
100
AcDbEntity
  8
0-B_寸法
  6
Continuous
 62
   120
370
     5
100
AcDbLine
 10
-5109.836401618621
 20
-3187.281541010995
 30
0.0
 11
-5109.836401618621
 21
-415.2815551579755
 31
0.0
  0
LINE
  5
233
330
1F
100
AcDbEntity
  8
0-B_寸法
  6
Continuous
 62
   120
370
     5
100
AcDbLine
 10
-3447.835659299155
 20
-415.2815551788015
 30
0.0
 11
-2907.835659299154
 21
-415.2815551788015
 31
0.0
  0
LWPOLYLINE
  5
234
330
1F
100
AcDbEntity
  8
0-B_寸法
  6
Continuous
 62
     7
370
     9
100
AcDbPolyline
 90
        4
 70
     1
 43
6.0
 10
-2904.835659299154
 20
-415.2815551788015
 42
0.4142135623731
 10
-2907.835659299154
 20
-412.2815551788015
 42
0.4142135623731
 10
-2910.835659299154
 20
-415.2815551788015
 42
0.4142135623731
 10
-2907.835659299154
 20
-418.2815551788015
 42
0.4142135623731
  0
LINE
  5
235
330
1F
100
AcDbEntity
  8
0-0_補助線
  6
JWW_HOJO
 62
   120
370
     5
100
AcDbLine
 10
-3087.835659299154
 20
-139.281540514917
 30
0.0
 11
-3087.835659299154
 21
-3187.281541010995
 31
0.0
  0
LINE
  5
236
330
1F
100
AcDbEntity
  8
0-0_補助線
  6
JWW_HOJO
 62
   120
370
     5
100
AcDbLine
 10
-5109.836401618621
 20
-139.281540514917
 30
0.0
 11
-5109.836401618621
 21
-3187.281541010995
 31
0.0
  0
LINE
  5
237
330
1F
100
AcDbEntity
  8
0-0_補助線
  6
JWW_HOJO
 62
   120
370
     5
100
AcDbLine
 10
-5109.836401618621
 20
-139.281540514917
 30
0.0
 11
-3087.835659299154
 21
-139.281540514917
 31
0.0
  0
TEXT
  5
238
330
1F
100
AcDbEntity
  8
0-B_寸法
  6
Continuous
 62
     7
370
     0
100
AcDbText
 10
-2939.755708787118
 20
-619.8023739406779
 30
0.0
 40
91.44
  1
30
 50
90.0
 41
1.0625
  7
ＭＳ ゴシック
100
AcDbText
  0
LWPOLYLINE
  5
239
330
1F
100
AcDbEntity
  8
0-B_寸法
  6
Continuous
 62
     7
370
     9
100
AcDbPolyline
 90
        4
 70
     1
 43
6.0
 10
-3084.835659299155
 20
-3115.281748740978
 42
0.4142135623731
 10
-3087.835659299154
 20
-3112.281748740979
 42
0.4142135623731
 10
-3090.835659299154
 20
-3115.281748740978
 42
0.4142135623731
 10
-3087.835659299154
 20
-3118.281748740978
 42
0.4142135623731
  0
LWPOLYLINE
  5
23A
330
1F
100
AcDbEntity
  8
0-B_寸法
  6
Continuous
 62
     7
370
     9
100
AcDbPolyline
 90
        4
 70
     1
 43
6.0
 10
-2904.835659299155
 20
-3115.281986283207
 42
0.4142135623731
 10
-2907.835659299154
 20
-3112.281986283208
 42
0.4142135623731
 10
-2910.835659299154
 20
-3115.281986283207
 42
0.4142135623731
 10
-2907.835659299154
 20
-3118.281986283207
 42
0.4142135623731
  0
LWPOLYLINE
  5
23B
330
1F
100
AcDbEntity
  8
0-B_寸法
  6
Continuous
 62
     7
370
     9
100
AcDbPolyline
 90
        4
 70
     1
 43
6.0
 10
-2904.835659299155
 20
-3115.281748740978
 42
0.4142135623731
 10
-2907.835659299154
 20
-3112.281748740979
 42
0.4142135623731
 10
-2910.835659299154
 20
-3115.281748740978
 42
0.4142135623731
 10
-2907.835659299154
 20
-3118.281748740978
 42
0.4142135623731
  0
LWPOLYLINE
  5
23C
330
1F
100
AcDbEntity
  8
0-B_寸法
  6
Continuous
 62
     7
370
     9
100
AcDbPolyline
 90
        4
 70
     1
 43
6.0
 10
-2724.835659299155
 20
-3187.281540891527
 42
0.4142135623731
 10
-2727.835659299154
 20
-3184.281540891527
 42
0.4142135623731
 10
-2730.835659299154
 20
-3187.281540891527
 42
0.4142135623731
 10
-2727.835659299154
 20
-3190.281540891527
 42
0.4142135623731
  0
LINE
  5
23D
330
1F
100
AcDbEntity
  8
0-B_寸法
  6
Continuous
 62
   120
370
     5
100
AcDbLine
 10
-3447.835659299154
 20
-3187.281540891527
 30
0.0
 11
-2727.835659299154
 21
-3187.281540891527
 31
0.0
  0
LINE
  5
23E
330
1F
100
AcDbEntity
  8
0-3_仕上げ
  6
Continuous
 62
    40
370
    15
100
AcDbLine
 10
-4746.709009700336
 20
-3115.281748740978
 30
0.0
 11
-3447.834916979686
 21
-3115.281748740978
 31
0.0
  0
LINE
  5
23F
330
1F
100
AcDbEntity
  8
0-3_仕上げ
  6
Continuous
 62
     7
370
     9
100
AcDbLine
 10
-3447.834916979686
 20
-3163.282352494145
 30
0.0
 11
-4749.835659299152
 21
-3163.282352494145
 31
0.0
  0
LINE
  5
240
330
1F
100
AcDbEntity
  8
0-3_仕上げ
  6
Continuous
 62
     7
370
     9
100
AcDbLine
 10
-4749.835659299152
 20
-3127.282085259137
 30
0.0
 11
-3447.834916979686
 21
-3127.282085259137
 31
0.0
  0
LINE
  5
241
330
1F
100
AcDbEntity
  8
0-3_仕上げ
  6
Continuous
 62
     7
370
     9
100
AcDbLine
 10
-4749.835659299152
 20
-3139.281679457827
 30
0.0
 11
-3447.834916979686
 21
-3139.281679457827
 31
0.0
  0
LINE
  5
242
330
1F
100
AcDbEntity
  8
0-3_仕上げ
  6
Continuous
 62
     7
370
     9
100
AcDbLine
 10
-3447.834916979686
 20
-3151.282015975987
 30
0.0
 11
-4749.835659299152
 21
-3151.282015975987
 31
0.0
  0
LINE
  5
243
330
1F
100
AcDbEntity
  8
0-3_仕上げ
  6
Continuous
 62
     7
370
     9
100
AcDbLine
 10
-3447.834916979686
 20
-3175.281946692834
 30
0.0
 11
-4749.835659299152
 21
-3175.281946692834
 31
0.0
  0
LINE
  5
244
330
1F
100
AcDbEntity
  8
0-3_仕上げ
  6
Continuous
 62
    40
370
    15
100
AcDbLine
 10
-4749.835659299152
 20
-3187.281540891527
 30
0.0
 11
-3447.834916979686
 21
-3187.281540891527
 31
0.0
  0
LWPOLYLINE
  5
245
330
1F
100
AcDbEntity
  8
0-B_寸法
  6
Continuous
 62
     7
370
     9
100
AcDbPolyline
 90
        4
 70
     1
 43
6.0
 10
-2724.835659299155
 20
-3115.281748740978
 42
0.4142135623731
 10
-2727.835659299154
 20
-3112.281748740979
 42
0.4142135623731
 10
-2730.835659299154
 20
-3115.281748740978
 42
0.4142135623731
 10
-2727.835659299154
 20
-3118.281748740978
 42
0.4142135623731
  0
LWPOLYLINE
  5
246
330
1F
100
AcDbEntity
  8
0-B_寸法
  6
Continuous
 62
     7
370
     9
100
AcDbPolyline
 90
        4
 70
     1
 43
6.0
 10
-3084.835659299155
 20
-3055.281748740978
 42
0.4142135623731
 10
-3087.835659299154
 20
-3052.281748740979
 42
0.4142135623731
 10
-3090.835659299154
 20
-3055.281748740978
 42
0.4142135623731
 10
-3087.835659299154
 20
-3058.281748740978
 42
0.4142135623731
  0
LINE
  5
247
330
1F
100
AcDbEntity
  8
0-6_扉
  6
Continuous
 62
   200
370
    20
100
AcDbLine
 10
-3840.835748377488
 20
-1981.281644536695
 30
0.0
 11
-3840.835748377488
 21
-3055.281748740978
 31
0.0
  0
LINE
  5
248
330
1F
100
AcDbEntity
  8
0-6_扉
  6
Continuous
 62
   200
370
    20
100
AcDbLine
 10
-3966.835748377489
 20
-1981.281644536695
 30
0.0
 11
-3966.835748377489
 21
-3055.281748740978
 31
0.0
  0
LINE
  5
249
330
1F
100
AcDbEntity
  8
0-6_扉
  6
Continuous
 62
   200
370
    20
100
AcDbLine
 10
-3966.835748377489
 20
-3055.281748740978
 30
0.0
 11
-3840.835748377488
 21
-3055.281748740978
 31
0.0
  0
LINE
  5
24A
330
1F
100
AcDbEntity
  8
0-B_寸法
  6
Continuous
 62
   120
370
     5
100
AcDbLine
 10
-3087.835659299154
 20
-643.2814067149076
 30
0.0
 11
-3087.835659299154
 21
-3055.281748740978
 31
0.0
  0
LINE
  5
24B
330
1F
100
AcDbEntity
  8
0-B_寸法
  6
Continuous
 62
   120
370
     5
100
AcDbLine
 10
-3447.835659299154
 20
-3055.281748740978
 30
0.0
 11
-3087.835659299154
 21
-3055.281748740978
 31
0.0
  0
LINE
  5
24C
330
1F
100
AcDbEntity
  8
0-B_寸法
  6
Continuous
 62
   120
370
     5
100
AcDbLine
 10
-2907.835659299154
 20
-415.2815551788015
 30
0.0
 11
-2907.835659299154
 21
-3115.281748740978
 31
0.0
  0
LINE
  5
24D
330
1F
100
AcDbEntity
  8
0-B_寸法
  6
Continuous
 62
   120
370
     5
100
AcDbLine
 10
-2907.835659299154
 20
-3115.281748740978
 30
0.0
 11
-2907.835659299154
 21
-3115.281986283207
 31
0.0
  0
LINE
  5
24E
330
1F
100
AcDbEntity
  8
0-B_寸法
  6
Continuous
 62
   120
370
     5
100
AcDbLine
 10
-3447.835659299154
 20
-3115.281986283207
 30
0.0
 11
-2907.835659299154
 21
-3115.281986283207
 31
0.0
  0
LINE
  5
24F
330
1F
100
AcDbEntity
  8
0-B_寸法
  6
Continuous
 62
   120
370
     5
100
AcDbLine
 10
-3087.835659299154
 20
-3115.281748740978
 30
0.0
 11
-2727.835659299155
 21
-3115.281748740978
 31
0.0
  0
LINE
  5
250
330
1F
100
AcDbEntity
  8
0-B_寸法
  6
Continuous
 62
   120
370
     5
100
AcDbLine
 10
-2727.835659299155
 20
-3187.281540891527
 30
0.0
 11
-2727.835659299155
 21
-463.2815551788013
 31
0.0
  0
LINE
  5
251
330
1F
100
AcDbEntity
  8
0-C_ハッチ
  6
JWW_DASHED1
 62
   120
370
     5
100
AcDbLine
 10
5471.609600523704
 20
2086.500190873769
 30
0.0
 11
5546.609847963526
 21
2161.500438313593
 31
0.0
  0
LWPOLYLINE
  5
252
330
1F
100
AcDbEntity
  8
0-B_寸法
  6
Continuous
 62
     7
370
     9
100
AcDbPolyline
 90
        4
 70
     1
 43
6.0
 10
2897.214508410123
 20
1474.500190873769
 42
0.4142135623731
 10
2894.214508410123
 20
1477.500190873769
 42
0.4142135623731
 10
2891.214508410123
 20
1474.500190873769
 42
0.4142135623731
 10
2894.214508410123
 20
1471.500190873769
 42
0.4142135623731
  0
LINE
  5
253
330
1F
100
AcDbEntity
  8
0-B_寸法
  6
Continuous
 62
   120
370
     5
100
AcDbLine
 10
2894.214508410123
 20
1474.500190873769
 30
0.0
 11
2894.214508410123
 21
1834.500190873769
 31
0.0
  0
LWPOLYLINE
  5
254
330
1F
100
AcDbEntity
  8
0-B_寸法
  6
Continuous
 62
     7
370
     9
100
AcDbPolyline
 90
        4
 70
     1
 43
6.0
 10
2909.214508410123
 20
1474.500190873769
 42
0.4142135623731
 10
2906.214508410123
 20
1477.500190873769
 42
0.4142135623731
 10
2903.214508410123
 20
1474.500190873769
 42
0.4142135623731
 10
2906.214508410123
 20
1471.500190873769
 42
0.4142135623731
  0
LINE
  5
255
330
1F
100
AcDbEntity
  8
0-B_寸法
  6
Continuous
 62
   120
370
     5
100
AcDbLine
 10
2906.214508410123
 20
1474.500190873769
 30
0.0
 11
2906.214508410123
 21
1834.500190873769
 31
0.0
  0
LINE
  5
256
330
1F
100
AcDbEntity
  8
0-B_寸法
  6
Continuous
 62
   120
370
     5
100
AcDbLine
 10
1090.820742573979
 20
2014.500190873769
 30
0.0
 11
1270.820742573979
 21
2014.500190873769
 31
0.0
  0
LWPOLYLINE
  5
257
330
1F
100
AcDbEntity
  8
0-B_寸法
  6
Continuous
 62
     7
370
     9
100
AcDbPolyline
 90
        4
 70
     1
 43
6.0
 10
1273.820742573979
 20
2014.500190873769
 42
0.4142135623731
 10
1270.820742573979
 20
2017.500190873769
 42
0.4142135623731
 10
1267.820742573979
 20
2014.500190873769
 42
0.4142135623731
 10
1270.820742573979
 20
2011.500190873769
 42
0.4142135623731
  0
LINE
  5
258
330
1F
100
AcDbEntity
  8
0-B_寸法
  6
Continuous
 62
   120
370
     5
100
AcDbLine
 10
1090.820742573979
 20
2644.500190873769
 30
0.0
 11
1270.820742573979
 21
2644.500190873769
 31
0.0
  0
LINE
  5
259
330
1F
100
AcDbEntity
  8
0-B_寸法
  6
Continuous
 62
   120
370
     5
100
AcDbLine
 10
1270.820742573979
 20
2644.500190873769
 30
0.0
 11
1270.820742573979
 21
2014.500190873769
 31
0.0
  0
LWPOLYLINE
  5
25A
330
1F
100
AcDbEntity
  8
0-B_寸法
  6
Continuous
 62
     7
370
     9
100
AcDbPolyline
 90
        4
 70
     1
 43
6.0
 10
1273.820742573979
 20
2644.500190873769
 42
0.4142135623731
 10
1270.820742573979
 20
2647.500190873769
 42
0.4142135623731
 10
1267.820742573979
 20
2644.500190873769
 42
0.4142135623731
 10
1270.820742573979
 20
2641.500190873769
 42
0.4142135623731
  0
LINE
  5
25B
330
1F
100
AcDbEntity
  8
0-4_枠
  6
Continuous
 62
    92
370
    13
100
AcDbLine
 10
854.2145084101267
 20
2644.500190873769
 30
0.0
 11
698.2142857142846
 21
2644.500190873769
 31
0.0
  0
LINE
  5
25C
330
1F
100
AcDbEntity
  8
0-4_枠
  6
Continuous
 62
    92
370
    13
100
AcDbLine
 10
854.2145084101267
 20
2644.500190873769
 30
0.0
 11
878.2145084101271
 21
2620.50019087377
 31
0.0
  0
LINE
  5
25D
330
1F
100
AcDbEntity
  8
0-4_枠
  6
Continuous
 62
    92
370
    13
100
AcDbLine
 10
878.2145084101271
 20
2038.500190873771
 30
0.0
 11
878.2145084101271
 21
2620.50019087377
 31
0.0
  0
LINE
  5
25E
330
1F
100
AcDbEntity
  8
0-4_枠
  6
Continuous
 62
    92
370
    13
100
AcDbLine
 10
854.2145084101267
 20
2014.500190873769
 30
0.0
 11
698.2142857142846
 21
2014.500190873769
 31
0.0
  0
LINE
  5
25F
330
1F
100
AcDbEntity
  8
0-4_枠
  6
Continuous
 62
    92
370
    13
100
AcDbLine
 10
878.2145084101271
 20
2038.500190873771
 30
0.0
 11
854.2145084101267
 21
2014.500190873769
 31
0.0
  0
LINE
  5
260
330
1F
100
AcDbEntity
  8
0-C_ハッチ
  6
Continuous
 62
   120
370
     5
100
AcDbLine
 10
833.4805222866587
 20
2014.500190873776
 30
0.0
 11
878.2145084101237
 21
2059.234176997239
 31
0.0
  0
LINE
  5
261
330
1F
100
AcDbEntity
  8
0-C_ハッチ
  6
Continuous
 62
   120
370
     5
100
AcDbLine
 10
774.0835526670164
 20
2014.50019087378
 30
0.0
 11
878.2145084101203
 21
2118.631146616885
 31
0.0
  0
LINE
  5
262
330
1F
100
AcDbEntity
  8
0-C_ハッチ
  6
Continuous
 62
   120
370
     5
100
AcDbLine
 10
714.6865830473146
 20
2014.50019087378
 30
0.0
 11
878.2145084101355
 21
2178.028116236601
 31
0.0
  0
LINE
  5
263
330
1F
100
AcDbEntity
  8
0-C_ハッチ
  6
Continuous
 62
   120
370
     5
100
AcDbLine
 10
698.2142857142744
 20
2057.424863160387
 30
0.0
 11
878.2145084101219
 21
2237.425085856235
 31
0.0
  0
LINE
  5
264
330
1F
100
AcDbEntity
  8
0-C_ハッチ
  6
Continuous
 62
   120
370
     5
100
AcDbLine
 10
698.2142857142846
 20
2116.821832780045
 30
0.0
 11
878.2145084101271
 21
2296.822055475887
 31
0.0
  0
LINE
  5
265
330
1F
100
AcDbEntity
  8
0-C_ハッチ
  6
Continuous
 62
   120
370
     5
100
AcDbLine
 10
698.2142857142846
 20
2176.218802399747
 30
0.0
 11
878.2145084101271
 21
2356.219025095589
 31
0.0
  0
LINE
  5
266
330
1F
100
AcDbEntity
  8
0-C_ハッチ
  6
Continuous
 62
   120
370
     5
100
AcDbLine
 10
698.2142857142812
 20
2235.61577201939
 30
0.0
 11
878.2145084101237
 21
2415.615994715233
 31
0.0
  0
LINE
  5
267
330
1F
100
AcDbEntity
  8
0-C_ハッチ
  6
Continuous
 62
   120
370
     5
100
AcDbLine
 10
698.2142857142812
 20
2295.012741639092
 30
0.0
 11
878.2145084101237
 21
2475.012964334936
 31
0.0
  0
LINE
  5
268
330
1F
100
AcDbEntity
  8
0-C_ハッチ
  6
Continuous
 62
   120
370
     5
100
AcDbLine
 10
698.2142857142778
 20
2354.409711258736
 30
0.0
 11
878.2145084101203
 21
2534.409933954579
 31
0.0
  0
LINE
  5
269
330
1F
100
AcDbEntity
  8
0-C_ハッチ
  6
Continuous
 62
   120
370
     5
100
AcDbLine
 10
698.2142857142933
 20
2413.806680878454
 30
0.0
 11
878.2145084101271
 21
2593.806903574287
 31
0.0
  0
LINE
  5
26A
330
1F
100
AcDbEntity
  8
0-C_ハッチ
  6
Continuous
 62
   120
370
     5
100
AcDbLine
 10
698.2142857142899
 20
2473.203650498098
 30
0.0
 11
861.8626672500445
 21
2636.852032033852
 31
0.0
  0
LINE
  5
26B
330
1F
100
AcDbEntity
  8
0-C_ハッチ
  6
Continuous
 62
   120
370
     5
100
AcDbLine
 10
698.2142857142846
 20
2532.600620117742
 30
0.0
 11
810.1138564703151
 21
2644.500190873769
 31
0.0
  0
LINE
  5
26C
330
1F
100
AcDbEntity
  8
0-C_ハッチ
  6
Continuous
 62
   120
370
     5
100
AcDbLine
 10
698.2142857142762
 20
2585.026318798606
 30
0.0
 11
757.6881577894401
 21
2644.500190873769
 31
0.0
  0
LINE
  5
26D
330
1F
100
AcDbEntity
  8
0-C_ハッチ
  6
JWW_DASHED1
 62
   120
370
     5
100
AcDbLine
 10
679.7249635674334
 20
2086.500190873769
 30
0.0
 11
698.2142857142846
 21
2104.989141860891
 31
0.0
  0
LINE
  5
26E
330
1F
100
AcDbEntity
  8
0-C_ハッチ
  6
JWW_DASHED1
 62
   120
370
     5
100
AcDbLine
 10
637.298436698766
 20
2086.500190873769
 30
0.0
 11
698.2142857142846
 21
2147.416411049025
 31
0.0
  0
LINE
  5
26F
330
1F
100
AcDbEntity
  8
0-C_ハッチ
  6
JWW_DASHED1
 62
   120
370
     5
100
AcDbLine
 10
594.8719098301021
 20
2086.500190873769
 30
0.0
 11
669.872157269924
 21
2161.500438313593
 31
0.0
  0
LINE
  5
270
330
1F
100
AcDbEntity
  8
0-C_ハッチ
  6
JWW_DASHED1
 62
   120
370
     5
100
AcDbLine
 10
552.4457541211691
 20
2086.500190873769
 30
0.0
 11
627.4460015609927
 21
2161.500438313593
 31
0.0
  0
LINE
  5
271
330
1F
100
AcDbEntity
  8
0-C_ハッチ
  6
JWW_DASHED1
 62
   120
370
     5
100
AcDbLine
 10
510.0192272525052
 20
2086.500190873769
 30
0.0
 11
585.0194746923271
 21
2161.500438313593
 31
0.0
  0
LINE
  5
272
330
1F
100
AcDbEntity
  8
0-C_ハッチ
  6
JWW_DASHED1
 62
   120
370
     5
100
AcDbLine
 10
467.5927003838396
 20
2086.500190873769
 30
0.0
 11
542.5929478236596
 21
2161.500438313593
 31
0.0
  0
LINE
  5
273
330
1F
100
AcDbEntity
  8
0-C_ハッチ
  6
JWW_DASHED1
 62
   120
370
     5
100
AcDbLine
 10
425.1669158346411
 20
2086.500190873769
 30
0.0
 11
500.1671632744646
 21
2161.500438313593
 31
0.0
  0
LINE
  5
274
330
1F
100
AcDbEntity
  8
0-C_ハッチ
  6
JWW_DASHED1
 62
   120
370
     5
100
AcDbLine
 10
382.7403889659755
 20
2086.500190873769
 30
0.0
 11
457.7406364057973
 21
2161.500438313593
 31
0.0
  0
LINE
  5
275
330
1F
100
AcDbEntity
  8
0-C_ハッチ
  6
JWW_DASHED1
 62
   120
370
     5
100
AcDbLine
 10
340.3138620973081
 20
2086.500190873769
 30
0.0
 11
415.3141095371333
 21
2161.500438313593
 31
0.0
  0
LINE
  5
276
330
1F
100
AcDbEntity
  8
0-C_ハッチ
  6
JWW_DASHED1
 62
   120
370
     5
100
AcDbLine
 10
297.8873352286442
 20
2086.500190873769
 30
0.0
 11
372.8875826684677
 21
2161.500438313593
 31
0.0
  0
LINE
  5
277
330
1F
100
AcDbEntity
  8
0-C_ハッチ
  6
JWW_DASHED1
 62
   120
370
     5
100
AcDbLine
 10
255.461179519713
 20
2086.500190873769
 30
0.0
 11
330.4614269595365
 21
2161.500438313593
 31
0.0
  0
LINE
  5
278
330
1F
100
AcDbEntity
  8
0-C_ハッチ
  6
JWW_DASHED1
 62
   120
370
     5
100
AcDbLine
 10
213.0346526510456
 20
2086.500190873769
 30
0.0
 11
288.0349000908708
 21
2161.500438313593
 31
0.0
  0
LINE
  5
279
330
1F
100
AcDbEntity
  8
0-C_ハッチ
  6
JWW_DASHED1
 62
   120
370
     5
100
AcDbLine
 10
170.6081257823817
 20
2086.500190873769
 30
0.0
 11
245.6083732222035
 21
2161.500438313593
 31
0.0
  0
LINE
  5
27A
330
1F
100
AcDbEntity
  8
0-C_ハッチ
  6
JWW_DASHED1
 62
   120
370
     5
100
AcDbLine
 10
128.1815989137144
 20
2086.500190873769
 30
0.0
 11
203.1818463535396
 21
2161.500438313593
 31
0.0
  0
LINE
  5
27B
330
1F
100
AcDbEntity
  8
0-3_仕上げ
  6
Continuous
 62
    40
370
    15
100
AcDbLine
 10
698.2142857142846
 20
2086.500190873769
 30
0.0
 11
98.2142857142847
 21
2086.500190873769
 31
0.0
  0
LINE
  5
27C
330
1F
100
AcDbEntity
  8
0-3_仕上げ
  6
Continuous
 62
    40
370
    15
100
AcDbLine
 10
698.2142857142846
 20
2161.500438313593
 30
0.0
 11
98.2142857142847
 21
2161.500438313593
 31
0.0
  0
LINE
  5
27D
330
1F
100
AcDbEntity
  8
0-C_ハッチ
  6
JWW_DASHED1
 62
   120
370
     5
100
AcDbLine
 10
98.2142857142847
 20
2141.385560251937
 30
0.0
 11
118.3291637759427
 21
2161.500438313593
 31
0.0
  0
LINE
  5
27E
330
1F
100
AcDbEntity
  8
0-C_ハッチ
  6
JWW_DASHED1
 62
   120
370
     5
100
AcDbLine
 10
98.2142857142847
 20
2098.959404543007
 30
0.0
 11
160.755319484874
 21
2161.500438313593
 31
0.0
  0
LINE
  5
27F
330
1F
100
AcDbEntity
  8
0-B_寸法
  6
Continuous
 62
   120
370
     5
100
AcDbLine
 10
698.2142857142846
 20
1834.500190873769
 30
0.0
 11
698.2142857142846
 21
1114.499745482088
 31
0.0
  0
LWPOLYLINE
  5
280
330
1F
100
AcDbEntity
  8
0-B_寸法
  6
Continuous
 62
     7
370
     9
100
AcDbPolyline
 90
        4
 70
     1
 43
6.0
 10
701.2142857142848
 20
1114.499745482088
 42
0.4142135623731
 10
698.2142857142846
 20
1117.499745482088
 42
0.4142135623731
 10
695.2142857142846
 20
1114.499745482088
 42
0.4142135623731
 10
698.2142857142846
 20
1111.499745482088
 42
0.4142135623731
  0
LWPOLYLINE
  5
281
330
1F
100
AcDbEntity
  8
0-B_寸法
  6
Continuous
 62
     7
370
     9
100
AcDbPolyline
 90
        4
 70
     1
 43
6.0
 10
881.2141372503927
 20
1294.49996817793
 42
0.4142135623731
 10
878.2141372503927
 20
1297.49996817793
 42
0.4142135623731
 10
875.2141372503926
 20
1294.49996817793
 42
0.4142135623731
 10
878.2141372503927
 20
1291.49996817793
 42
0.4142135623731
  0
LWPOLYLINE
  5
282
330
1F
100
AcDbEntity
  8
0-B_寸法
  6
Continuous
 62
     7
370
     9
100
AcDbPolyline
 90
        4
 70
     1
 43
6.0
 10
701.2142857142848
 20
1294.49996817793
 42
0.4142135623731
 10
698.2142857142846
 20
1297.49996817793
 42
0.4142135623731
 10
695.2142857142846
 20
1294.49996817793
 42
0.4142135623731
 10
698.2142857142846
 20
1291.49996817793
 42
0.4142135623731
  0
LINE
  5
283
330
1F
100
AcDbEntity
  8
0-B_寸法
  6
Continuous
 62
   120
370
     5
100
AcDbLine
 10
878.2141372503927
 20
1834.500190873769
 30
0.0
 11
878.2141372503927
 21
1294.49996817793
 31
0.0
  0
LWPOLYLINE
  5
284
330
1F
100
AcDbEntity
  8
0-B_寸法
  6
Continuous
 62
     7
370
     9
100
AcDbPolyline
 90
        4
 70
     1
 43
6.0
 10
881.2141372503927
 20
1474.500190873769
 42
0.4142135623731
 10
878.2141372503927
 20
1477.500190873769
 42
0.4142135623731
 10
875.2141372503926
 20
1474.500190873769
 42
0.4142135623731
 10
878.2141372503927
 20
1471.500190873769
 42
0.4142135623731
  0
LWPOLYLINE
  5
285
330
1F
100
AcDbEntity
  8
0-B_寸法
  6
Continuous
 62
     7
370
     9
100
AcDbPolyline
 90
        4
 70
     1
 43
6.0
 10
893.214508410123
 20
1474.500190873769
 42
0.4142135623731
 10
890.214508410123
 20
1477.500190873769
 42
0.4142135623731
 10
887.2145084101229
 20
1474.500190873769
 42
0.4142135623731
 10
890.214508410123
 20
1471.500190873769
 42
0.4142135623731
  0
LINE
  5
286
330
1F
100
AcDbEntity
  8
0-B_寸法
  6
Continuous
 62
   120
370
     5
100
AcDbLine
 10
890.214508410123
 20
1474.500190873769
 30
0.0
 11
890.214508410123
 21
1834.500190873769
 31
0.0
  0
LINE
  5
287
330
1F
100
AcDbEntity
  8
0-B_寸法
  6
Continuous
 62
   120
370
     5
100
AcDbLine
 10
4922.215250729572
 20
1474.500190873769
 30
0.0
 11
878.2141372503927
 21
1474.500190873769
 31
0.0
  0
LINE
  5
288
330
1F
100
AcDbEntity
  8
0-B_寸法
  6
Continuous
 62
   120
370
     5
100
AcDbLine
 10
698.2142857142846
 20
1294.49996817793
 30
0.0
 11
5102.215102265679
 21
1294.49996817793
 31
0.0
  0
LINE
  5
289
330
1F
100
AcDbEntity
  8
0-B_寸法
  6
Continuous
 62
   120
370
     5
100
AcDbLine
 10
4922.214508410108
 20
1474.500190873769
 30
0.0
 11
4922.214508410108
 21
1834.500190873769
 31
0.0
  0
LWPOLYLINE
  5
28A
330
1F
100
AcDbEntity
  8
0-B_寸法
  6
Continuous
 62
     7
370
     9
100
AcDbPolyline
 90
        4
 70
     1
 43
6.0
 10
4925.214508410108
 20
1474.500190873769
 42
0.4142135623731
 10
4922.214508410108
 20
1477.500190873769
 42
0.4142135623731
 10
4919.214508410108
 20
1474.500190873769
 42
0.4142135623731
 10
4922.214508410108
 20
1471.500190873769
 42
0.4142135623731
  0
LINE
  5
28B
330
1F
100
AcDbEntity
  8
0-B_寸法
  6
Continuous
 62
   120
370
     5
100
AcDbLine
 10
4910.214508410121
 20
1474.500190873769
 30
0.0
 11
4910.214508410121
 21
1834.500190873769
 31
0.0
  0
LWPOLYLINE
  5
28C
330
1F
100
AcDbEntity
  8
0-B_寸法
  6
Continuous
 62
     7
370
     9
100
AcDbPolyline
 90
        4
 70
     1
 43
6.0
 10
4913.214508410121
 20
1474.500190873769
 42
0.4142135623731
 10
4910.214508410121
 20
1477.500190873769
 42
0.4142135623731
 10
4907.214508410121
 20
1474.500190873769
 42
0.4142135623731
 10
4910.214508410121
 20
1471.500190873769
 42
0.4142135623731
  0
LINE
  5
28D
330
1F
100
AcDbEntity
  8
0-B_寸法
  6
Continuous
 62
   120
370
     5
100
AcDbLine
 10
4922.215250729572
 20
1834.500190873769
 30
0.0
 11
4922.215250729572
 21
1294.49996817793
 31
0.0
  0
LWPOLYLINE
  5
28E
330
1F
100
AcDbEntity
  8
0-B_寸法
  6
Continuous
 62
     7
370
     9
100
AcDbPolyline
 90
        4
 70
     1
 43
6.0
 10
5105.215102265678
 20
1294.49996817793
 42
0.4142135623731
 10
5102.215102265679
 20
1297.49996817793
 42
0.4142135623731
 10
5099.215102265679
 20
1294.49996817793
 42
0.4142135623731
 10
5102.215102265679
 20
1291.49996817793
 42
0.4142135623731
  0
LWPOLYLINE
  5
28F
330
1F
100
AcDbEntity
  8
0-B_寸法
  6
Continuous
 62
     7
370
     9
100
AcDbPolyline
 90
        4
 70
     1
 43
6.0
 10
5105.215102265678
 20
1114.499745482088
 42
0.4142135623731
 10
5102.215102265679
 20
1117.499745482088
 42
0.4142135623731
 10
5099.215102265679
 20
1114.499745482088
 42
0.4142135623731
 10
5102.215102265679
 20
1111.499745482088
 42
0.4142135623731
  0
LWPOLYLINE
  5
290
330
1F
100
AcDbEntity
  8
0-B_寸法
  6
Continuous
 62
     7
370
     9
100
AcDbPolyline
 90
        4
 70
     1
 43
6.0
 10
4925.215250729572
 20
1294.49996817793
 42
0.4142135623731
 10
4922.215250729572
 20
1297.49996817793
 42
0.4142135623731
 10
4919.215250729572
 20
1294.49996817793
 42
0.4142135623731
 10
4922.215250729572
 20
1291.49996817793
 42
0.4142135623731
  0
LINE
  5
291
330
1F
100
AcDbEntity
  8
0-B_寸法
  6
Continuous
 62
   120
370
     5
100
AcDbLine
 10
5102.215102265679
 20
1834.500190873769
 30
0.0
 11
5102.215102265679
 21
1114.499745482088
 31
0.0
  0
LINE
  5
292
330
1F
100
AcDbEntity
  8
0-C_ハッチ
  6
JWW_DASHED1
 62
   120
370
     5
100
AcDbLine
 10
5102.215102265679
 20
2098.942207475332
 30
0.0
 11
5164.77333310394
 21
2161.500438313593
 31
0.0
  0
LINE
  5
293
330
1F
100
AcDbEntity
  8
0-C_ハッチ
  6
JWW_DASHED1
 62
   120
370
     5
100
AcDbLine
 10
5132.198870213315
 20
2086.500190873769
 30
0.0
 11
5207.199117653138
 21
2161.500438313593
 31
0.0
  0
LINE
  5
294
330
1F
100
AcDbEntity
  8
0-C_ハッチ
  6
JWW_DASHED1
 62
   120
370
     5
100
AcDbLine
 10
5174.625397081982
 20
2086.500190873769
 30
0.0
 11
5249.625644521802
 21
2161.500438313593
 31
0.0
  0
LINE
  5
295
330
1F
100
AcDbEntity
  8
0-C_ハッチ
  6
JWW_DASHED1
 62
   120
370
     5
100
AcDbLine
 10
5217.051923950646
 20
2086.500190873769
 30
0.0
 11
5292.052171390469
 21
2161.500438313593
 31
0.0
  0
LINE
  5
296
330
1F
100
AcDbEntity
  8
0-C_ハッチ
  6
JWW_DASHED1
 62
   120
370
     5
100
AcDbLine
 10
5259.478450819313
 20
2086.500190873769
 30
0.0
 11
5334.478698259133
 21
2161.500438313593
 31
0.0
  0
LINE
  5
297
330
1F
100
AcDbEntity
  8
0-C_ハッチ
  6
JWW_DASHED1
 62
   120
370
     5
100
AcDbLine
 10
5301.904235368508
 20
2086.500190873769
 30
0.0
 11
5376.904482808332
 21
2161.500438313593
 31
0.0
  0
LINE
  5
298
330
1F
100
AcDbEntity
  8
0-C_ハッチ
  6
JWW_DASHED1
 62
   120
370
     5
100
AcDbLine
 10
5344.330762237176
 20
2086.500190873769
 30
0.0
 11
5419.331009676999
 21
2161.500438313593
 31
0.0
  0
LINE
  5
299
330
1F
100
AcDbEntity
  8
0-C_ハッチ
  6
JWW_DASHED1
 62
   120
370
     5
100
AcDbLine
 10
5386.756546786374
 20
2086.500190873769
 30
0.0
 11
5461.756794226194
 21
2161.500438313593
 31
0.0
  0
LINE
  5
29A
330
1F
100
AcDbEntity
  8
0-C_ハッチ
  6
JWW_DASHED1
 62
   120
370
     5
100
AcDbLine
 10
5429.183073655038
 20
2086.500190873769
 30
0.0
 11
5504.183321094862
 21
2161.500438313593
 31
0.0
  0
LINE
  5
29B
330
1F
100
AcDbEntity
  8
0-C_ハッチ
  6
JWW_DASHED1
 62
   120
370
     5
100
AcDbLine
 10
5514.036127392369
 20
2086.500190873769
 30
0.0
 11
5589.036374832192
 21
2161.500438313593
 31
0.0
  0
LINE
  5
29C
330
1F
100
AcDbEntity
  8
0-C_ハッチ
  6
JWW_DASHED1
 62
   120
370
     5
100
AcDbLine
 10
5556.461911941567
 20
2086.500190873769
 30
0.0
 11
5631.462159381388
 21
2161.500438313593
 31
0.0
  0
LINE
  5
29D
330
1F
100
AcDbEntity
  8
0-C_ハッチ
  6
JWW_DASHED1
 62
   120
370
     5
100
AcDbLine
 10
5598.888438810231
 20
2086.500190873769
 30
0.0
 11
5673.888686250054
 21
2161.500438313593
 31
0.0
  0
LINE
  5
29E
330
1F
100
AcDbEntity
  8
0-C_ハッチ
  6
Continuous
 62
   120
370
     5
100
AcDbLine
 10
4922.214508410134
 20
2562.142020607322
 30
0.0
 11
5004.572678676584
 21
2644.500190873769
 31
0.0
  0
LINE
  5
29F
330
1F
100
AcDbEntity
  8
0-C_ハッチ
  6
Continuous
 62
   120
370
     5
100
AcDbLine
 10
4922.214508410114
 20
2383.951111748305
 30
0.0
 11
5102.215102265679
 21
2563.95170560387
 31
0.0
  0
LINE
  5
2A0
330
1F
100
AcDbEntity
  8
0-C_ハッチ
  6
Continuous
 62
   120
370
     5
100
AcDbLine
 10
4922.214508410114
 20
2443.348081368007
 30
0.0
 11
5102.215102265679
 21
2623.348675223572
 31
0.0
  0
LINE
  5
2A1
330
1F
100
AcDbEntity
  8
0-C_ハッチ
  6
Continuous
 62
   120
370
     5
100
AcDbLine
 10
4922.214508410124
 20
2502.745050987664
 30
0.0
 11
5063.969648296232
 21
2644.500190873769
 31
0.0
  0
LINE
  5
2A2
330
1F
100
AcDbEntity
  8
0-C_ハッチ
  6
Continuous
 62
   120
370
     5
100
AcDbLine
 10
4922.214508410118
 20
2324.554142128661
 30
0.0
 11
5102.215102265697
 21
2504.554735984242
 31
0.0
  0
LINE
  5
2A3
330
1F
100
AcDbEntity
  8
0-C_ハッチ
  6
Continuous
 62
   120
370
     5
100
AcDbLine
 10
4922.214508410102
 20
2265.157172508944
 30
0.0
 11
5102.215102265682
 21
2445.157766364524
 31
0.0
  0
LINE
  5
2A4
330
1F
100
AcDbEntity
  8
0-C_ハッチ
  6
Continuous
 62
   120
370
     5
100
AcDbLine
 10
4922.214508410122
 20
2205.760202889315
 30
0.0
 11
5102.215102265703
 21
2385.760796744895
 31
0.0
  0
LINE
  5
2A5
330
1F
100
AcDbEntity
  8
0-C_ハッチ
  6
Continuous
 62
   120
370
     5
100
AcDbLine
 10
4922.21450841011
 20
2146.363233269656
 30
0.0
 11
5102.215102265689
 21
2326.363827125237
 31
0.0
  0
LINE
  5
2A6
330
1F
100
AcDbEntity
  8
0-C_ハッチ
  6
Continuous
 62
   120
370
     5
100
AcDbLine
 10
4922.214508410108
 20
2086.966263649954
 30
0.0
 11
5102.215102265675
 21
2266.966857505518
 31
0.0
  0
LINE
  5
2A7
330
1F
100
AcDbEntity
  8
0-C_ハッチ
  6
Continuous
 62
   120
370
     5
100
AcDbLine
 10
4968.54237487327
 20
2014.500190873767
 30
0.0
 11
5102.215102265677
 21
2148.172918266172
 31
0.0
  0
LINE
  5
2A8
330
1F
100
AcDbEntity
  8
0-C_ハッチ
  6
Continuous
 62
   120
370
     5
100
AcDbLine
 10
5027.939344492909
 20
2014.500190873756
 30
0.0
 11
5102.215102265695
 21
2088.775948646545
 31
0.0
  0
LINE
  5
2A9
330
1F
100
AcDbEntity
  8
0-C_ハッチ
  6
Continuous
 62
   120
370
     5
100
AcDbLine
 10
5087.336314112565
 20
2014.500190873765
 30
0.0
 11
5102.215102265685
 21
2029.378979026886
 31
0.0
  0
LINE
  5
2AA
330
1F
100
AcDbEntity
  8
0-4_枠
  6
Continuous
 62
    92
370
    13
100
AcDbLine
 10
4946.214508410106
 20
2644.500190873769
 30
0.0
 11
5102.215102265679
 21
2644.500190873769
 31
0.0
  0
LINE
  5
2AB
330
1F
100
AcDbEntity
  8
0-4_枠
  6
Continuous
 62
    92
370
    13
100
AcDbLine
 10
4922.214508410107
 20
2038.500190873771
 30
0.0
 11
4946.214508410106
 21
2014.500190873769
 31
0.0
  0
LINE
  5
2AC
330
1F
100
AcDbEntity
  8
0-4_枠
  6
Continuous
 62
    92
370
    13
100
AcDbLine
 10
4946.214508410106
 20
2014.500190873769
 30
0.0
 11
5102.215102265679
 21
2014.500190873769
 31
0.0
  0
LINE
  5
2AD
330
1F
100
AcDbEntity
  8
0-4_枠
  6
Continuous
 62
    92
370
    13
100
AcDbLine
 10
4922.214508410107
 20
2038.500190873771
 30
0.0
 11
4922.214508410107
 21
2620.50019087377
 31
0.0
  0
LINE
  5
2AE
330
1F
100
AcDbEntity
  8
0-4_枠
  6
Continuous
 62
    92
370
    13
100
AcDbLine
 10
4946.214508410106
 20
2644.500190873769
 30
0.0
 11
4922.214508410107
 21
2620.50019087377
 31
0.0
  0
LINE
  5
2AF
330
1F
100
AcDbEntity
  8
0-4_枠
  6
Continuous
 62
    92
370
    13
100
AcDbLine
 10
5102.215102265679
 20
2014.500190873769
 30
0.0
 11
5102.215102265679
 21
2644.500190873769
 31
0.0
  0
LINE
  5
2B0
330
1F
100
AcDbEntity
  8
0-1_通り芯
  6
JWW_CENTER1
 62
   120
370
     5
100
AcDbLine
 10
98.2142857142847
 20
2329.500190873769
 30
0.0
 11
5702.215102265679
 21
2329.500190873769
 31
0.0
  0
LINE
  5
2B1
330
1F
100
AcDbEntity
  8
0-3_仕上げ
  6
Continuous
 62
    40
370
    15
100
AcDbLine
 10
5102.215102265679
 20
2161.500438313593
 30
0.0
 11
5702.215102265679
 21
2161.500438313593
 31
0.0
  0
LINE
  5
2B2
330
1F
100
AcDbEntity
  8
0-3_仕上げ
  6
Continuous
 62
    40
370
    15
100
AcDbLine
 10
5102.215102265679
 20
2086.500190873769
 30
0.0
 11
5702.215102265679
 21
2086.500190873769
 31
0.0
  0
LINE
  5
2B3
330
1F
100
AcDbEntity
  8
0-C_ハッチ
  6
JWW_DASHED1
 62
   120
370
     5
100
AcDbLine
 10
5683.740750228094
 20
2086.500190873769
 30
0.0
 11
5702.215102265679
 21
2104.974542911355
 31
0.0
  0
LINE
  5
2B4
330
1F
100
AcDbEntity
  8
0-C_ハッチ
  6
JWW_DASHED1
 62
   120
370
     5
100
AcDbLine
 10
5641.314223359429
 20
2086.500190873769
 30
0.0
 11
5702.215102265679
 21
2147.400467015867
 31
0.0
  0
LINE
  5
2B5
330
1F
100
AcDbEntity
  8
0-0_補助線
  6
JWW_HOJO
 62
   120
370
     5
100
AcDbLine
 10
5702.215102265679
 20
2824.500190873769
 30
0.0
 11
5702.215102265679
 21
1834.500190873769
 31
0.0
  0
LINE
  5
2B6
330
1F
100
AcDbEntity
  8
0-0_補助線
  6
JWW_HOJO
 62
   120
370
     5
100
AcDbLine
 10
5702.215102265679
 20
1834.500190873769
 30
0.0
 11
98.2142857142847
 21
1834.500190873769
 31
0.0
  0
LINE
  5
2B7
330
1F
100
AcDbEntity
  8
0-0_補助線
  6
JWW_HOJO
 62
   120
370
     5
100
AcDbLine
 10
98.2142857142847
 20
2824.500190873769
 30
0.0
 11
98.2142857142847
 21
1834.500190873769
 31
0.0
  0
LINE
  5
2B8
330
1F
100
AcDbEntity
  8
0-0_補助線
  6
JWW_HOJO
 62
   120
370
     5
100
AcDbLine
 10
2900.214508410121
 20
2197.461154767351
 30
0.0
 11
2900.214508410121
 21
2824.500190873769
 31
0.0
  0
LINE
  5
2B9
330
1F
100
AcDbEntity
  8
0-0_補助線
  6
JWW_HOJO
 62
   120
370
     5
100
AcDbLine
 10
5702.215102265679
 20
2824.500190873769
 30
0.0
 11
98.2142857142847
 21
2824.500190873769
 31
0.0
  0
LINE
  5
2BA
330
1F
100
AcDbEntity
  8
0-4_枠
  6
Continuous
 62
    92
370
    13
100
AcDbLine
 10
698.2142857142846
 20
2014.500190873769
 30
0.0
 11
698.2142857142846
 21
2644.500190873769
 31
0.0
  0
LINE
  5
2BB
330
1F
100
AcDbEntity
  8
0-7_金物
  6
Continuous
 62
     7
370
     9
100
AcDbLine
 10
941.8183642796837
 20
2516.953418350205
 30
0.0
 11
971.3379175420048
 21
2301.004263310759
 31
0.0
  0
LINE
  5
2BC
330
1F
100
AcDbEntity
  8
0-7_金物
  6
Continuous
 62
     7
370
     9
100
AcDbLine
 10
941.8183642796837
 20
2516.953418350205
 30
0.0
 11
899.8193756243402
 21
2517.244883490834
 31
0.0
  0
LINE
  5
2BD
330
1F
100
AcDbEntity
  8
0-7_金物
  6
Continuous
 62
     7
370
     9
100
AcDbLine
 10
890.105458779153
 20
2507.116472112025
 30
0.0
 11
888.8162982773415
 21
2490.357385588499
 31
0.0
  0
LINE
  5
2BE
330
1F
100
AcDbEntity
  8
0-7_金物
  6
Continuous
 62
     7
370
     9
100
AcDbLine
 10
890.105458779153
 20
2507.116472112025
 30
0.0
 11
899.8713414988672
 21
2514.44088415181
 31
0.0
  0
LINE
  5
2BF
330
1F
100
AcDbEntity
  8
0-7_金物
  6
Continuous
 62
     7
370
     9
100
AcDbLine
 10
899.8193756243402
 20
2517.244883490834
 30
0.0
 11
900.7145084101271
 21
2468.944883490832
 31
0.0
  0
LINE
  5
2C0
330
1F
100
AcDbEntity
  8
0-7_金物
  6
Continuous
 62
     7
370
     9
100
AcDbLine
 10
878.2145084101271
 20
2468.944883490832
 30
0.0
 11
878.2145084101271
 21
2313.544883490834
 31
0.0
  0
LINE
  5
2C1
330
1F
100
AcDbEntity
  8
0-7_金物
  6
Continuous
 62
     7
370
     9
100
AcDbLine
 10
971.3379175420048
 20
2301.004263310759
 30
0.0
 11
1025.897031636459
 21
2248.869998731616
 31
0.0
  0
LINE
  5
2C2
330
1F
100
AcDbEntity
  8
0-7_金物
  6
Continuous
 62
     7
370
     9
100
AcDbLine
 10
897.3800073250802
 20
2488.930100747208
 30
0.0
 11
888.8162982773415
 21
2490.357385588499
 31
0.0
  0
LINE
  5
2C3
330
1F
100
AcDbEntity
  8
0-7_金物
  6
Continuous
 62
     7
370
     9
100
AcDbLine
 10
897.3800073250802
 20
2488.930100747208
 30
0.0
 11
897.3800073250802
 21
2496.204649293137
 31
0.0
  0
LINE
  5
2C4
330
1F
100
AcDbEntity
  8
0-7_金物
  6
Continuous
 62
     7
370
     9
100
AcDbLine
 10
897.3800073250802
 20
2496.204649293137
 30
0.0
 11
900.1833327506788
 21
2497.606312005934
 31
0.0
  0
LINE
  5
2C5
330
1F
100
AcDbEntity
  8
0-7_金物
  6
Continuous
 62
     7
370
     9
100
AcDbLine
 10
1025.897031636459
 20
2248.869998731616
 30
0.0
 11
1027.343212963022
 21
2218.50019087377
 31
0.0
  0
LINE
  5
2C6
330
1F
100
AcDbEntity
  8
0-7_金物
  6
Continuous
 62
     7
370
     9
100
AcDbLine
 10
946.569673384595
 20
2218.50019087377
 30
0.0
 11
1087.869673384595
 21
2218.50019087377
 31
0.0
  0
LINE
  5
2C7
330
1F
100
AcDbEntity
  8
0-7_金物
  6
Continuous
 62
     7
370
     9
100
AcDbLine
 10
1004.090511416781
 20
2218.50019087377
 30
0.0
 11
901.0212872944701
 21
2266.405604902448
 31
0.0
  0
LINE
  5
2C8
330
1F
100
AcDbEntity
  8
0-7_金物
  6
Continuous
 62
     7
370
     9
100
AcDbLine
 10
878.2145084101271
 20
2313.544883490834
 30
0.0
 11
900.7311278920142
 21
2313.544883490834
 31
0.0
  0
LINE
  5
2C9
330
1F
100
AcDbEntity
  8
0-7_金物
  6
Continuous
 62
     7
370
     9
100
AcDbLine
 10
901.0212872944701
 20
2266.405604902448
 30
0.0
 11
900.7145084101271
 21
2316.244883490833
 31
0.0
  0
LINE
  5
2CA
330
1F
100
AcDbEntity
  8
0-7_金物
  6
Continuous
 62
     7
370
     9
100
AcDbLine
 10
878.2145084101271
 20
2468.944883490832
 30
0.0
 11
900.7145084101271
 21
2468.944883490832
 31
0.0
  0
LINE
  5
2CB
330
1F
100
AcDbEntity
  8
0-7_金物
  6
Continuous
 62
     7
370
     9
100
AcDbLine
 10
900.7145084101271
 20
2313.544883490834
 30
0.0
 11
900.7145084101271
 21
2468.944883490832
 31
0.0
  0
LINE
  5
2CC
330
1F
100
AcDbEntity
  8
0-7_金物
  6
JWW_DASHED1
 62
     7
370
     9
100
AcDbLine
 10
946.569673384595
 20
2218.50019087377
 30
0.0
 11
946.569673384595
 21
2176.557630056309
 31
0.0
  0
LINE
  5
2CD
330
1F
100
AcDbEntity
  8
0-7_金物
  6
JWW_DASHED1
 62
     7
370
     9
100
AcDbLine
 10
1087.869673384595
 20
2218.50019087377
 30
0.0
 11
1087.869673384595
 21
2176.557630056309
 31
0.0
  0
LINE
  5
2CE
330
1F
100
AcDbEntity
  8
0-7_金物
  6
JWW_DASHED1
 62
     7
370
     9
100
AcDbLine
 10
946.569673384595
 20
2176.557630056309
 30
0.0
 11
1087.869673384595
 21
2176.557630056309
 31
0.0
  0
LINE
  5
2CF
330
1F
100
AcDbEntity
  8
0-7_金物
  6
Continuous
 62
     7
370
     9
100
AcDbLine
 10
4858.610652540554
 20
2516.953418350205
 30
0.0
 11
4829.091099278233
 21
2301.004263310759
 31
0.0
  0
LINE
  5
2D0
330
1F
100
AcDbEntity
  8
0-7_金物
  6
Continuous
 62
     7
370
     9
100
AcDbLine
 10
4858.610652540554
 20
2516.953418350205
 30
0.0
 11
4900.609641195897
 21
2517.244883490834
 31
0.0
  0
LINE
  5
2D1
330
1F
100
AcDbEntity
  8
0-7_金物
  6
Continuous
 62
     7
370
     9
100
AcDbLine
 10
4910.323558041085
 20
2507.116472112025
 30
0.0
 11
4911.612718542894
 21
2490.357385588499
 31
0.0
  0
LINE
  5
2D2
330
1F
100
AcDbEntity
  8
0-7_金物
  6
Continuous
 62
     7
370
     9
100
AcDbLine
 10
4910.323558041085
 20
2507.116472112025
 30
0.0
 11
4900.55767532137
 21
2514.44088415181
 31
0.0
  0
LINE
  5
2D3
330
1F
100
AcDbEntity
  8
0-7_金物
  6
Continuous
 62
     7
370
     9
100
AcDbLine
 10
4900.609641195897
 20
2517.244883490834
 30
0.0
 11
4899.714508410108
 21
2468.944883490832
 31
0.0
  0
LINE
  5
2D4
330
1F
100
AcDbEntity
  8
0-7_金物
  6
Continuous
 62
     7
370
     9
100
AcDbLine
 10
4922.214508410108
 20
2468.944883490832
 30
0.0
 11
4922.214508410108
 21
2313.544883490834
 31
0.0
  0
LINE
  5
2D5
330
1F
100
AcDbEntity
  8
0-7_金物
  6
Continuous
 62
     7
370
     9
100
AcDbLine
 10
4829.091099278233
 20
2301.004263310759
 30
0.0
 11
4774.531985183778
 21
2248.869998731616
 31
0.0
  0
LINE
  5
2D6
330
1F
100
AcDbEntity
  8
0-7_金物
  6
Continuous
 62
     7
370
     9
100
AcDbLine
 10
4903.049009495157
 20
2488.930100747208
 30
0.0
 11
4911.612718542894
 21
2490.357385588499
 31
0.0
  0
LINE
  5
2D7
330
1F
100
AcDbEntity
  8
0-7_金物
  6
Continuous
 62
     7
370
     9
100
AcDbLine
 10
4903.049009495157
 20
2488.930100747208
 30
0.0
 11
4903.049009495157
 21
2496.204649293137
 31
0.0
  0
LINE
  5
2D8
330
1F
100
AcDbEntity
  8
0-7_金物
  6
Continuous
 62
     7
370
     9
100
AcDbLine
 10
4903.049009495157
 20
2496.204649293137
 30
0.0
 11
4900.245684069557
 21
2497.606312005934
 31
0.0
  0
LINE
  5
2D9
330
1F
100
AcDbEntity
  8
0-7_金物
  6
Continuous
 62
     7
370
     9
100
AcDbLine
 10
4774.531985183778
 20
2248.869998731616
 30
0.0
 11
4773.085803857213
 21
2218.50019087377
 31
0.0
  0
LINE
  5
2DA
330
1F
100
AcDbEntity
  8
0-7_金物
  6
Continuous
 62
     7
370
     9
100
AcDbLine
 10
4853.859343435643
 20
2218.50019087377
 30
0.0
 11
4712.559343435641
 21
2218.50019087377
 31
0.0
  0
LINE
  5
2DB
330
1F
100
AcDbEntity
  8
0-7_金物
  6
Continuous
 62
     7
370
     9
100
AcDbLine
 10
4796.338505403457
 20
2218.50019087377
 30
0.0
 11
4899.407729525768
 21
2266.405604902448
 31
0.0
  0
LINE
  5
2DC
330
1F
100
AcDbEntity
  8
0-7_金物
  6
Continuous
 62
     7
370
     9
100
AcDbLine
 10
4922.214508410108
 20
2313.544883490834
 30
0.0
 11
4899.697888928222
 21
2313.544883490834
 31
0.0
  0
LINE
  5
2DD
330
1F
100
AcDbEntity
  8
0-7_金物
  6
Continuous
 62
     7
370
     9
100
AcDbLine
 10
4899.407729525768
 20
2266.405604902448
 30
0.0
 11
4899.714508410108
 21
2316.244883490833
 31
0.0
  0
LINE
  5
2DE
330
1F
100
AcDbEntity
  8
0-7_金物
  6
Continuous
 62
     7
370
     9
100
AcDbLine
 10
4922.214508410108
 20
2468.944883490832
 30
0.0
 11
4899.714508410108
 21
2468.944883490832
 31
0.0
  0
LINE
  5
2DF
330
1F
100
AcDbEntity
  8
0-7_金物
  6
Continuous
 62
     7
370
     9
100
AcDbLine
 10
4899.714508410108
 20
2313.544883490834
 30
0.0
 11
4899.714508410108
 21
2468.944883490832
 31
0.0
  0
LINE
  5
2E0
330
1F
100
AcDbEntity
  8
0-7_金物
  6
JWW_DASHED1
 62
     7
370
     9
100
AcDbLine
 10
4853.859343435643
 20
2218.50019087377
 30
0.0
 11
4853.859343435643
 21
2176.557630056309
 31
0.0
  0
LINE
  5
2E1
330
1F
100
AcDbEntity
  8
0-7_金物
  6
JWW_DASHED1
 62
     7
370
     9
100
AcDbLine
 10
4712.559343435641
 20
2218.50019087377
 30
0.0
 11
4712.559343435641
 21
2176.557630056309
 31
0.0
  0
LINE
  5
2E2
330
1F
100
AcDbEntity
  8
0-7_金物
  6
JWW_DASHED1
 62
     7
370
     9
100
AcDbLine
 10
4853.859343435643
 20
2176.557630056309
 30
0.0
 11
4712.559343435641
 21
2176.557630056309
 31
0.0
  0
LINE
  5
2E3
330
1F
100
AcDbEntity
  8
0-C_ハッチ
  6
Continuous
 62
   120
370
     5
100
AcDbLine
 10
4927.679956831839
 20
2033.034742452037
 30
0.0
 11
5102.215102265695
 21
2207.569887885891
 31
0.0
  0
LINE
  5
2E4
330
1F
100
AcDbEntity
  8
0-6_扉
  6
Continuous
 62
   200
370
    20
100
AcDbLine
 10
2906.214508410123
 20
2200.500190873771
 30
0.0
 11
4910.214508410121
 21
2200.500190873771
 31
0.0
  0
LINE
  5
2E5
330
1F
100
AcDbEntity
  8
0-6_扉
  6
Continuous
 62
   200
370
    20
100
AcDbLine
 10
890.214508410123
 20
2200.500190873771
 30
0.0
 11
2894.214508410123
 21
2200.500190873771
 31
0.0
  0
LINE
  5
2E6
330
1F
100
AcDbEntity
  8
0-B_寸法
  6
Continuous
 62
   120
370
     5
100
AcDbLine
 10
1481.426831513125
 20
2200.500190873771
 30
0.0
 11
1552.788228921275
 21
2200.500190873771
 31
0.0
  0
LWPOLYLINE
  5
2E7
330
1F
100
AcDbEntity
  8
0-B_寸法
  6
Continuous
 62
     7
370
     9
100
AcDbPolyline
 90
        4
 70
     1
 43
6.0
 10
1555.788228921275
 20
2200.500190873771
 42
0.4142135623731
 10
1552.788228921275
 20
2203.50019087377
 42
0.4142135623731
 10
1549.788228921275
 20
2200.500190873771
 42
0.4142135623731
 10
1552.788228921275
 20
2197.500190873771
 42
0.4142135623731
  0
LINE
  5
2E8
330
1F
100
AcDbEntity
  8
0-6_扉
  6
Continuous
 62
   200
370
    20
100
AcDbLine
 10
2906.214508410123
 20
2074.500101795435
 30
0.0
 11
4910.214508410121
 21
2074.500101795435
 31
0.0
  0
LINE
  5
2E9
330
1F
100
AcDbEntity
  8
0-6_扉
  6
Continuous
 62
   200
370
    20
100
AcDbLine
 10
890.214508410123
 20
2074.500101795435
 30
0.0
 11
2894.214508410123
 21
2074.500101795435
 31
0.0
  0
LINE
  5
2EA
330
1F
100
AcDbEntity
  8
0-B_寸法
  6
Continuous
 62
   120
370
     5
100
AcDbLine
 10
1481.426831513125
 20
2074.49787483703
 30
0.0
 11
1552.788228921275
 21
2074.49787483703
 31
0.0
  0
LWPOLYLINE
  5
2EB
330
1F
100
AcDbEntity
  8
0-B_寸法
  6
Continuous
 62
     7
370
     9
100
AcDbPolyline
 90
        4
 70
     1
 43
6.0
 10
1555.788228921275
 20
2074.49787483703
 42
0.4142135623731
 10
1552.788228921275
 20
2077.497874837029
 42
0.4142135623731
 10
1549.788228921275
 20
2074.49787483703
 42
0.4142135623731
 10
1552.788228921275
 20
2071.49787483703
 42
0.4142135623731
  0
LINE
  5
2EC
330
1F
100
AcDbEntity
  8
0-6_扉
  6
Continuous
 62
   200
370
    20
100
AcDbLine
 10
2894.214508410123
 20
2200.500190873771
 30
0.0
 11
2894.214508410123
 21
2074.500101795435
 31
0.0
  0
LINE
  5
2ED
330
1F
100
AcDbEntity
  8
0-6_扉
  6
Continuous
 62
   200
370
    20
100
AcDbLine
 10
2906.214508410123
 20
2200.500190873771
 30
0.0
 11
2906.214508410123
 21
2074.500101795435
 31
0.0
  0
LINE
  5
2EE
330
1F
100
AcDbEntity
  8
0-6_扉
  6
Continuous
 62
   200
370
    20
100
AcDbLine
 10
890.214508410123
 20
2200.500190873771
 30
0.0
 11
890.214508410123
 21
2074.500101795435
 31
0.0
  0
LINE
  5
2EF
330
1F
100
AcDbEntity
  8
0-6_扉
  6
Continuous
 62
   200
370
    20
100
AcDbLine
 10
4910.214508410121
 20
2200.500190873771
 30
0.0
 11
4910.214508410121
 21
2074.500101795435
 31
0.0
  0
LINE
  5
2F0
330
1F
100
AcDbEntity
  8
0-B_寸法
  6
Continuous
 62
   120
370
     5
100
AcDbLine
 10
1552.788228921275
 20
2200.500190873771
 30
0.0
 11
1552.788228921275
 21
2074.49787483703
 31
0.0
  0
TEXT
  5
2F1
330
1F
100
AcDbEntity
  8
0-B_寸法
  6
Continuous
 62
     7
370
     0
100
AcDbText
 10
1238.900693086013
 20
2215.500507596744
 30
0.0
 40
91.44
  1
105
 50
90.0
 41
1.083333333333333
  7
ＭＳ ゴシック
100
AcDbText
  0
TEXT
  5
2F2
330
1F
100
AcDbEntity
  8
0-B_寸法
  6
Continuous
 62
     7
370
     0
100
AcDbText
 10
1520.868179433311
 20
2073.7490328554
 30
0.0
 40
91.44
  1
21
 50
90.0
 41
1.0625
  7
ＭＳ ゴシック
100
AcDbText
  0
TEXT
  5
2F3
330
1F
100
AcDbEntity
  8
0-B_寸法
  6
Continuous
 62
     7
370
   211
100
AcDbText
 10
891.9356673805632
 20
1506.42019087377
 30
0.0
 40
91.44
  1
2
  7
ＭＳ ゴシック
100
AcDbText
  0
TEXT
  5
2F4
330
1F
100
AcDbEntity
  8
0-B_寸法
  6
Continuous
 62
     7
370
   211
100
AcDbText
 10
1592.214508410124
 20
1506.42019087377
 30
0.0
 40
91.44
  1
ＤＷ＝334
 41
1.111111111111105
  7
ＭＳ ゴシック
100
AcDbText
  0
TEXT
  5
2F5
330
1F
100
AcDbEntity
  8
0-B_寸法
  6
Continuous
 62
     7
370
   211
100
AcDbText
 10
2911.384134874824
 20
1506.42019087377
 30
0.0
 40
91.44
  1
2
  7
ＭＳ ゴシック
100
AcDbText
  0
TEXT
  5
2F6
330
1F
100
AcDbEntity
  8
0-B_寸法
  6
Continuous
 62
     7
370
   211
100
AcDbText
 10
3608.214508410122
 20
1506.42019087377
 30
0.0
 40
91.44
  1
ＤＷ＝334
 41
1.111111111111111
  7
ＭＳ ゴシック
100
AcDbText
  0
TEXT
  5
2F7
330
1F
100
AcDbEntity
  8
0-B_寸法
  6
Continuous
 62
     7
370
   211
100
AcDbText
 10
4847.567907956734
 20
1506.42019087377
 30
0.0
 40
91.44
  1
2
  7
ＭＳ ゴシック
100
AcDbText
  0
TEXT
  5
2F8
330
1F
100
AcDbEntity
  8
0-B_寸法
  6
Continuous
 62
     7
370
     0
100
AcDbText
 10
720.714199110349
 20
1326.420017665895
 30
0.0
 40
91.44
  1
30
 41
1.0625
  7
ＭＳ ゴシック
100
AcDbText
  0
TEXT
  5
2F9
330
1F
100
AcDbEntity
  8
0-B_寸法
  6
Continuous
 62
     7
370
     0
100
AcDbText
 10
4944.715349705502
 20
1326.420017665895
 30
0.0
 40
91.44
  1
30
 41
1.0625
  7
ＭＳ ゴシック
100
AcDbText
  0
TEXT
  5
2FA
330
1F
100
AcDbEntity
  8
0-B_寸法
  6
Continuous
 62
     7
370
     0
100
AcDbText
 10
2600.214693989984
 20
1323.419968177928
 30
0.0
 40
91.44
  1
枠内＝674
 41
1.111111111111111
  7
ＭＳ ゴシック
100
AcDbText
  0
TEXT
  5
2FB
330
1F
100
AcDbEntity
  8
0-B_寸法
  6
Continuous
 62
     7
370
     0
100
AcDbText
 10
2600.214693989984
 20
1143.41974548209
 30
0.0
 40
91.44
  1
枠外＝734
 41
1.111111111111111
  7
ＭＳ ゴシック
100
AcDbText
  0
LINE
  5
2FC
330
1F
100
AcDbEntity
  8
0-B_寸法
  6
Continuous
 62
   120
370
     5
100
AcDbLine
 10
698.2142857142846
 20
1114.499745482088
 30
0.0
 11
5102.215102265679
 21
1114.499745482088
 31
0.0
  0
TEXT
  5
2FD
330
1F
100
AcDbEntity
  8
0-A_文字
  6
Continuous
 62
     7
370
     9
100
AcDbText
 10
93.16735341512953
 20
2957.360755482369
 30
0.0
 40
91.44
  1
■横断面図　Ｈ＝４尺、３尺
  7
ＭＳ ゴシック
100
AcDbText
  0
TEXT
  5
2FE
330
1F
100
AcDbEntity
  8
0-B_寸法
  6
Continuous
 62
     7
370
     0
100
AcDbText
 10
2308.350390493405
 20
849.6901908737686
 30
0.0
 40
68.58
  1
※Ｈ＝３尺、４尺には躯体接合金具は装備されていません。
 41
1.160493827160492
  7
ＭＳ ゴシック
100
AcDbText
  0
LINE
  5
2FF
330
1F
100
AcDbEntity
  8
0-4_枠
  6
Continuous
 62
    92
370
    13
100
AcDbLine
 10
-1073.729208038304
 20
-1879.128853614484
 30
0.0
 11
-1703.729208038304
 21
-1879.128853614484
 31
0.0
  0
LINE
  5
300
330
1F
100
AcDbEntity
  8
0-4_枠
  6
Continuous
 62
    92
370
    13
100
AcDbLine
 10
-2145.835387115366
 20
-643.2815551788013
 30
0.0
 11
-645.8353871153693
 21
-643.2815551788013
 31
0.0
  0
LINE
  5
301
330
1F
100
AcDbEntity
  8
0-4_枠
  6
Continuous
 62
    92
370
    13
100
AcDbLine
 10
-2145.835387115366
 20
-463.2815551788013
 30
0.0
 11
-645.8353871153693
 21
-463.2815551788013
 31
0.0
  0
LINE
  5
302
330
1F
100
AcDbEntity
  8
0-4_枠
  6
Continuous
 62
    92
370
    13
100
AcDbLine
 10
-2145.835387115364
 20
-2494.310873187586
 30
0.0
 11
-2145.835387115366
 21
-463.2815551788013
 31
0.0
  0
LINE
  5
303
330
1F
100
AcDbEntity
  8
0-4_枠
  6
Continuous
 62
    92
370
    13
100
AcDbLine
 10
-645.8353871153677
 20
-2494.310873187586
 30
0.0
 11
-2145.835387115364
 21
-2494.310873187586
 31
0.0
  0
LINE
  5
304
330
1F
100
AcDbEntity
  8
0-4_枠
  6
Continuous
 62
    92
370
    13
100
AcDbLine
 10
-645.8353871153677
 20
-2494.310873187586
 30
0.0
 11
-645.8353871153693
 21
-463.2815551788013
 31
0.0
  0
LINE
  5
305
330
1F
100
AcDbEntity
  8
0-4_枠
  6
Continuous
 62
     7
370
     9
100
AcDbLine
 10
-1607.315837215851
 20
-1751.828436679314
 30
0.0
 11
-1485.215816060961
 21
-1751.828436679314
 31
0.0
  0
TEXT
  5
306
330
1F
100
AcDbEntity
  8
0-4_枠
  6
Continuous
 62
     7
370
     0
100
AcDbText
 10
-1496.134464801966
 20
-1779.908436679314
 30
0.0
 40
91.44
  1
現場ｶｯﾄ
  7
ＭＳ ゴシック
100
AcDbText
  0
LINE
  5
307
330
1F
100
AcDbEntity
  8
0-4_枠
  6
Continuous
 62
     7
370
     9
100
AcDbLine
 10
-1688.722225171588
 20
-1892.828436679312
 30
0.0
 11
-1607.315837215851
 21
-1751.828436679314
 31
0.0
  0
LINE
  5
308
330
1F
100
AcDbEntity
  8
0-4_枠
  6
Continuous
 62
     7
370
     9
100
AcDbLine
 10
-1688.722225171588
 20
-1892.828436679312
 30
0.0
 11
-1673.193082465437
 21
-1834.872887101968
 31
0.0
  0
LINE
  5
309
330
1F
100
AcDbEntity
  8
0-4_枠
  6
Continuous
 62
   120
370
     5
100
AcDbLine
 10
-1703.729208038304
 20
-943.2095613114767
 30
0.0
 11
-1073.729208038304
 21
-943.2095613114767
 31
0.0
  0
LWPOLYLINE
  5
30A
330
1F
100
AcDbEntity
  8
0-4_枠
  6
Continuous
 62
     7
370
     9
100
AcDbPolyline
 90
        4
 70
     1
 43
6.0
 10
-1700.729208038304
 20
-943.2095613114767
 42
0.4142135623731
 10
-1703.729208038304
 20
-940.2095613114766
 42
0.4142135623731
 10
-1706.729208038304
 20
-943.2095613114767
 42
0.4142135623731
 10
-1703.729208038304
 20
-946.2095613114767
 42
0.4142135623731
  0
LWPOLYLINE
  5
30B
330
1F
100
AcDbEntity
  8
0-4_枠
  6
Continuous
 62
     7
370
     9
100
AcDbPolyline
 90
        4
 70
     1
 43
6.0
 10
-1070.729208038304
 20
-943.2095613114767
 42
0.4142135623731
 10
-1073.729208038304
 20
-940.2095613114766
 42
0.4142135623731
 10
-1076.729208038304
 20
-943.2095613114767
 42
0.4142135623731
 10
-1073.729208038304
 20
-946.2095613114767
 42
0.4142135623731
  0
LINE
  5
30C
330
1F
100
AcDbEntity
  8
0-4_枠
  6
Continuous
 62
   120
370
     5
100
AcDbLine
 10
-1703.729208038304
 20
-943.2095613114767
 30
0.0
 11
-1703.729208038304
 21
-1106.008925378209
 31
0.0
  0
LINE
  5
30D
330
1F
100
AcDbEntity
  8
0-4_枠
  6
Continuous
 62
   120
370
     5
100
AcDbLine
 10
-1073.729208038304
 20
-943.2095613114767
 30
0.0
 11
-1073.729208038304
 21
-1106.008925378209
 31
0.0
  0
TEXT
  5
30E
330
1F
100
AcDbEntity
  8
0-4_枠
  6
Continuous
 62
     7
370
   211
100
AcDbText
 10
-1482.865995820685
 20
-911.2895613114767
 30
0.0
 40
91.44
  1
105
 41
1.083333333333333
  7
ＭＳ ゴシック
100
AcDbText
  0
TEXT
  5
30F
330
1F
100
AcDbEntity
  8
0-4_枠
  6
Continuous
 62
     7
370
     0
100
AcDbText
 10
-1838.335387115366
 20
-596.3615551788009
 30
0.0
 40
91.44
  1
竪枠下端加工図
  7
ＭＳ ゴシック
100
AcDbText
  0
LINE
  5
310
330
1F
100
AcDbEntity
  8
0-4_枠
  6
Continuous
 62
    92
370
    13
100
AcDbLine
 10
-1190.729208038304
 20
-1898.928853614484
 30
0.0
 11
-1190.729208038304
 21
-1933.128853614484
 31
0.0
  0
LINE
  5
311
330
1F
100
AcDbEntity
  8
0-4_枠
  6
Continuous
 62
    92
370
    13
100
AcDbLine
 10
-1484.729208038304
 20
-1898.928853614484
 30
0.0
 11
-1484.729208038304
 21
-1933.128853614484
 31
0.0
  0
LINE
  5
312
330
1F
100
AcDbEntity
  8
0-4_枠
  6
Continuous
 62
    92
370
    13
100
AcDbLine
 10
-1703.729208038304
 20
-1933.128853614484
 30
0.0
 11
-1484.729208038304
 21
-1933.128853614484
 31
0.0
  0
LINE
  5
313
330
1F
100
AcDbEntity
  8
0-4_枠
  6
Continuous
 62
    92
370
    13
100
AcDbLine
 10
-1484.729208038304
 20
-1898.928853614484
 30
0.0
 11
-1190.729208038304
 21
-1898.928853614484
 31
0.0
  0
LINE
  5
314
330
1F
100
AcDbEntity
  8
0-4_枠
  6
Continuous
 62
    92
370
    13
100
AcDbLine
 10
-1190.729208038304
 20
-1933.128853614484
 30
0.0
 11
-1073.729208038304
 21
-1933.128853614484
 31
0.0
  0
LINE
  5
315
330
1F
100
AcDbEntity
  8
0-4_枠
  6
Continuous
 62
    92
370
    13
100
AcDbLine
 10
-1073.729208038304
 20
-1198.933301358
 30
0.0
 11
-1073.729208038304
 21
-1933.128853614484
 31
0.0
  0
LINE
  5
316
330
1F
100
AcDbEntity
  8
0-4_枠
  6
Continuous
 62
    92
370
    13
100
AcDbLine
 10
-1703.729208038304
 20
-1198.933301358
 30
0.0
 11
-1703.729208038304
 21
-1933.128853614484
 31
0.0
  0
LINE
  5
317
330
1F
100
AcDbEntity
  8
0-4_枠
  6
Continuous
 62
   120
370
     5
100
AcDbLine
 10
-1917.173817114947
 20
-1933.128853614484
 30
0.0
 11
-1917.173817114947
 21
-1879.128853614484
 31
0.0
  0
LWPOLYLINE
  5
318
330
1F
100
AcDbEntity
  8
0-4_枠
  6
Continuous
 62
     7
370
     9
100
AcDbPolyline
 90
        4
 70
     1
 43
6.0
 10
-1914.173817114947
 20
-1933.128853614484
 42
0.4142135623731
 10
-1917.173817114947
 20
-1930.128853614484
 42
0.4142135623731
 10
-1920.173817114946
 20
-1933.128853614484
 42
0.4142135623731
 10
-1917.173817114947
 20
-1936.128853614484
 42
0.4142135623731
  0
LWPOLYLINE
  5
319
330
1F
100
AcDbEntity
  8
0-4_枠
  6
Continuous
 62
     7
370
     9
100
AcDbPolyline
 90
        4
 70
     1
 43
6.0
 10
-1914.173817114947
 20
-1879.128853614484
 42
0.4142135623731
 10
-1917.173817114947
 20
-1876.128853614484
 42
0.4142135623731
 10
-1920.173817114946
 20
-1879.128853614484
 42
0.4142135623731
 10
-1917.173817114947
 20
-1882.128853614484
 42
0.4142135623731
  0
LINE
  5
31A
330
1F
100
AcDbEntity
  8
0-4_枠
  6
Continuous
 62
   120
370
     5
100
AcDbLine
 10
-1917.173817114947
 20
-1933.128853614484
 30
0.0
 11
-1770.397127718695
 21
-1933.128853614484
 31
0.0
  0
LINE
  5
31B
330
1F
100
AcDbEntity
  8
0-4_枠
  6
Continuous
 62
   120
370
     5
100
AcDbLine
 10
-1917.173817114947
 20
-1879.128853614484
 30
0.0
 11
-1770.397127718695
 21
-1879.128853614484
 31
0.0
  0
TEXT
  5
31C
330
1F
100
AcDbEntity
  8
0-4_枠
  6
Continuous
 62
     7
370
   211
100
AcDbText
 10
-1949.093817114947
 20
-1934.189607686002
 30
0.0
 40
91.44
  1
9
 50
90.0
  7
ＭＳ ゴシック
100
AcDbText
  0
LINE
  5
31D
330
1F
100
AcDbEntity
  8
0-4_枠
  6
JWW_DASHED1
 62
   120
370
     5
100
AcDbLine
 10
-1659.136018968393
 20
-1879.128853614484
 30
0.0
 11
-1703.729208038304
 21
-1923.722042684395
 31
0.0
  0
LINE
  5
31E
330
1F
100
AcDbEntity
  8
0-4_枠
  6
JWW_DASHED1
 62
   120
370
     5
100
AcDbLine
 10
-1574.283205225995
 20
-1879.128853614484
 30
0.0
 11
-1628.283205225987
 21
-1933.128853614479
 31
0.0
  0
LINE
  5
31F
330
1F
100
AcDbEntity
  8
0-4_枠
  6
JWW_DASHED1
 62
   120
370
     5
100
AcDbLine
 10
-1616.709612097193
 20
-1879.128853614484
 30
0.0
 11
-1670.709612097188
 21
-1933.128853614479
 31
0.0
  0
LINE
  5
320
330
1F
100
AcDbEntity
  8
0-4_枠
  6
JWW_DASHED1
 62
   120
370
     5
100
AcDbLine
 10
-1531.856798354795
 20
-1879.128853614484
 30
0.0
 11
-1585.85679835479
 21
-1933.128853614479
 31
0.0
  0
LINE
  5
321
330
1F
100
AcDbEntity
  8
0-4_枠
  6
JWW_DASHED1
 62
   120
370
     5
100
AcDbLine
 10
-1489.430391483595
 20
-1879.128853614484
 30
0.0
 11
-1543.43039148359
 21
-1933.128853614479
 31
0.0
  0
LINE
  5
322
330
1F
100
AcDbEntity
  8
0-4_枠
  6
JWW_DASHED1
 62
   120
370
     5
100
AcDbLine
 10
-1073.729208038296
 20
-1887.691738881184
 30
0.0
 11
-1119.16632277159
 21
-1933.128853614479
 31
0.0
  0
LINE
  5
323
330
1F
100
AcDbEntity
  8
0-4_枠
  6
JWW_DASHED1
 62
   120
370
     5
100
AcDbLine
 10
-1107.592729642796
 20
-1879.128853614484
 30
0.0
 11
-1161.59272964279
 21
-1933.128853614479
 31
0.0
  0
LINE
  5
324
330
1F
100
AcDbEntity
  8
0-4_枠
  6
JWW_DASHED1
 62
   120
370
     5
100
AcDbLine
 10
-1150.019136513996
 20
-1879.128853614484
 30
0.0
 11
-1190.729208038304
 21
-1919.838925138792
 31
0.0
  0
LINE
  5
325
330
1F
100
AcDbEntity
  8
0-4_枠
  6
JWW_DASHED1
 62
   120
370
     5
100
AcDbLine
 10
-1192.445543385196
 20
-1879.128853614484
 30
0.0
 11
-1212.245543385195
 21
-1898.928853614484
 31
0.0
  0
LINE
  5
326
330
1F
100
AcDbEntity
  8
0-4_枠
  6
JWW_DASHED1
 62
   120
370
     5
100
AcDbLine
 10
-1234.871950256395
 20
-1879.128853614484
 30
0.0
 11
-1254.671950256395
 21
-1898.928853614484
 31
0.0
  0
LINE
  5
327
330
1F
100
AcDbEntity
  8
0-4_枠
  6
JWW_DASHED1
 62
   120
370
     5
100
AcDbLine
 10
-1277.298357127595
 20
-1879.128853614484
 30
0.0
 11
-1297.098357127595
 21
-1898.928853614484
 31
0.0
  0
LINE
  5
328
330
1F
100
AcDbEntity
  8
0-4_枠
  6
JWW_DASHED1
 62
   120
370
     5
100
AcDbLine
 10
-1319.724763998795
 20
-1879.128853614484
 30
0.0
 11
-1339.524763998795
 21
-1898.928853614484
 31
0.0
  0
LINE
  5
329
330
1F
100
AcDbEntity
  8
0-4_枠
  6
JWW_DASHED1
 62
   120
370
     5
100
AcDbLine
 10
-1362.151170869995
 20
-1879.128853614484
 30
0.0
 11
-1381.951170869995
 21
-1898.928853614484
 31
0.0
  0
LINE
  5
32A
330
1F
100
AcDbEntity
  8
0-4_枠
  6
JWW_DASHED1
 62
   120
370
     5
100
AcDbLine
 10
-1404.577577741195
 20
-1879.128853614484
 30
0.0
 11
-1424.377577741194
 21
-1898.928853614484
 31
0.0
  0
LINE
  5
32B
330
1F
100
AcDbEntity
  8
0-4_枠
  6
JWW_DASHED1
 62
   120
370
     5
100
AcDbLine
 10
-1447.003984612395
 20
-1879.128853614484
 30
0.0
 11
-1466.803984612394
 21
-1898.928853614484
 31
0.0
  0
LINE
  5
32C
330
1F
100
AcDbEntity
  8
0-4_枠
  6
JWW_DASHED1
 62
   120
370
     5
100
AcDbLine
 10
-1484.729208038304
 20
-1916.854077040394
 30
0.0
 11
-1501.00398461239
 21
-1933.128853614479
 31
0.0
  0
LINE
  5
32D
330
1F
100
AcDbEntity
  8
0-4_枠
  6
Continuous
 62
    92
370
    13
100
AcDbLine
 10
4674.321281342744
 20
-1879.128853614484
 30
0.0
 11
4044.321281342744
 21
-1879.128853614484
 31
0.0
  0
LINE
  5
32E
330
1F
100
AcDbEntity
  8
0-4_枠
  6
Continuous
 62
    92
370
    13
100
AcDbLine
 10
3602.215102265682
 20
-643.2815551788013
 30
0.0
 11
5102.215102265679
 21
-643.2815551788013
 31
0.0
  0
LINE
  5
32F
330
1F
100
AcDbEntity
  8
0-4_枠
  6
Continuous
 62
    92
370
    13
100
AcDbLine
 10
3602.215102265682
 20
-463.2815551788013
 30
0.0
 11
5102.215102265679
 21
-463.2815551788013
 31
0.0
  0
LINE
  5
330
330
1F
100
AcDbEntity
  8
0-4_枠
  6
Continuous
 62
    92
370
    13
100
AcDbLine
 10
3602.215102265684
 20
-2494.310873187586
 30
0.0
 11
3602.215102265682
 21
-463.2815551788013
 31
0.0
  0
LINE
  5
331
330
1F
100
AcDbEntity
  8
0-4_枠
  6
Continuous
 62
    92
370
    13
100
AcDbLine
 10
5102.21510226568
 20
-2494.310873187586
 30
0.0
 11
3602.215102265684
 21
-2494.310873187586
 31
0.0
  0
LINE
  5
332
330
1F
100
AcDbEntity
  8
0-4_枠
  6
Continuous
 62
    92
370
    13
100
AcDbLine
 10
5102.21510226568
 20
-2494.310873187586
 30
0.0
 11
5102.215102265679
 21
-463.2815551788013
 31
0.0
  0
LINE
  5
333
330
1F
100
AcDbEntity
  8
0-4_枠
  6
Continuous
 62
     7
370
     9
100
AcDbLine
 10
4140.734652165197
 20
-1751.828436679314
 30
0.0
 11
4262.834673320087
 21
-1751.828436679314
 31
0.0
  0
TEXT
  5
334
330
1F
100
AcDbEntity
  8
0-4_枠
  6
Continuous
 62
     7
370
     0
100
AcDbText
 10
4251.916024579082
 20
-1779.908436679314
 30
0.0
 40
91.44
  1
現場ｶｯﾄ
  7
ＭＳ ゴシック
100
AcDbText
  0
LINE
  5
335
330
1F
100
AcDbEntity
  8
0-4_枠
  6
Continuous
 62
     7
370
     9
100
AcDbLine
 10
4059.32826420946
 20
-1892.828436679312
 30
0.0
 11
4140.734652165197
 21
-1751.828436679314
 31
0.0
  0
LINE
  5
336
330
1F
100
AcDbEntity
  8
0-4_枠
  6
Continuous
 62
     7
370
     9
100
AcDbLine
 10
4059.32826420946
 20
-1892.828436679312
 30
0.0
 11
4074.857406915611
 21
-1834.872887101968
 31
0.0
  0
LINE
  5
337
330
1F
100
AcDbEntity
  8
0-4_枠
  6
Continuous
 62
   120
370
     5
100
AcDbLine
 10
4044.321281342744
 20
-943.2095613114767
 30
0.0
 11
4674.321281342744
 21
-943.2095613114767
 31
0.0
  0
LWPOLYLINE
  5
338
330
1F
100
AcDbEntity
  8
0-4_枠
  6
Continuous
 62
     7
370
     9
100
AcDbPolyline
 90
        4
 70
     1
 43
6.0
 10
4047.321281342743
 20
-943.2095613114767
 42
0.4142135623731
 10
4044.321281342744
 20
-940.2095613114766
 42
0.4142135623731
 10
4041.321281342744
 20
-943.2095613114767
 42
0.4142135623731
 10
4044.321281342744
 20
-946.2095613114767
 42
0.4142135623731
  0
LWPOLYLINE
  5
339
330
1F
100
AcDbEntity
  8
0-4_枠
  6
Continuous
 62
     7
370
     9
100
AcDbPolyline
 90
        4
 70
     1
 43
6.0
 10
4677.321281342744
 20
-943.2095613114767
 42
0.4142135623731
 10
4674.321281342744
 20
-940.2095613114766
 42
0.4142135623731
 10
4671.321281342744
 20
-943.2095613114767
 42
0.4142135623731
 10
4674.321281342744
 20
-946.2095613114767
 42
0.4142135623731
  0
LINE
  5
33A
330
1F
100
AcDbEntity
  8
0-4_枠
  6
Continuous
 62
   120
370
     5
100
AcDbLine
 10
4044.321281342744
 20
-943.2095613114767
 30
0.0
 11
4044.321281342744
 21
-1106.008925378209
 31
0.0
  0
LINE
  5
33B
330
1F
100
AcDbEntity
  8
0-4_枠
  6
Continuous
 62
   120
370
     5
100
AcDbLine
 10
4674.321281342744
 20
-943.2095613114767
 30
0.0
 11
4674.321281342744
 21
-1106.008925378209
 31
0.0
  0
TEXT
  5
33C
330
1F
100
AcDbEntity
  8
0-4_枠
  6
Continuous
 62
     7
370
   211
100
AcDbText
 10
4265.184493560362
 20
-911.2895613114767
 30
0.0
 40
91.44
  1
105
 41
1.083333333333333
  7
ＭＳ ゴシック
100
AcDbText
  0
TEXT
  5
33D
330
1F
100
AcDbEntity
  8
0-4_枠
  6
Continuous
 62
     7
370
     0
100
AcDbText
 10
3909.715102265682
 20
-596.3615551788009
 30
0.0
 40
91.44
  1
竪枠下端加工図
  7
ＭＳ ゴシック
100
AcDbText
  0
LINE
  5
33E
330
1F
100
AcDbEntity
  8
0-4_枠
  6
Continuous
 62
    92
370
    13
100
AcDbLine
 10
4557.321281342744
 20
-1898.928853614484
 30
0.0
 11
4557.321281342744
 21
-1933.128853614484
 31
0.0
  0
LINE
  5
33F
330
1F
100
AcDbEntity
  8
0-4_枠
  6
Continuous
 62
    92
370
    13
100
AcDbLine
 10
4263.321281342744
 20
-1898.928853614484
 30
0.0
 11
4263.321281342744
 21
-1933.128853614484
 31
0.0
  0
LINE
  5
340
330
1F
100
AcDbEntity
  8
0-4_枠
  6
Continuous
 62
    92
370
    13
100
AcDbLine
 10
4044.321281342744
 20
-1933.128853614484
 30
0.0
 11
4263.321281342744
 21
-1933.128853614484
 31
0.0
  0
LINE
  5
341
330
1F
100
AcDbEntity
  8
0-4_枠
  6
Continuous
 62
    92
370
    13
100
AcDbLine
 10
4263.321281342744
 20
-1898.928853614484
 30
0.0
 11
4557.321281342744
 21
-1898.928853614484
 31
0.0
  0
LINE
  5
342
330
1F
100
AcDbEntity
  8
0-4_枠
  6
Continuous
 62
    92
370
    13
100
AcDbLine
 10
4557.321281342744
 20
-1933.128853614484
 30
0.0
 11
4674.321281342744
 21
-1933.128853614484
 31
0.0
  0
LINE
  5
343
330
1F
100
AcDbEntity
  8
0-4_枠
  6
Continuous
 62
    92
370
    13
100
AcDbLine
 10
4674.321281342744
 20
-1198.933301358
 30
0.0
 11
4674.321281342744
 21
-1933.128853614484
 31
0.0
  0
LINE
  5
344
330
1F
100
AcDbEntity
  8
0-4_枠
  6
Continuous
 62
    92
370
    13
100
AcDbLine
 10
4044.321281342744
 20
-1198.933301358
 30
0.0
 11
4044.321281342744
 21
-1933.128853614484
 31
0.0
  0
LINE
  5
345
330
1F
100
AcDbEntity
  8
0-4_枠
  6
Continuous
 62
   120
370
     5
100
AcDbLine
 10
3830.876672266101
 20
-1933.128853614484
 30
0.0
 11
3830.876672266101
 21
-1879.128853614484
 31
0.0
  0
LWPOLYLINE
  5
346
330
1F
100
AcDbEntity
  8
0-4_枠
  6
Continuous
 62
     7
370
     9
100
AcDbPolyline
 90
        4
 70
     1
 43
6.0
 10
3833.876672266101
 20
-1933.128853614484
 42
0.4142135623731
 10
3830.876672266101
 20
-1930.128853614484
 42
0.4142135623731
 10
3827.876672266102
 20
-1933.128853614484
 42
0.4142135623731
 10
3830.876672266101
 20
-1936.128853614484
 42
0.4142135623731
  0
LWPOLYLINE
  5
347
330
1F
100
AcDbEntity
  8
0-4_枠
  6
Continuous
 62
     7
370
     9
100
AcDbPolyline
 90
        4
 70
     1
 43
6.0
 10
3833.876672266101
 20
-1879.128853614484
 42
0.4142135623731
 10
3830.876672266101
 20
-1876.128853614484
 42
0.4142135623731
 10
3827.876672266102
 20
-1879.128853614484
 42
0.4142135623731
 10
3830.876672266101
 20
-1882.128853614484
 42
0.4142135623731
  0
LINE
  5
348
330
1F
100
AcDbEntity
  8
0-4_枠
  6
Continuous
 62
   120
370
     5
100
AcDbLine
 10
3830.876672266101
 20
-1933.128853614484
 30
0.0
 11
3977.653361662353
 21
-1933.128853614484
 31
0.0
  0
LINE
  5
349
330
1F
100
AcDbEntity
  8
0-4_枠
  6
Continuous
 62
   120
370
     5
100
AcDbLine
 10
3830.876672266101
 20
-1879.128853614484
 30
0.0
 11
3977.653361662353
 21
-1879.128853614484
 31
0.0
  0
TEXT
  5
34A
330
1F
100
AcDbEntity
  8
0-4_枠
  6
Continuous
 62
     7
370
   211
100
AcDbText
 10
3798.956672266101
 20
-1934.189607686002
 30
0.0
 40
91.44
  1
9
 50
90.0
  7
ＭＳ ゴシック
100
AcDbText
  0
LINE
  5
34B
330
1F
100
AcDbEntity
  8
0-4_枠
  6
JWW_DASHED1
 62
   120
370
     5
100
AcDbLine
 10
4088.914470412655
 20
-1879.128853614484
 30
0.0
 11
4044.321281342744
 21
-1923.722042684395
 31
0.0
  0
LINE
  5
34C
330
1F
100
AcDbEntity
  8
0-4_枠
  6
JWW_DASHED1
 62
   120
370
     5
100
AcDbLine
 10
4173.767284155053
 20
-1879.128853614484
 30
0.0
 11
4119.767284155061
 21
-1933.128853614479
 31
0.0
  0
LINE
  5
34D
330
1F
100
AcDbEntity
  8
0-4_枠
  6
JWW_DASHED1
 62
   120
370
     5
100
AcDbLine
 10
4131.340877283855
 20
-1879.128853614484
 30
0.0
 11
4077.34087728386
 21
-1933.128853614479
 31
0.0
  0
LINE
  5
34E
330
1F
100
AcDbEntity
  8
0-4_枠
  6
JWW_DASHED1
 62
   120
370
     5
100
AcDbLine
 10
4216.193691026253
 20
-1879.128853614484
 30
0.0
 11
4162.193691026258
 21
-1933.128853614479
 31
0.0
  0
LINE
  5
34F
330
1F
100
AcDbEntity
  8
0-4_枠
  6
JWW_DASHED1
 62
   120
370
     5
100
AcDbLine
 10
4258.620097897453
 20
-1879.128853614484
 30
0.0
 11
4204.620097897458
 21
-1933.128853614479
 31
0.0
  0
LINE
  5
350
330
1F
100
AcDbEntity
  8
0-4_枠
  6
JWW_DASHED1
 62
   120
370
     5
100
AcDbLine
 10
4674.321281342752
 20
-1887.691738881184
 30
0.0
 11
4628.884166609458
 21
-1933.128853614479
 31
0.0
  0
LINE
  5
351
330
1F
100
AcDbEntity
  8
0-4_枠
  6
JWW_DASHED1
 62
   120
370
     5
100
AcDbLine
 10
4640.457759738251
 20
-1879.128853614484
 30
0.0
 11
4586.457759738258
 21
-1933.128853614479
 31
0.0
  0
LINE
  5
352
330
1F
100
AcDbEntity
  8
0-4_枠
  6
JWW_DASHED1
 62
   120
370
     5
100
AcDbLine
 10
4598.031352867051
 20
-1879.128853614484
 30
0.0
 11
4557.321281342744
 21
-1919.838925138792
 31
0.0
  0
LINE
  5
353
330
1F
100
AcDbEntity
  8
0-4_枠
  6
JWW_DASHED1
 62
   120
370
     5
100
AcDbLine
 10
4555.604945995851
 20
-1879.128853614484
 30
0.0
 11
4535.804945995853
 21
-1898.928853614484
 31
0.0
  0
LINE
  5
354
330
1F
100
AcDbEntity
  8
0-4_枠
  6
JWW_DASHED1
 62
   120
370
     5
100
AcDbLine
 10
4513.178539124653
 20
-1879.128853614484
 30
0.0
 11
4493.378539124653
 21
-1898.928853614484
 31
0.0
  0
LINE
  5
355
330
1F
100
AcDbEntity
  8
0-4_枠
  6
JWW_DASHED1
 62
   120
370
     5
100
AcDbLine
 10
4470.752132253453
 20
-1879.128853614484
 30
0.0
 11
4450.952132253453
 21
-1898.928853614484
 31
0.0
  0
LINE
  5
356
330
1F
100
AcDbEntity
  8
0-4_枠
  6
JWW_DASHED1
 62
   120
370
     5
100
AcDbLine
 10
4428.325725382253
 20
-1879.128853614484
 30
0.0
 11
4408.525725382253
 21
-1898.928853614484
 31
0.0
  0
LINE
  5
357
330
1F
100
AcDbEntity
  8
0-4_枠
  6
JWW_DASHED1
 62
   120
370
     5
100
AcDbLine
 10
4385.899318511053
 20
-1879.128853614484
 30
0.0
 11
4366.099318511053
 21
-1898.928853614484
 31
0.0
  0
LINE
  5
358
330
1F
100
AcDbEntity
  8
0-4_枠
  6
JWW_DASHED1
 62
   120
370
     5
100
AcDbLine
 10
4343.472911639853
 20
-1879.128853614484
 30
0.0
 11
4323.672911639854
 21
-1898.928853614484
 31
0.0
  0
LINE
  5
359
330
1F
100
AcDbEntity
  8
0-4_枠
  6
JWW_DASHED1
 62
   120
370
     5
100
AcDbLine
 10
4301.046504768653
 20
-1879.128853614484
 30
0.0
 11
4281.246504768654
 21
-1898.928853614484
 31
0.0
  0
LINE
  5
35A
330
1F
100
AcDbEntity
  8
0-4_枠
  6
JWW_DASHED1
 62
   120
370
     5
100
AcDbLine
 10
4263.321281342744
 20
-1916.854077040394
 30
0.0
 11
4247.046504768658
 21
-1933.128853614479
 31
0.0
  0
LINE
  5
35B
330
1F
100
AcDbEntity
  8
0-A_文字
  6
Continuous
 62
    92
370
    13
100
AcDbLine
 10
-5679.83630264269
 20
4030.000577359586
 30
0.0
 11
-5679.83630264269
 21
3760.000577359586
 31
0.0
  0
TEXT
  5
35C
330
1F
100
AcDbEntity
  8
0-A_文字
  6
Continuous
 62
    92
370
    13
100
AcDbText
 10
-5593.58630264269
 20
3830.380577359586
 30
0.0
 40
137.16
  1
収納両開き戸[固定枠]　３方枠（下枠なし）
 41
1.079166666666667
  7
ＭＳ ゴシック
100
AcDbText
  0
LINE
  5
35D
330
1F
100
AcDbEntity
  8
0-A_文字
  6
Continuous
 62
    92
370
    13
100
AcDbLine
 10
-1702.321428571429
 20
4030.000577359586
 30
0.0
 11
-1702.321428571429
 21
3760.000577359586
 31
0.0
  0
LINE
  5
35E
330
1F
100
AcDbEntity
  8
0-A_文字
  6
Continuous
 62
    92
370
    13
100
AcDbLine
 10
-5679.83630264269
 20
3760.000577359586
 30
0.0
 11
-1702.321428571429
 21
3760.000577359586
 31
0.0
  0
LINE
  5
35F
330
1F
100
AcDbEntity
  8
0-A_文字
  6
Continuous
 62
    92
370
    13
100
AcDbLine
 10
-5679.83630264269
 20
4030.000577359586
 30
0.0
 11
-1702.321428571429
 21
4030.000577359586
 31
0.0
  0
TEXT
  5
360
330
1F
100
AcDbEntity
  8
0-A_文字
  6
Continuous
 62
     7
370
     9
100
AcDbText
 10
695.0000000000014
 20
-55.83922648870704
 30
0.0
 40
91.44
  1
■縦断面図　Ｈ＝４尺 (３尺)
  7
ＭＳ ゴシック
100
AcDbText
  0
TEXT
  5
361
330
1F
100
AcDbEntity
  8
0-A_文字
  6
Continuous
 62
     7
370
     9
100
AcDbText
 10
-5121.622115904333
 20
-39.43298372940383
 30
0.0
 40
91.44
  1
■縦断面図　Ｈ＝８尺　(７尺)　<６尺>
 41
1.0
  7
ＭＳ ゴシック
100
AcDbText
  0
TEXT
  5
362
330
1F
100
AcDbEntity
  8
0-B_寸法
  6
Continuous
 62
     7
370
     0
100
AcDbText
 10
-3486.055260049302
 20
-687.7594545249309
 30
0.0
 40
91.44
  1
3
 50
90.0
  7
ＭＳ ゴシック
100
AcDbText
  0
TEXT
  5
363
330
1F
100
AcDbEntity
  8
0-B_寸法
  6
Continuous
 62
     7
370
     0
100
AcDbText
 10
2321.995427283602
 20
-777.7594545249309
 30
0.0
 40
91.44
  1
3
 50
90.0
  7
ＭＳ ゴシック
100
AcDbText
  0
TEXT
  5
364
330
1F
100
AcDbEntity
  8
0-B_寸法
  6
Continuous
 62
     7
370
     0
100
AcDbText
 10
-3497.181610817167
 20
-471.6813639035864
 30
0.0
 40
91.44
  1
8
 50
90.0
  7
ＭＳ ゴシック
100
AcDbText
  0
TEXT
  5
365
330
1F
100
AcDbEntity
  8
0-B_寸法
  6
Continuous
 62
     7
370
     0
100
AcDbText
 10
-2567.287430922987
 20
-3208.60596707819
 30
0.0
 40
91.44
  1
12
 50
90.0
 41
1.0625
  7
ＭＳ ゴシック
100
AcDbText
  0
TEXT
  5
366
330
1F
100
AcDbEntity
  8
0-B_寸法
  6
Continuous
 62
     7
370
     0
100
AcDbText
 10
3240.763256409918
 20
-3208.60596707819
 30
0.0
 40
91.44
  1
12
 50
90.0
 41
1.0625
  7
ＭＳ ゴシック
100
AcDbText
  0
TEXT
  5
367
330
1F
100
AcDbEntity
  8
0-B_寸法
  6
Continuous
 62
     7
370
     0
100
AcDbText
 10
-3474.430288065845
 20
-3108.60596707819
 30
0.0
 40
91.44
  1
10
 50
90.0
 41
1.0625
  7
ＭＳ ゴシック
100
AcDbText
  0
TEXT
  5
368
330
1F
100
AcDbEntity
  8
0-B_寸法
  6
Continuous
 62
     7
370
     0
100
AcDbText
 10
2333.62039926706
 20
-3108.60596707819
 30
0.0
 40
91.44
  1
10
 50
90.0
 41
1.0625
  7
ＭＳ ゴシック
100
AcDbText
  0
TEXT
  5
369
330
1F
100
AcDbEntity
  8
0-A_文字
  6
Continuous
 62
     7
370
     0
100
AcDbText
 10
-4023.835748377488
 20
-1628.295697886296
 30
0.0
 40
91.44
  1
[24]
  7
ＭＳ ゴシック
100
AcDbText
  0
TEXT
  5
36A
330
1F
100
AcDbEntity
  8
0-A_文字
  6
Continuous
 62
     7
370
     0
100
AcDbText
 10
-2221.124954446062
 20
707.5071009475231
 30
0.0
 40
68.58
  1
※扉厚 [  ] 内はからっ戸の場合
 41
1.155555555555555
  7
ＭＳ ゴシック
100
AcDbText
  0
TEXT
  5
36B
330
1F
100
AcDbEntity
  8
0-A_文字
  6
Continuous
 62
     7
370
     0
100
AcDbText
 10
-4092.995399052477
 20
-3570.328478256341
 30
0.0
 40
68.58
  1
※扉厚 [  ] 内はからっ戸の場合
 41
1.155555555555555
  7
ＭＳ ゴシック
100
AcDbText
  0
TEXT
  5
36C
330
1F
100
AcDbEntity
  8
0-A_文字
  6
Continuous
 62
     7
370
     0
100
AcDbText
 10
-4053.7562328558
 20
2018.095238095238
 30
0.0
 40
91.44
  1
[24]
 50
90.0
  7
ＭＳ ゴシック
100
AcDbText
  0
TEXT
  5
36D
330
1F
100
AcDbEntity
  8
0-A_文字
  6
Continuous
 62
     7
370
     0
100
AcDbText
 10
1802.635127274255
 20
2018.095238095238
 30
0.0
 40
91.44
  1
[24]
 50
90.0
  7
ＭＳ ゴシック
100
AcDbText
  0
TEXT
  5
36E
330
1F
100
AcDbEntity
  8
0-A_文字
  6
Continuous
 62
     7
370
     0
100
AcDbText
 10
1790.714285714285
 20
-1628.295697886296
 30
0.0
 40
91.44
  1
[24]
  7
ＭＳ ゴシック
100
AcDbText
  0
TEXT
  5
36F
330
1F
100
AcDbEntity
  8
0-A_文字
  6
Continuous
 62
     7
370
     0
100
AcDbText
 10
715.1058201058196
 20
-3585.722698412698
 30
0.0
 40
68.58
  1
※扉厚 [  ] 内はからっ戸の場合
 41
1.155555555555555
  7
ＭＳ ゴシック
100
AcDbText
  0
TEXT
  5
370
330
1F
100
AcDbEntity
  8
0-A_文字
  6
Continuous
 62
     7
370
     0
100
AcDbText
 10
2296.741622574955
 20
709.2508465608468
 30
0.0
 40
68.58
  1
※扉厚 [  ] 内はからっ戸の場合
 41
1.155555555555555
  7
ＭＳ ゴシック
100
AcDbText
  0
TEXT
  5
371
330
1F
100
AcDbEntity
  8
0-B_寸法
  6
Continuous
 62
     7
370
   211
100
AcDbText
 10
-5141.756401618621
 20
-2809.281280800156
 30
0.0
 40
91.44
  1
ＲＯＨ＝2,347 (2,046) <1,796>
 50
90.0
 41
1.120689655172414
  7
ＭＳ ゴシック
100
AcDbText
  0
TEXT
  5
372
330
1F
100
AcDbEntity
  8
0-B_寸法
  6
Continuous
 62
     7
370
     0
100
AcDbText
 10
-3119.755708787118
 20
-2741.781280800156
 30
0.0
 40
91.44
  1
ＤＨ＝2,284 (1,983) <1,733>
 50
90.0
 41
1.12037037037037
  7
ＭＳ ゴシック
100
AcDbText
  0
TEXT
  5
373
330
1F
100
AcDbEntity
  8
0-B_寸法
  6
Continuous
 62
     7
370
     0
100
AcDbText
 10
-2939.755708787118
 20
-2741.781280800156
 30
0.0
 40
91.44
  1
枠内＝2,297 (1,996) <1,746>
 50
90.0
 41
1.12037037037037
  7
ＭＳ ゴシック
100
AcDbText
  0
TEXT
  5
374
330
1F
100
AcDbEntity
  8
0-B_寸法
  6
Continuous
 62
     7
370
     0
100
AcDbText
 10
-2759.755708787118
 20
-2741.781280800156
 30
0.0
 40
91.44
  1
枠外＝2,327 (2,026) <1,776>
 50
90.0
 41
1.12037037037037
  7
ＭＳ ゴシック
100
AcDbText
  0
TEXT
  5
375
330
1F
100
AcDbEntity
  8
0-B_寸法
  6
Continuous
 62
     7
370
     0
100
AcDbText
 10
3063.29502803375
 20
-2506.931216931217
 30
0.0
 40
91.44
  1
枠外＝1,178 (823)
 50
90.0
 41
1.11764705882353
  7
ＭＳ ゴシック
100
AcDbText
  0
TEXT
  5
376
330
1F
100
AcDbEntity
  8
0-B_寸法
  6
Continuous
 62
     7
370
     0
100
AcDbText
 10
2883.29502803375
 20
-2506.931216931217
 30
0.0
 40
91.44
  1
枠内＝1,148 (793)
 50
90.0
 41
1.11764705882353
  7
ＭＳ ゴシック
100
AcDbText
  0
TEXT
  5
377
330
1F
100
AcDbEntity
  8
0-B_寸法
  6
Continuous
 62
     7
370
     0
100
AcDbText
 10
2703.29502803375
 20
-2506.931216931217
 30
0.0
 40
91.44
  1
ＤＨ＝1,135 (780)
 50
90.0
 41
1.11764705882353
  7
ＭＳ ゴシック
100
AcDbText
  0
TEXT
  5
378
330
1F
100
AcDbEntity
  8
F-A_文字
  6
Continuous
 62
     7
370
     0
100
AcDbText
 10
4938.667793092893
 20
-3919.814510139966
 30
0.0
 40
68.58
  1
2019.01.21
 41
1.15
  7
ＭＳ ゴシック
100
AcDbText
  0
ENDSEC
  0
SECTION
  2
OBJECTS
  0
DICTIONARY
  5
C
330
0
100
AcDbDictionary
281
     1
  3
ACAD_DETAILVIEWSTYLE
350
3B0
  3
ACAD_GROUP
350
D
  3
ACAD_LAYOUT
350
1A
  3
ACAD_MATERIAL
350
43
  3
ACAD_MLEADERSTYLE
350
6B
  3
ACAD_MLINESTYLE
350
17
  3
ACAD_PLOTSETTINGS
350
19
  3
ACAD_PLOTSTYLENAME
350
E
  3
ACAD_SCALELIST
350
47
  3
ACAD_SECTIONVIEWSTYLE
350
3B1
  3
ACAD_TABLESTYLE
350
69
  3
ACAD_VISUALSTYLE
350
2A
  3
ACDB_RECOMPOSE_DATA
350
3AD
  3
AcDbVariableDictionary
350
379
  0
SUN
  5
6D
330
29
100
AcDbSun
 90
        1
290
     0
 63
     7
421
 16777215
 40
1.0
291
     1
 91
  2455826
 92
 54000000
292
     0
 70
     2
 71
   256
280
     1
  0
DICTIONARY
  5
3B0
102
{ACAD_REACTORS
330
C
102
}
330
C
100
AcDbDictionary
281
     1
  0
DICTIONARY
  5
D
102
{ACAD_REACTORS
330
C
102
}
330
C
100
AcDbDictionary
281
     1
  0
DICTIONARY
  5
1A
102
{ACAD_REACTORS
330
C
102
}
330
C
100
AcDbDictionary
281
     1
  3
Layout1
350
1E
  3
Layout2
350
26
  3
Model
350
22
  0
DICTIONARY
  5
43
102
{ACAD_REACTORS
330
C
102
}
330
C
100
AcDbDictionary
281
     1
  3
ByBlock
350
45
  3
ByLayer
350
44
  3
Global
350
46
  0
DICTIONARY
  5
6B
102
{ACAD_REACTORS
330
C
102
}
330
C
100
AcDbDictionary
281
     1
  3
Standard
350
6C
  0
DICTIONARY
  5
17
102
{ACAD_REACTORS
330
C
102
}
330
C
100
AcDbDictionary
281
     1
  3
Standard
350
18
  0
DICTIONARY
  5
19
102
{ACAD_REACTORS
330
C
102
}
330
C
100
AcDbDictionary
281
     1
  0
ACDBDICTIONARYWDFLT
  5
E
102
{ACAD_REACTORS
330
C
102
}
330
C
100
AcDbDictionary
281
     1
  3
Normal
350
F
100
AcDbDictionaryWithDefault
340
F
  0
DICTIONARY
  5
47
102
{ACAD_REACTORS
330
C
102
}
330
C
100
AcDbDictionary
281
     1
  3
A0
350
48
  3
A1
350
49
  3
A2
350
4A
  3
A3
350
4B
  3
A4
350
4C
  3
A5
350
4D
  3
A6
350
4E
  3
A7
350
4F
  3
A8
350
50
  3
A9
350
51
  3
B0
350
52
  3
B1
350
53
  3
B2
350
54
  3
B3
350
55
  3
B4
350
56
  3
B5
350
57
  3
B6
350
58
  3
B7
350
59
  3
B8
350
5A
  3
B9
350
5B
  3
C0
350
5C
  3
C1
350
5D
  3
C2
350
5E
  3
C3
350
5F
  3
C4
350
60
  3
C5
350
61
  3
C6
350
62
  3
C7
350
63
  3
C8
350
64
  3
C9
350
65
  3
D0
350
66
  3
D1
350
67
  3
D2
350
68
  0
DICTIONARY
  5
3B1
102
{ACAD_REACTORS
330
C
102
}
330
C
100
AcDbDictionary
281
     1
  0
DICTIONARY
  5
69
102
{ACAD_REACTORS
330
C
102
}
330
C
100
AcDbDictionary
281
     1
  3
Standard
350
6A
  0
DICTIONARY
  5
2A
102
{ACAD_REACTORS
330
C
102
}
330
C
100
AcDbDictionary
281
     1
  3
2dWireframe
350
2F
  3
Basic
350
32
  3
Brighten
350
36
  3
ColorChange
350
3A
  3
Conceptual
350
34
  3
Dim
350
35
  3
EdgeColorOff
350
3D
  3
Facepattern
350
39
  3
Flat
350
2B
  3
FlatWithEdges
350
2C
  3
Gouraud
350
2D
  3
GouraudWithEdges
350
2E
  3
Hidden
350
31
  3
JitterOff
350
3B
  3
Linepattern
350
38
  3
OverhangOff
350
3C
  3
Realistic
350
33
  3
Shaded
350
42
  3
Shaded with edges
350
41
  3
Shades of Gray
350
3E
  3
Sketchy
350
3F
  3
Thicken
350
37
  3
Wireframe
350
30
  3
X-Ray
350
40
  0
XRECORD
  5
3AD
102
{ACAD_REACTORS
330
C
102
}
330
C
100
AcDbXrecord
280
     1
 90
        1
330
6A
  0
DICTIONARY
  5
379
102
{ACAD_REACTORS
330
C
102
}
330
C
100
AcDbDictionary
281
     1
  3
CANNOSCALE
350
37A
  3
CENTEREXE
350
3B2
  3
CENTERLTYPEFILE
350
3B3
  3
CMLEADERSTYLE
350
3AF
  3
CTABLESTYLE
350
3AE
  0
LAYOUT
  5
1E
102
{ACAD_REACTORS
330
1A
102
}
330
1A
100
AcDbPlotSettings
  1

  2
none_device
  4

  6

 40
0.0
 41
0.0
 42
0.0
 43
0.0
 44
0.0
 45
0.0
 46
0.0
 47
0.0
 48
0.0
 49
0.0
140
0.0
141
0.0
142
1.0
143
1.0
 70
   688
 72
     1
 73
     0
 74
     5
  7

 75
    16
 76
     0
 77
     5
 78
   300
147
1.0
148
0.0
149
0.0
100
AcDbLayout
  1
Layout1
 70
     1
 71
     1
 10
0.0
 20
0.0
 11
420.0
 21
297.0
 12
0.0
 22
0.0
 32
0.0
 14
1.000000000000000E+20
 24
1.000000000000000E+20
 34
1.000000000000000E+20
 15
-1.000000000000000E+20
 25
-1.000000000000000E+20
 35
-1.000000000000000E+20
146
0.0
 13
0.0
 23
0.0
 33
0.0
 16
1.0
 26
0.0
 36
0.0
 17
0.0
 27
1.0
 37
0.0
 76
     0
330
1B
  0
LAYOUT
  5
26
102
{ACAD_REACTORS
330
1A
102
}
330
1A
100
AcDbPlotSettings
  1

  2
none_device
  4

  6

 40
0.0
 41
0.0
 42
0.0
 43
0.0
 44
0.0
 45
0.0
 46
0.0
 47
0.0
 48
0.0
 49
0.0
140
0.0
141
0.0
142
1.0
143
1.0
 70
   688
 72
     1
 73
     0
 74
     5
  7

 75
    16
 76
     0
 77
     5
 78
   300
147
1.0
148
0.0
149
0.0
100
AcDbLayout
  1
Layout2
 70
     1
 71
     2
 10
0.0
 20
0.0
 11
0.0
 21
0.0
 12
0.0
 22
0.0
 32
0.0
 14
0.0
 24
0.0
 34
0.0
 15
0.0
 25
0.0
 35
0.0
146
0.0
 13
0.0
 23
0.0
 33
0.0
 16
1.0
 26
0.0
 36
0.0
 17
0.0
 27
1.0
 37
0.0
 76
     0
330
23
  0
LAYOUT
  5
22
102
{ACAD_REACTORS
330
1A
102
}
330
1A
100
AcDbPlotSettings
  1

  2
none_device
  4
Letter_(8.50_x_11.00_Inches)
  6

 40
6.35
 41
6.35
 42
6.35000508
 43
6.35000508
 44
215.9
 45
279.4
 46
0.0
 47
0.0
 48
0.0
 49
0.0
140
0.0
141
0.0
142
1.0
143
1.0
 70
  1712
 72
     1
 73
     0
 74
     0
  7

 75
     0
 76
     0
 77
     5
 78
   300
147
1.0
148
0.0
149
0.0
100
AcDbLayout
  1
Model
 70
     1
 71
     0
 10
-6300.0
 20
-4455.0
 11
6300.0
 21
4455.0
 12
0.0
 22
0.0
 32
0.0
 14
-6300.0
 24
-4455.0
 34
0.0
 15
6300.0
 25
4455.0
 35
0.0
146
0.0
 13
0.0
 23
0.0
 33
0.0
 16
1.0
 26
0.0
 36
0.0
 17
0.0
 27
1.0
 37
0.0
 76
     0
330
1F
331
29
  0
MATERIAL
  5
45
102
{ACAD_REACTORS
330
43
102
}
330
43
100
AcDbMaterial
  1
ByBlock
 72
     1
 94
      127
  0
MATERIAL
  5
44
102
{ACAD_REACTORS
330
43
102
}
330
43
100
AcDbMaterial
  1
ByLayer
 72
     1
 94
      127
  0
MATERIAL
  5
46
102
{ACAD_REACTORS
330
43
102
}
330
43
100
AcDbMaterial
  1
Global
 72
     1
 94
      127
  0
MLEADERSTYLE
  5
6C
102
{ACAD_REACTORS
330
6B
102
}
330
6B
100
AcDbMLeaderStyle
179
     2
170
     2
171
     1
172
     0
 90
        2
 40
0.0
 41
0.0
173
     1
 91
-1056964608
340
14
 92
       -2
290
     1
 42
2.0
291
     1
 43
8.0
  3
Standard
341
0
 44
4.0
300

342
11
174
     1
178
     6
175
     1
176
     0
 93
-1056964608
 45
4.0
292
     0
297
     0
 46
4.0
343
0
 94
-1056964608
 47
1.0
 49
1.0
140
1.0
293
     1
141
0.0
294
     1
177
     0
142
1.0
295
     0
296
     0
143
3.75
271
     0
272
     9
273
     9
  0
MLINESTYLE
  5
18
102
{ACAD_REACTORS
330
17
102
}
330
17
100
AcDbMlineStyle
  2
Standard
 70
     0
  3

 62
   256
 51
90.0
 52
90.0
 71
     2
 49
0.5
 62
   256
  6
BYLAYER
 49
-0.5
 62
   256
  6
BYLAYER
  0
ACDBPLACEHOLDER
  5
F
102
{ACAD_REACTORS
330
E
102
}
330
E
  0
SCALE
  5
48
102
{ACAD_REACTORS
330
47
102
}
330
47
100
AcDbScale
 70
     0
300
1:1
140
1.0
141
1.0
290
     1
  0
SCALE
  5
49
102
{ACAD_REACTORS
330
47
102
}
330
47
100
AcDbScale
 70
     0
300
1:2
140
1.0
141
2.0
290
     0
  0
SCALE
  5
4A
102
{ACAD_REACTORS
330
47
102
}
330
47
100
AcDbScale
 70
     0
300
1:4
140
1.0
141
4.0
290
     0
  0
SCALE
  5
4B
102
{ACAD_REACTORS
330
47
102
}
330
47
100
AcDbScale
 70
     0
300
1:5
140
1.0
141
5.0
290
     0
  0
SCALE
  5
4C
102
{ACAD_REACTORS
330
47
102
}
330
47
100
AcDbScale
 70
     0
300
1:8
140
1.0
141
8.0
290
     0
  0
SCALE
  5
4D
102
{ACAD_REACTORS
330
47
102
}
330
47
100
AcDbScale
 70
     0
300
1:10
140
1.0
141
10.0
290
     0
  0
SCALE
  5
4E
102
{ACAD_REACTORS
330
47
102
}
330
47
100
AcDbScale
 70
     0
300
1:16
140
1.0
141
16.0
290
     0
  0
SCALE
  5
4F
102
{ACAD_REACTORS
330
47
102
}
330
47
100
AcDbScale
 70
     0
300
1:20
140
1.0
141
20.0
290
     0
  0
SCALE
  5
50
102
{ACAD_REACTORS
330
47
102
}
330
47
100
AcDbScale
 70
     0
300
1:30
140
1.0
141
30.0
290
     0
  0
SCALE
  5
51
102
{ACAD_REACTORS
330
47
102
}
330
47
100
AcDbScale
 70
     0
300
1:40
140
1.0
141
40.0
290
     0
  0
SCALE
  5
52
102
{ACAD_REACTORS
330
47
102
}
330
47
100
AcDbScale
 70
     0
300
1:50
140
1.0
141
50.0
290
     0
  0
SCALE
  5
53
102
{ACAD_REACTORS
330
47
102
}
330
47
100
AcDbScale
 70
     0
300
1:100
140
1.0
141
100.0
290
     0
  0
SCALE
  5
54
102
{ACAD_REACTORS
330
47
102
}
330
47
100
AcDbScale
 70
     0
300
2:1
140
2.0
141
1.0
290
     0
  0
SCALE
  5
55
102
{ACAD_REACTORS
330
47
102
}
330
47
100
AcDbScale
 70
     0
300
4:1
140
4.0
141
1.0
290
     0
  0
SCALE
  5
56
102
{ACAD_REACTORS
330
47
102
}
330
47
100
AcDbScale
 70
     0
300
8:1
140
8.0
141
1.0
290
     0
  0
SCALE
  5
57
102
{ACAD_REACTORS
330
47
102
}
330
47
100
AcDbScale
 70
     0
300
10:1
140
10.0
141
1.0
290
     0
  0
SCALE
  5
58
102
{ACAD_REACTORS
330
47
102
}
330
47
100
AcDbScale
 70
     0
300
100:1
140
100.0
141
1.0
290
     0
  0
SCALE
  5
59
102
{ACAD_REACTORS
330
47
102
}
330
47
100
AcDbScale
 70
     0
300
1/128" = 1'-0"
140
0.0078125
141
12.0
290
     0
  0
SCALE
  5
5A
102
{ACAD_REACTORS
330
47
102
}
330
47
100
AcDbScale
 70
     0
300
1/64" = 1'-0"
140
0.015625
141
12.0
290
     0
  0
SCALE
  5
5B
102
{ACAD_REACTORS
330
47
102
}
330
47
100
AcDbScale
 70
     0
300
1/32" = 1'-0"
140
0.03125
141
12.0
290
     0
  0
SCALE
  5
5C
102
{ACAD_REACTORS
330
47
102
}
330
47
100
AcDbScale
 70
     0
300
1/16" = 1'-0"
140
0.0625
141
12.0
290
     0
  0
SCALE
  5
5D
102
{ACAD_REACTORS
330
47
102
}
330
47
100
AcDbScale
 70
     0
300
3/32" = 1'-0"
140
0.09375
141
12.0
290
     0
  0
SCALE
  5
5E
102
{ACAD_REACTORS
330
47
102
}
330
47
100
AcDbScale
 70
     0
300
1/8" = 1'-0"
140
0.125
141
12.0
290
     0
  0
SCALE
  5
5F
102
{ACAD_REACTORS
330
47
102
}
330
47
100
AcDbScale
 70
     0
300
3/16" = 1'-0"
140
0.1875
141
12.0
290
     0
  0
SCALE
  5
60
102
{ACAD_REACTORS
330
47
102
}
330
47
100
AcDbScale
 70
     0
300
1/4" = 1'-0"
140
0.25
141
12.0
290
     0
  0
SCALE
  5
61
102
{ACAD_REACTORS
330
47
102
}
330
47
100
AcDbScale
 70
     0
300
3/8" = 1'-0"
140
0.375
141
12.0
290
     0
  0
SCALE
  5
62
102
{ACAD_REACTORS
330
47
102
}
330
47
100
AcDbScale
 70
     0
300
1/2" = 1'-0"
140
0.5
141
12.0
290
     0
  0
SCALE
  5
63
102
{ACAD_REACTORS
330
47
102
}
330
47
100
AcDbScale
 70
     0
300
3/4" = 1'-0"
140
0.75
141
12.0
290
     0
  0
SCALE
  5
64
102
{ACAD_REACTORS
330
47
102
}
330
47
100
AcDbScale
 70
     0
300
1" = 1'-0"
140
1.0
141
12.0
290
     0
  0
SCALE
  5
65
102
{ACAD_REACTORS
330
47
102
}
330
47
100
AcDbScale
 70
     0
300
1-1/2" = 1'-0"
140
1.5
141
12.0
290
     0
  0
SCALE
  5
66
102
{ACAD_REACTORS
330
47
102
}
330
47
100
AcDbScale
 70
     0
300
3" = 1'-0"
140
3.0
141
12.0
290
     0
  0
SCALE
  5
67
102
{ACAD_REACTORS
330
47
102
}
330
47
100
AcDbScale
 70
     0
300
6" = 1'-0"
140
6.0
141
12.0
290
     0
  0
SCALE
  5
68
102
{ACAD_REACTORS
330
47
102
}
330
47
100
AcDbScale
 70
     0
300
1'-0" = 1'-0"
140
12.0
141
12.0
290
     0
  0
TABLESTYLE
  5
6A
102
{ACAD_REACTORS
330
69
102
}
102
{ACAD_XDICTIONARY
360
3AB
102
}
330
69
100
AcDbTableStyle
  3
Standard
 70
     0
 71
     0
 40
0.06
 41
0.06
280
     0
281
     0
  7
Standard
140
4.5
170
     2
 62
     0
 63
   257
283
     0
 90
        4
 91
        0
  1

274
    -2
284
     1
 64
     0
275
    -2
285
     1
 65
     0
276
    -2
286
     1
 66
     0
277
    -2
287
     1
 67
     0
278
    -2
288
     1
 68
     0
279
    -2
289
     1
 69
     0
  7
Standard
140
6.0
170
     5
 62
     0
 63
   257
283
     0
 90
        4
 91
        0
  1

274
    -2
284
     1
 64
     0
275
    -2
285
     1
 65
     0
276
    -2
286
     1
 66
     0
277
    -2
287
     1
 67
     0
278
    -2
288
     1
 68
     0
279
    -2
289
     1
 69
     0
  7
Standard
140
4.5
170
     5
 62
     0
 63
   257
283
     0
 90
        4
 91
        0
  1

274
    -2
284
     1
 64
     0
275
    -2
285
     1
 65
     0
276
    -2
286
     1
 66
     0
277
    -2
287
     1
 67
     0
278
    -2
288
     1
 68
     0
279
    -2
289
     1
 69
     0
  0
VISUALSTYLE
  5
2F
102
{ACAD_REACTORS
330
2A
102
}
102
{ACAD_XDICTIONARY
360
383
102
}
330
2A
100
AcDbVisualStyle
  2
2dWireframe
 70
     4
177
     2
291
     0
 71
     0
176
     1
 72
     2
176
     1
 73
     0
176
     1
 90
        0
176
     1
 40
0.6
176
     1
 41
30.0
176
     1
 62
     5
 63
     7
421
 16777215
176
     1
 74
     1
176
     1
 91
        4
176
     1
 64
     7
176
     1
 65
   257
176
     1
 75
     1
176
     1
175
     1
176
     1
 42
1.0
176
     1
 92
        0
176
     1
 66
   257
176
     1
 43
1.0
176
     1
 76
     1
176
     1
 77
     6
176
     1
 78
     2
176
     1
 67
     7
176
     1
 79
     5
176
     1
170
     0
176
     1
171
     0
176
     1
290
     0
176
     1
 93
        1
176
     1
 44
0.0
176
     1
173
     0
176
     1
  0
VISUALSTYLE
  5
32
102
{ACAD_REACTORS
330
2A
102
}
102
{ACAD_XDICTIONARY
360
389
102
}
330
2A
100
AcDbVisualStyle
  2
Basic
 70
     7
177
     2
291
     1
 71
     1
176
     1
 72
     0
176
     1
 73
     1
176
     1
 90
        0
176
     1
 40
0.6
176
     1
 41
30.0
176
     1
 62
     5
 63
     7
421
 16777215
176
     1
 74
     0
176
     1
 91
        4
176
     1
 64
     7
176
     1
 65
   257
176
     1
 75
     1
176
     1
175
     1
176
     1
 42
1.0
176
     1
 92
        8
176
     1
 66
     7
176
     1
 43
1.0
176
     1
 76
     1
176
     1
 77
     6
176
     1
 78
     2
176
     1
 67
     7
176
     1
 79
     5
176
     1
170
     0
176
     1
171
     0
176
     1
290
     0
176
     1
 93
        1
176
     1
 44
0.0
176
     1
173
     0
176
     1
  0
VISUALSTYLE
  5
36
102
{ACAD_REACTORS
330
2A
102
}
102
{ACAD_XDICTIONARY
360
391
102
}
330
2A
100
AcDbVisualStyle
  2
Brighten
 70
    12
177
     2
291
     1
 71
     2
176
     1
 72
     2
176
     1
 73
     0
176
     1
 90
        0
176
     1
 40
0.6
176
     1
 41
30.0
176
     1
 62
     5
 63
     7
421
 16777215
176
     1
 74
     1
176
     1
 91
        4
176
     1
 64
     7
176
     1
 65
   257
176
     1
 75
     1
176
     1
175
     1
176
     1
 42
1.0
176
     1
 92
        8
176
     1
 66
     7
176
     1
 43
1.0
176
     1
 76
     1
176
     1
 77
     6
176
     1
 78
     2
176
     1
 67
     7
176
     1
 79
     5
176
     1
170
     0
176
     1
171
     0
176
     1
290
     0
176
     1
 93
        1
176
     1
 44
50.0
176
     1
173
     0
176
     1
  0
VISUALSTYLE
  5
3A
102
{ACAD_REACTORS
330
2A
102
}
102
{ACAD_XDICTIONARY
360
399
102
}
330
2A
100
AcDbVisualStyle
  2
ColorChange
 70
    16
177
     2
291
     1
 71
     2
176
     1
 72
     2
176
     1
 73
     3
176
     1
 90
        0
176
     1
 40
0.6
176
     1
 41
30.0
176
     1
 62
     5
 63
     8
421
  8421504
176
     1
 74
     1
176
     1
 91
        4
176
     1
 64
     7
176
     1
 65
   257
176
     1
 75
     1
176
     1
175
     1
176
     1
 42
1.0
176
     1
 92
        8
176
     1
 66
     8
424
  8421504
176
     1
 43
1.0
176
     1
 76
     1
176
     1
 77
     6
176
     1
 78
     2
176
     1
 67
     7
176
     1
 79
     5
176
     1
170
     0
176
     1
171
     0
176
     1
290
     0
176
     1
 93
        1
176
     1
 44
0.0
176
     1
173
     0
176
     1
  0
VISUALSTYLE
  5
34
102
{ACAD_REACTORS
330
2A
102
}
102
{ACAD_XDICTIONARY
360
38D
102
}
330
2A
100
AcDbVisualStyle
  2
Conceptual
 70
     9
177
     2
291
     0
 71
     3
176
     1
 72
     2
176
     1
 73
     0
176
     1
 90
        0
176
     1
 40
0.6
176
     1
 41
30.0
176
     1
 62
     5
 63
     7
421
 16777215
176
     1
 74
     2
176
     1
 91
        2
176
     1
 64
     7
176
     1
 65
   257
176
     1
 75
     1
176
     1
175
     1
176
     1
 42
179.0
176
     1
 92
        8
176
     1
 66
     7
176
     1
 43
1.0
176
     1
 76
     1
176
     1
 77
     6
176
     1
 78
     2
176
     1
 67
     7
176
     1
 79
     3
176
     1
170
     0
176
     1
171
     0
176
     1
290
     0
176
     1
 93
        1
176
     1
 44
0.0
176
     1
173
     0
176
     1
  0
VISUALSTYLE
  5
35
102
{ACAD_REACTORS
330
2A
102
}
102
{ACAD_XDICTIONARY
360
38F
102
}
330
2A
100
AcDbVisualStyle
  2
Dim
 70
    11
177
     2
291
     1
 71
     2
176
     1
 72
     2
176
     1
 73
     0
176
     1
 90
        0
176
     1
 40
0.6
176
     1
 41
30.0
176
     1
 62
     5
 63
     7
421
 16777215
176
     1
 74
     1
176
     1
 91
        4
176
     1
 64
     7
176
     1
 65
   257
176
     1
 75
     1
176
     1
175
     1
176
     1
 42
1.0
176
     1
 92
        8
176
     1
 66
     7
176
     1
 43
1.0
176
     1
 76
     1
176
     1
 77
     6
176
     1
 78
     2
176
     1
 67
     7
176
     1
 79
     5
176
     1
170
     0
176
     1
171
     0
176
     1
290
     0
176
     1
 93
        1
176
     1
 44
-50.0
176
     1
173
     0
176
     1
  0
VISUALSTYLE
  5
3D
102
{ACAD_REACTORS
330
2A
102
}
102
{ACAD_XDICTIONARY
360
39F
102
}
330
2A
100
AcDbVisualStyle
  2
EdgeColorOff
 70
    22
177
     2
291
     1
 71
     2
176
     0
 72
     2
176
     0
 73
     0
176
     0
 90
        0
176
     0
 40
0.6
176
     0
 41
30.0
176
     0
 62
     5
 63
     7
421
 16777215
176
     0
 74
     1
176
     0
 91
        4
176
     0
 64
     7
176
     0
 65
   257
176
     0
 75
     1
176
     0
175
     1
176
     0
 42
1.0
176
     0
 92
        8
176
     2
 66
     7
176
     0
 43
1.0
176
     0
 76
     1
176
     0
 77
     6
176
     0
 78
     2
176
     0
 67
     7
176
     0
 79
     5
176
     0
170
     0
176
     0
171
     0
176
     0
290
     0
176
     0
 93
        1
176
     0
 44
0.0
176
     0
173
     0
176
     0
  0
VISUALSTYLE
  5
39
102
{ACAD_REACTORS
330
2A
102
}
102
{ACAD_XDICTIONARY
360
397
102
}
330
2A
100
AcDbVisualStyle
  2
Facepattern
 70
    15
177
     2
291
     1
 71
     2
176
     1
 72
     2
176
     1
 73
     0
176
     1
 90
        0
176
     1
 40
0.6
176
     1
 41
30.0
176
     1
 62
     5
 63
     7
421
 16777215
176
     1
 74
     1
176
     1
 91
        4
176
     1
 64
     7
176
     1
 65
   257
176
     1
 75
     1
176
     1
175
     1
176
     1
 42
1.0
176
     1
 92
        8
176
     1
 66
     7
176
     1
 43
1.0
176
     1
 76
     1
176
     1
 77
     6
176
     1
 78
     2
176
     1
 67
     7
176
     1
 79
     5
176
     1
170
     0
176
     1
171
     0
176
     1
290
     0
176
     1
 93
        1
176
     1
 44
0.0
176
     1
173
     0
176
     1
  0
VISUALSTYLE
  5
2B
102
{ACAD_REACTORS
330
2A
102
}
102
{ACAD_XDICTIONARY
360
37B
102
}
330
2A
100
AcDbVisualStyle
  2
Flat
 70
     0
177
     2
291
     1
 71
     2
176
     1
 72
     1
176
     1
 73
     1
176
     1
 90
        2
176
     1
 40
0.6
176
     1
 41
30.0
176
     1
 62
     5
 63
     7
421
 16777215
176
     1
 74
     0
176
     1
 91
        0
176
     1
 64
     7
176
     1
 65
   257
176
     1
 75
     1
176
     1
175
     1
176
     1
 42
1.0
176
     1
 92
        8
176
     1
 66
     7
176
     1
 43
1.0
176
     1
 76
     1
176
     1
 77
     6
176
     1
 78
     2
176
     1
 67
     7
176
     1
 79
     5
176
     1
170
     0
176
     1
171
     0
176
     1
290
     0
176
     1
 93
       13
176
     1
 44
0.0
176
     1
173
     0
176
     1
  0
VISUALSTYLE
  5
2C
102
{ACAD_REACTORS
330
2A
102
}
102
{ACAD_XDICTIONARY
360
37D
102
}
330
2A
100
AcDbVisualStyle
  2
FlatWithEdges
 70
     1
177
     2
291
     1
 71
     2
176
     1
 72
     1
176
     1
 73
     1
176
     1
 90
        2
176
     1
 40
0.6
176
     1
 41
30.0
176
     1
 62
     5
 63
     7
421
 16777215
176
     1
 74
     1
176
     1
 91
        0
176
     1
 64
     7
176
     1
 65
   257
176
     1
 75
     1
176
     1
175
     1
176
     1
 42
1.0
176
     1
 92
        0
176
     1
 66
   257
176
     1
 43
1.0
176
     1
 76
     1
176
     1
 77
     6
176
     1
 78
     2
176
     1
 67
     7
176
     1
 79
     5
176
     1
170
     0
176
     1
171
     0
176
     1
290
     0
176
     1
 93
       13
176
     1
 44
0.0
176
     1
173
     0
176
     1
  0
VISUALSTYLE
  5
2D
102
{ACAD_REACTORS
330
2A
102
}
102
{ACAD_XDICTIONARY
360
37F
102
}
330
2A
100
AcDbVisualStyle
  2
Gouraud
 70
     2
177
     2
291
     1
 71
     2
176
     1
 72
     2
176
     1
 73
     1
176
     1
 90
        2
176
     1
 40
0.6
176
     1
 41
30.0
176
     1
 62
     5
 63
     7
421
 16777215
176
     1
 74
     0
176
     1
 91
        0
176
     1
 64
     7
176
     1
 65
   257
176
     1
 75
     1
176
     1
175
     1
176
     1
 42
1.0
176
     1
 92
        0
176
     1
 66
     7
176
     1
 43
1.0
176
     1
 76
     1
176
     1
 77
     6
176
     1
 78
     2
176
     1
 67
     7
176
     1
 79
     5
176
     1
170
     0
176
     1
171
     0
176
     1
290
     0
176
     1
 93
       13
176
     1
 44
0.0
176
     1
173
     0
176
     1
  0
VISUALSTYLE
  5
2E
102
{ACAD_REACTORS
330
2A
102
}
102
{ACAD_XDICTIONARY
360
381
102
}
330
2A
100
AcDbVisualStyle
  2
GouraudWithEdges
 70
     3
177
     2
291
     1
 71
     2
176
     1
 72
     2
176
     1
 73
     1
176
     1
 90
        2
176
     1
 40
0.6
176
     1
 41
30.0
176
     1
 62
     5
 63
     7
421
 16777215
176
     1
 74
     1
176
     1
 91
        0
176
     1
 64
     7
176
     1
 65
   257
176
     1
 75
     1
176
     1
175
     1
176
     1
 42
1.0
176
     1
 92
        0
176
     1
 66
   257
176
     1
 43
1.0
176
     1
 76
     1
176
     1
 77
     6
176
     1
 78
     2
176
     1
 67
     7
176
     1
 79
     5
176
     1
170
     0
176
     1
171
     0
176
     1
290
     0
176
     1
 93
       13
176
     1
 44
0.0
176
     1
173
     0
176
     1
  0
VISUALSTYLE
  5
31
102
{ACAD_REACTORS
330
2A
102
}
102
{ACAD_XDICTIONARY
360
387
102
}
330
2A
100
AcDbVisualStyle
  2
Hidden
 70
     6
177
     2
291
     0
 71
     1
176
     1
 72
     2
176
     1
 73
     2
176
     1
 90
        0
176
     1
 40
0.6
176
     1
 41
30.0
176
     1
 62
     5
 63
     7
421
 16777215
176
     1
 74
     2
176
     1
 91
        2
176
     1
 64
     7
176
     1
 65
   257
176
     1
 75
     2
176
     1
175
     1
176
     1
 42
40.0
176
     1
 92
        0
176
     1
 66
   257
176
     1
 43
1.0
176
     1
 76
     1
176
     1
 77
     6
176
     1
 78
     2
176
     1
 67
     7
176
     1
 79
     3
176
     1
170
     0
176
     1
171
     0
176
     1
290
     0
176
     1
 93
        1
176
     1
 44
0.0
176
     1
173
     0
176
     1
  0
VISUALSTYLE
  5
3B
102
{ACAD_REACTORS
330
2A
102
}
102
{ACAD_XDICTIONARY
360
39B
102
}
330
2A
100
AcDbVisualStyle
  2
JitterOff
 70
    20
177
     2
291
     1
 71
     2
176
     0
 72
     2
176
     0
 73
     0
176
     0
 90
        0
176
     0
 40
0.6
176
     0
 41
30.0
176
     0
 62
     5
 63
     7
421
 16777215
176
     0
 74
     1
176
     0
 91
        4
176
     0
 64
     7
176
     0
 65
   257
176
     0
 75
     1
176
     0
175
     1
176
     0
 42
1.0
176
     0
 92
       10
176
     2
 66
     7
176
     0
 43
1.0
176
     0
 76
     1
176
     0
 77
     6
176
     0
 78
     2
176
     0
 67
     7
176
     0
 79
     5
176
     0
170
     0
176
     0
171
     0
176
     0
290
     0
176
     0
 93
        1
176
     0
 44
0.0
176
     0
173
     0
176
     0
  0
VISUALSTYLE
  5
38
102
{ACAD_REACTORS
330
2A
102
}
102
{ACAD_XDICTIONARY
360
395
102
}
330
2A
100
AcDbVisualStyle
  2
Linepattern
 70
    14
177
     2
291
     1
 71
     2
176
     1
 72
     2
176
     1
 73
     0
176
     1
 90
        0
176
     1
 40
0.6
176
     1
 41
30.0
176
     1
 62
     5
 63
     7
421
 16777215
176
     1
 74
     1
176
     1
 91
        4
176
     1
 64
     7
176
     1
 65
   257
176
     1
 75
     7
176
     1
175
     7
176
     1
 42
1.0
176
     1
 92
        8
176
     1
 66
     7
176
     1
 43
1.0
176
     1
 76
     1
176
     1
 77
     6
176
     1
 78
     2
176
     1
 67
     7
176
     1
 79
     5
176
     1
170
     0
176
     1
171
     0
176
     1
290
     0
176
     1
 93
        1
176
     1
 44
0.0
176
     1
173
     0
176
     1
  0
VISUALSTYLE
  5
3C
102
{ACAD_REACTORS
330
2A
102
}
102
{ACAD_XDICTIONARY
360
39D
102
}
330
2A
100
AcDbVisualStyle
  2
OverhangOff
 70
    21
177
     2
291
     1
 71
     2
176
     0
 72
     2
176
     0
 73
     0
176
     0
 90
        0
176
     0
 40
0.6
176
     0
 41
30.0
176
     0
 62
     5
 63
     7
421
 16777215
176
     0
 74
     1
176
     0
 91
        4
176
     0
 64
     7
176
     0
 65
   257
176
     0
 75
     1
176
     0
175
     1
176
     0
 42
1.0
176
     0
 92
        9
176
     2
 66
     7
176
     0
 43
1.0
176
     0
 76
     1
176
     0
 77
     6
176
     0
 78
     2
176
     0
 67
     7
176
     0
 79
     5
176
     0
170
     0
176
     0
171
     0
176
     0
290
     0
176
     0
 93
        1
176
     0
 44
0.0
176
     0
173
     0
176
     0
  0
VISUALSTYLE
  5
33
102
{ACAD_REACTORS
330
2A
102
}
102
{ACAD_XDICTIONARY
360
38B
102
}
330
2A
100
AcDbVisualStyle
  2
Realistic
 70
     8
177
     2
291
     0
 71
     2
176
     1
 72
     3
176
     1
 73
     0
176
     1
 90
        2
176
     1
 40
0.6
176
     1
 41
30.0
176
     1
 62
     5
 63
     7
421
 16777215
176
     1
 74
     0
176
     1
 91
        0
176
     1
 64
     7
176
     1
 65
   257
176
     1
 75
     1
176
     1
175
     1
176
     1
 42
1.0
176
     1
 92
        8
176
     1
 66
   257
176
     1
 43
1.0
176
     1
 76
     1
176
     1
 77
     6
176
     1
 78
     2
176
     1
 67
     7
176
     1
 79
     3
176
     1
170
     0
176
     1
171
     0
176
     1
290
     0
176
     1
 93
       13
176
     1
 44
0.0
176
     1
173
     0
176
     1
  0
VISUALSTYLE
  5
42
102
{ACAD_REACTORS
330
2A
102
}
102
{ACAD_XDICTIONARY
360
3A9
102
}
330
2A
100
AcDbVisualStyle
  2
Shaded
 70
    27
177
     2
291
     0
 71
     2
176
     1
 72
     2
176
     1
 73
     1
176
     1
 90
        2
176
     1
 40
0.6
176
     1
 41
30.0
176
     1
 62
     5
 63
     7
421
 16777215
176
     1
 74
     0
176
     1
 91
        4
176
     1
 64
     7
176
     1
 65
   257
176
     1
 75
     1
176
     1
175
     1
176
     1
 42
1.0
176
     1
 92
        8
176
     1
 66
   257
176
     1
 43
1.0
176
     1
 76
     1
176
     1
 77
     6
176
     1
 78
     2
176
     1
 67
     8
425
  7895160
176
     1
 79
     3
176
     1
170
     0
176
     1
171
     0
176
     1
290
     0
176
     1
 93
        5
176
     1
 44
0.0
176
     1
173
     0
176
     1
  0
VISUALSTYLE
  5
41
102
{ACAD_REACTORS
330
2A
102
}
102
{ACAD_XDICTIONARY
360
3A7
102
}
330
2A
100
AcDbVisualStyle
  2
Shaded with edges
 70
    26
177
     2
291
     0
 71
     2
176
     1
 72
     2
176
     1
 73
     1
176
     1
 90
        2
176
     1
 40
0.6
176
     1
 41
30.0
176
     1
 62
     5
 63
     7
421
 16777215
176
     1
 74
     1
176
     1
 91
       10
176
     1
 64
     7
176
     1
 65
   257
176
     1
 75
     2
176
     1
175
     1
176
     1
 42
1.0
176
     1
 92
        8
176
     1
 66
   257
176
     1
 43
1.0
176
     1
 76
     1
176
     1
 77
     6
176
     1
 78
     2
176
     1
 67
     7
176
     1
 79
     3
176
     1
170
     0
176
     1
171
     0
176
     1
290
     0
176
     1
 93
        5
176
     1
 44
0.0
176
     1
173
     0
176
     1
  0
VISUALSTYLE
  5
3E
102
{ACAD_REACTORS
330
2A
102
}
102
{ACAD_XDICTIONARY
360
3A1
102
}
330
2A
100
AcDbVisualStyle
  2
Shades of Gray
 70
    23
177
     2
291
     0
 71
     2
176
     1
 72
     2
176
     1
 73
     3
176
     1
 90
        0
176
     1
 40
0.6
176
     1
 41
30.0
176
     1
 62
     5
 63
     7
421
 16777215
176
     1
 74
     2
176
     1
 91
        2
176
     1
 64
     7
176
     1
 65
     7
176
     1
 75
     1
176
     1
175
     1
176
     1
 42
40.0
176
     1
 92
        8
176
     1
 66
     7
176
     1
 43
1.0
176
     1
 76
     1
176
     1
 77
     6
176
     1
 78
     2
176
     1
 67
     7
176
     1
 79
     3
176
     1
170
     0
176
     1
171
     0
176
     1
290
     0
176
     1
 93
        1
176
     1
 44
0.0
176
     1
173
     0
176
     1
  0
VISUALSTYLE
  5
3F
102
{ACAD_REACTORS
330
2A
102
}
102
{ACAD_XDICTIONARY
360
3A3
102
}
330
2A
100
AcDbVisualStyle
  2
Sketchy
 70
    24
177
     2
291
     0
 71
     1
176
     1
 72
     2
176
     1
 73
     2
176
     1
 90
        0
176
     1
 40
0.6
176
     1
 41
30.0
176
     1
 62
     5
 63
     7
421
 16777215
176
     1
 74
     2
176
     1
 91
        2
176
     1
 64
     7
176
     1
 65
     7
176
     1
 75
     1
176
     1
175
     1
176
     1
 42
40.0
176
     1
 92
       11
176
     1
 66
     7
176
     1
 43
1.0
176
     1
 76
     1
176
     1
 77
     6
176
     1
 78
     2
176
     1
 67
     7
176
     1
 79
     6
176
     1
170
     0
176
     1
171
     0
176
     1
290
     0
176
     1
 93
        1
176
     1
 44
0.0
176
     1
173
     0
176
     1
  0
VISUALSTYLE
  5
37
102
{ACAD_REACTORS
330
2A
102
}
102
{ACAD_XDICTIONARY
360
393
102
}
330
2A
100
AcDbVisualStyle
  2
Thicken
 70
    13
177
     2
291
     1
 71
     2
176
     1
 72
     2
176
     1
 73
     0
176
     1
 90
        0
176
     1
 40
0.6
176
     1
 41
30.0
176
     1
 62
     5
 63
     7
421
 16777215
176
     1
 74
     1
176
     1
 91
        4
176
     1
 64
     7
176
     1
 65
   257
176
     1
 75
     1
176
     1
175
     1
176
     1
 42
1.0
176
     1
 92
       12
176
     1
 66
     7
176
     1
 43
1.0
176
     1
 76
     1
176
     1
 77
     6
176
     1
 78
     2
176
     1
 67
     7
176
     1
 79
     5
176
     1
170
     0
176
     1
171
     0
176
     1
290
     0
176
     1
 93
        1
176
     1
 44
0.0
176
     1
173
     0
176
     1
  0
VISUALSTYLE
  5
30
102
{ACAD_REACTORS
330
2A
102
}
102
{ACAD_XDICTIONARY
360
385
102
}
330
2A
100
AcDbVisualStyle
  2
Wireframe
 70
     5
177
     2
291
     0
 71
     0
176
     1
 72
     2
176
     1
 73
     0
176
     1
 90
        0
176
     1
 40
0.6
176
     1
 41
30.0
176
     1
 62
     5
 63
     7
421
 16777215
176
     1
 74
     1
176
     1
 91
        4
176
     1
 64
     7
176
     1
 65
   257
176
     1
 75
     1
176
     1
175
     1
176
     1
 42
1.0
176
     1
 92
        0
176
     1
 66
   257
176
     1
 43
1.0
176
     1
 76
     1
176
     1
 77
     6
176
     1
 78
     2
176
     1
 67
     7
176
     1
 79
     3
176
     1
170
     0
176
     1
171
     0
176
     1
290
     0
176
     1
 93
        1
176
     1
 44
0.0
176
     1
173
     0
176
     1
  0
VISUALSTYLE
  5
40
102
{ACAD_REACTORS
330
2A
102
}
102
{ACAD_XDICTIONARY
360
3A5
102
}
330
2A
100
AcDbVisualStyle
  2
X-Ray
 70
    25
177
     2
291
     0
 71
     2
176
     1
 72
     2
176
     1
 73
     1
176
     1
 90
        1
176
     1
 40
0.5
176
     1
 41
30.0
176
     1
 62
     5
 63
     7
421
 16777215
176
     1
 74
     1
176
     1
 91
        0
176
     1
 64
     7
176
     1
 65
   257
176
     1
 75
     1
176
     1
175
     1
176
     1
 42
1.0
176
     1
 92
        8
176
     1
 66
     7
176
     1
 43
1.0
176
     1
 76
     1
176
     1
 77
     6
176
     1
 78
     2
176
     1
 67
     7
176
     1
 79
     3
176
     1
170
     0
176
     1
171
     0
176
     1
290
     0
176
     1
 93
       13
176
     1
 44
0.0
176
     1
173
     0
176
     1
  0
DICTIONARYVAR
  5
37A
102
{ACAD_REACTORS
330
379
102
}
330
379
100
DictionaryVariables
280
     0
  1
1:1
  0
DICTIONARYVAR
  5
3B2
102
{ACAD_REACTORS
330
379
102
}
330
379
100
DictionaryVariables
280
     0
  1
3.500000
  0
DICTIONARYVAR
  5
3B3
102
{ACAD_REACTORS
330
379
102
}
330
379
100
DictionaryVariables
280
     0
  1
acadiso.lin
  0
DICTIONARYVAR
  5
3AF
102
{ACAD_REACTORS
330
379
102
}
330
379
100
DictionaryVariables
280
     0
  1
Standard
  0
DICTIONARYVAR
  5
3AE
102
{ACAD_REACTORS
330
379
102
}
330
379
100
DictionaryVariables
280
     0
  1
Standard
  0
DICTIONARY
  5
3AB
330
6A
100
AcDbDictionary
280
     1
281
     1
  3
ACAD_ROUNDTRIP_2008_TABLESTYLE_CELLSTYLEMAP
360
3AC
  0
DICTIONARY
  5
383
330
2F
100
AcDbDictionary
280
     1
281
     1
  3
ACAD_XREC_ROUNDTRIP
360
384
  0
DICTIONARY
  5
389
330
32
100
AcDbDictionary
280
     1
281
     1
  3
ACAD_XREC_ROUNDTRIP
360
38A
  0
DICTIONARY
  5
391
330
36
100
AcDbDictionary
280
     1
281
     1
  3
ACAD_XREC_ROUNDTRIP
360
392
  0
DICTIONARY
  5
399
330
3A
100
AcDbDictionary
280
     1
281
     1
  3
ACAD_XREC_ROUNDTRIP
360
39A
  0
DICTIONARY
  5
38D
330
34
100
AcDbDictionary
280
     1
281
     1
  3
ACAD_XREC_ROUNDTRIP
360
38E
  0
DICTIONARY
  5
38F
330
35
100
AcDbDictionary
280
     1
281
     1
  3
ACAD_XREC_ROUNDTRIP
360
390
  0
DICTIONARY
  5
39F
330
3D
100
AcDbDictionary
280
     1
281
     1
  3
ACAD_XREC_ROUNDTRIP
360
3A0
  0
DICTIONARY
  5
397
330
39
100
AcDbDictionary
280
     1
281
     1
  3
ACAD_XREC_ROUNDTRIP
360
398
  0
DICTIONARY
  5
37B
330
2B
100
AcDbDictionary
280
     1
281
     1
  3
ACAD_XREC_ROUNDTRIP
360
37C
  0
DICTIONARY
  5
37D
330
2C
100
AcDbDictionary
280
     1
281
     1
  3
ACAD_XREC_ROUNDTRIP
360
37E
  0
DICTIONARY
  5
37F
330
2D
100
AcDbDictionary
280
     1
281
     1
  3
ACAD_XREC_ROUNDTRIP
360
380
  0
DICTIONARY
  5
381
330
2E
100
AcDbDictionary
280
     1
281
     1
  3
ACAD_XREC_ROUNDTRIP
360
382
  0
DICTIONARY
  5
387
330
31
100
AcDbDictionary
280
     1
281
     1
  3
ACAD_XREC_ROUNDTRIP
360
388
  0
DICTIONARY
  5
39B
330
3B
100
AcDbDictionary
280
     1
281
     1
  3
ACAD_XREC_ROUNDTRIP
360
39C
  0
DICTIONARY
  5
395
330
38
100
AcDbDictionary
280
     1
281
     1
  3
ACAD_XREC_ROUNDTRIP
360
396
  0
DICTIONARY
  5
39D
330
3C
100
AcDbDictionary
280
     1
281
     1
  3
ACAD_XREC_ROUNDTRIP
360
39E
  0
DICTIONARY
  5
38B
330
33
100
AcDbDictionary
280
     1
281
     1
  3
ACAD_XREC_ROUNDTRIP
360
38C
  0
DICTIONARY
  5
3A9
330
42
100
AcDbDictionary
280
     1
281
     1
  3
ACAD_XREC_ROUNDTRIP
360
3AA
  0
DICTIONARY
  5
3A7
330
41
100
AcDbDictionary
280
     1
281
     1
  3
ACAD_XREC_ROUNDTRIP
360
3A8
  0
DICTIONARY
  5
3A1
330
3E
100
AcDbDictionary
280
     1
281
     1
  3
ACAD_XREC_ROUNDTRIP
360
3A2
  0
DICTIONARY
  5
3A3
330
3F
100
AcDbDictionary
280
     1
281
     1
  3
ACAD_XREC_ROUNDTRIP
360
3A4
  0
DICTIONARY
  5
393
330
37
100
AcDbDictionary
280
     1
281
     1
  3
ACAD_XREC_ROUNDTRIP
360
394
  0
DICTIONARY
  5
385
330
30
100
AcDbDictionary
280
     1
281
     1
  3
ACAD_XREC_ROUNDTRIP
360
386
  0
DICTIONARY
  5
3A5
330
40
100
AcDbDictionary
280
     1
281
     1
  3
ACAD_XREC_ROUNDTRIP
360
3A6
  0
CELLSTYLEMAP
  5
3AC
102
{ACAD_REACTORS
330
3AB
102
}
330
3AB
100
AcDbCellStyleMap
 90
        3
300
CELLSTYLE
  1
TABLEFORMAT_BEGIN
 90
        5
170
     1
 91
        0
 92
    32768
 62
   257
 93
        1
300
CONTENTFORMAT
  1
CONTENTFORMAT_BEGIN
 90
        0
 91
        0
 92
        4
 93
        0
300

 40
0.0
140
1.0
 94
        5
 62
     0
340
11
144
6.0
309
CONTENTFORMAT_END
171
     1
301
MARGIN
  1
CELLMARGIN_BEGIN
 40
1.5
 40
1.5
 40
1.5
 40
1.5
 40
1.5
 40
1.5
309
CELLMARGIN_END
 94
        6
 95
        1
302
GRIDFORMAT
  1
GRIDFORMAT_BEGIN
 90
        0
 91
        1
 62
     0
 92
       -2
340
14
 93
        0
 40
0.045
309
GRIDFORMAT_END
 95
        2
302
GRIDFORMAT
  1
GRIDFORMAT_BEGIN
 90
        0
 91
        1
 62
     0
 92
       -2
340
14
 93
        0
 40
0.045
309
GRIDFORMAT_END
 95
        4
302
GRIDFORMAT
  1
GRIDFORMAT_BEGIN
 90
        0
 91
        1
 62
     0
 92
       -2
340
14
 93
        0
 40
0.045
309
GRIDFORMAT_END
 95
        8
302
GRIDFORMAT
  1
GRIDFORMAT_BEGIN
 90
        0
 91
        1
 62
     0
 92
       -2
340
14
 93
        0
 40
0.045
309
GRIDFORMAT_END
 95
       16
302
GRIDFORMAT
  1
GRIDFORMAT_BEGIN
 90
        0
 91
        1
 62
     0
 92
       -2
340
14
 93
        0
 40
0.045
309
GRIDFORMAT_END
 95
       32
302
GRIDFORMAT
  1
GRIDFORMAT_BEGIN
 90
        0
 91
        1
 62
     0
 92
       -2
340
14
 93
        0
 40
0.045
309
GRIDFORMAT_END
309
TABLEFORMAT_END
  1
CELLSTYLE_BEGIN
 90
        1
 91
        1
300
_TITLE
309
CELLSTYLE_END
300
CELLSTYLE
  1
TABLEFORMAT_BEGIN
 90
        5
170
     1
 91
        0
 92
        0
 62
   257
 93
        1
300
CONTENTFORMAT
  1
CONTENTFORMAT_BEGIN
 90
        0
 91
        0
 92
        4
 93
        0
300

 40
0.0
140
1.0
 94
        5
 62
     0
340
11
144
4.5
309
CONTENTFORMAT_END
171
     1
301
MARGIN
  1
CELLMARGIN_BEGIN
 40
1.5
 40
1.5
 40
1.5
 40
1.5
 40
1.5
 40
1.5
309
CELLMARGIN_END
 94
        6
 95
        1
302
GRIDFORMAT
  1
GRIDFORMAT_BEGIN
 90
        0
 91
        1
 62
     0
 92
       -2
340
14
 93
        0
 40
0.045
309
GRIDFORMAT_END
 95
        2
302
GRIDFORMAT
  1
GRIDFORMAT_BEGIN
 90
        0
 91
        1
 62
     0
 92
       -2
340
14
 93
        0
 40
0.045
309
GRIDFORMAT_END
 95
        4
302
GRIDFORMAT
  1
GRIDFORMAT_BEGIN
 90
        0
 91
        1
 62
     0
 92
       -2
340
14
 93
        0
 40
0.045
309
GRIDFORMAT_END
 95
        8
302
GRIDFORMAT
  1
GRIDFORMAT_BEGIN
 90
        0
 91
        1
 62
     0
 92
       -2
340
14
 93
        0
 40
0.045
309
GRIDFORMAT_END
 95
       16
302
GRIDFORMAT
  1
GRIDFORMAT_BEGIN
 90
        0
 91
        1
 62
     0
 92
       -2
340
14
 93
        0
 40
0.045
309
GRIDFORMAT_END
 95
       32
302
GRIDFORMAT
  1
GRIDFORMAT_BEGIN
 90
        0
 91
        1
 62
     0
 92
       -2
340
14
 93
        0
 40
0.045
309
GRIDFORMAT_END
309
TABLEFORMAT_END
  1
CELLSTYLE_BEGIN
 90
        2
 91
        1
300
_HEADER
309
CELLSTYLE_END
300
CELLSTYLE
  1
TABLEFORMAT_BEGIN
 90
        5
170
     1
 91
        0
 92
        0
 62
   257
 93
        1
300
CONTENTFORMAT
  1
CONTENTFORMAT_BEGIN
 90
        0
 91
        0
 92
        4
 93
        0
300

 40
0.0
140
1.0
 94
        2
 62
     0
340
11
144
4.5
309
CONTENTFORMAT_END
171
     1
301
MARGIN
  1
CELLMARGIN_BEGIN
 40
1.5
 40
1.5
 40
1.5
 40
1.5
 40
1.5
 40
1.5
309
CELLMARGIN_END
 94
        6
 95
        1
302
GRIDFORMAT
  1
GRIDFORMAT_BEGIN
 90
        0
 91
        1
 62
     0
 92
       -2
340
14
 93
        0
 40
0.045
309
GRIDFORMAT_END
 95
        2
302
GRIDFORMAT
  1
GRIDFORMAT_BEGIN
 90
        0
 91
        1
 62
     0
 92
       -2
340
14
 93
        0
 40
0.045
309
GRIDFORMAT_END
 95
        4
302
GRIDFORMAT
  1
GRIDFORMAT_BEGIN
 90
        0
 91
        1
 62
     0
 92
       -2
340
14
 93
        0
 40
0.045
309
GRIDFORMAT_END
 95
        8
302
GRIDFORMAT
  1
GRIDFORMAT_BEGIN
 90
        0
 91
        1
 62
     0
 92
       -2
340
14
 93
        0
 40
0.045
309
GRIDFORMAT_END
 95
       16
302
GRIDFORMAT
  1
GRIDFORMAT_BEGIN
 90
        0
 91
        1
 62
     0
 92
       -2
340
14
 93
        0
 40
0.045
309
GRIDFORMAT_END
 95
       32
302
GRIDFORMAT
  1
GRIDFORMAT_BEGIN
 90
        0
 91
        1
 62
     0
 92
       -2
340
14
 93
        0
 40
0.045
309
GRIDFORMAT_END
309
TABLEFORMAT_END
  1
CELLSTYLE_BEGIN
 90
        3
 91
        2
300
_DATA
309
CELLSTYLE_END
  0
XRECORD
  5
384
102
{ACAD_REACTORS
330
383
102
}
330
383
100
AcDbXrecord
280
     1
102
RTVSPost2010Prop28
280
     1
102
RTVSPost2010PropOp28
 70
     1
102
RTVSPost2010Prop29
280
     1
102
RTVSPost2010PropOp29
 70
     1
102
RTVSPost2010Prop30
280
     0
102
RTVSPost2010PropOp30
 70
     1
102
RTVSPost2010Prop31
280
     0
102
RTVSPost2010PropOp31
 70
     1
102
RTVSPost2010Prop32
280
     0
102
RTVSPost2010PropOp32
 70
     1
102
RTVSPost2010Prop33
280
     0
102
RTVSPost2010PropOp33
 70
     1
102
RTVSPost2010Prop34
280
     0
102
RTVSPost2010PropOp34
 70
     1
102
RTVSPost2010Prop35
280
     0
102
RTVSPost2010PropOp35
 70
     1
102
RTVSPost2010Prop36
280
     0
102
RTVSPost2010PropOp36
 70
     1
102
RTVSPost2010Prop37
 90
       50
102
RTVSPost2010PropOp37
 70
     1
102
RTVSPost2010Prop38
140
0.0
102
RTVSPost2010PropOp38
 70
     1
102
RTVSPost2010Prop39
140
1.0
102
RTVSPost2010PropOp39
 70
     1
102
RTVSPost2010Prop40
 90
        0
102
RTVSPost2010PropOp40
 70
     1
102
RTVSPost2010Prop41ColorIndex
 90
       18
102
RTVSPost2010Prop41ColorRGB
 90
        0
102
RTVSPost2010PropOp41
 70
     1
102
RTVSPost2010Prop42
 90
       50
102
RTVSPost2010PropOp42
 70
     1
102
RTVSPost2010Prop43
 90
        3
102
RTVSPost2010PropOp43
 70
     1
102
RTVSPost2010Prop44ColorIndex
 90
        5
102
RTVSPost2010Prop44ColorRGB
 90
      255
102
RTVSPost2010PropOp44
 70
     1
102
RTVSPost2010Prop45
280
     0
102
RTVSPost2010PropOp45
 70
     1
102
RTVSPost2010Prop46
 90
       50
102
RTVSPost2010PropOp46
 70
     1
102
RTVSPost2010Prop47
 90
       50
102
RTVSPost2010PropOp47
 70
     1
102
RTVSPost2010Prop48
 90
       50
102
RTVSPost2010PropOp48
 70
     1
102
RTVSPost2010Prop49
280
     0
102
RTVSPost2010PropOp49
 70
     1
102
RTVSPost2010Prop50
 90
       50
102
RTVSPost2010PropOp50
 70
     1
102
RTVSPost2010Prop51ColorIndex
 90
      256
102
RTVSPost2010Prop51ColorRGB
 90
-16777216
102
RTVSPost2010PropOp51
 70
     0
102
RTVSPost2010Prop52
140
1.0
102
RTVSPost2010PropOp52
 70
     0
102
RTVSPost2010Prop53
 90
        2
102
RTVSPost2010PropOp53
 70
     1
102
RTVSPost2010Prop54
  1
strokes_ogs.tif
102
RTVSPost2010PropOp54
 70
     1
102
RTVSPost2010Prop55
280
     0
102
RTVSPost2010PropOp55
 70
     1
102
RTVSPost2010Prop56
140
1.0
102
RTVSPost2010PropOp56
 70
     1
102
RTVSPost2010Prop57
140
1.0
102
RTVSPost2010PropOp57
 70
     1
  0
XRECORD
  5
38A
102
{ACAD_REACTORS
330
389
102
}
330
389
100
AcDbXrecord
280
     1
102
RTVSPost2010Prop28
280
     0
102
RTVSPost2010PropOp28
 70
     1
102
RTVSPost2010Prop29
280
     1
102
RTVSPost2010PropOp29
 70
     1
102
RTVSPost2010Prop30
280
     1
102
RTVSPost2010PropOp30
 70
     1
102
RTVSPost2010Prop31
280
     0
102
RTVSPost2010PropOp31
 70
     1
102
RTVSPost2010Prop32
280
     0
102
RTVSPost2010PropOp32
 70
     1
102
RTVSPost2010Prop33
280
     0
102
RTVSPost2010PropOp33
 70
     1
102
RTVSPost2010Prop34
280
     0
102
RTVSPost2010PropOp34
 70
     1
102
RTVSPost2010Prop35
280
     0
102
RTVSPost2010PropOp35
 70
     1
102
RTVSPost2010Prop36
280
     0
102
RTVSPost2010PropOp36
 70
     1
102
RTVSPost2010Prop37
 90
       50
102
RTVSPost2010PropOp37
 70
     1
102
RTVSPost2010Prop38
140
0.0
102
RTVSPost2010PropOp38
 70
     1
102
RTVSPost2010Prop39
140
1.0
102
RTVSPost2010PropOp39
 70
     1
102
RTVSPost2010Prop40
 90
        0
102
RTVSPost2010PropOp40
 70
     1
102
RTVSPost2010Prop41ColorIndex
 90
       18
102
RTVSPost2010Prop41ColorRGB
 90
        0
102
RTVSPost2010PropOp41
 70
     1
102
RTVSPost2010Prop42
 90
       50
102
RTVSPost2010PropOp42
 70
     1
102
RTVSPost2010Prop43
 90
        3
102
RTVSPost2010PropOp43
 70
     1
102
RTVSPost2010Prop44ColorIndex
 90
        5
102
RTVSPost2010Prop44ColorRGB
 90
      255
102
RTVSPost2010PropOp44
 70
     1
102
RTVSPost2010Prop45
280
     0
102
RTVSPost2010PropOp45
 70
     1
102
RTVSPost2010Prop46
 90
       50
102
RTVSPost2010PropOp46
 70
     1
102
RTVSPost2010Prop47
 90
       50
102
RTVSPost2010PropOp47
 70
     1
102
RTVSPost2010Prop48
 90
       50
102
RTVSPost2010PropOp48
 70
     1
102
RTVSPost2010Prop49
280
     0
102
RTVSPost2010PropOp49
 70
     1
102
RTVSPost2010Prop50
 90
       50
102
RTVSPost2010PropOp50
 70
     1
102
RTVSPost2010Prop51ColorIndex
 90
      256
102
RTVSPost2010Prop51ColorRGB
 90
-16777216
102
RTVSPost2010PropOp51
 70
     0
102
RTVSPost2010Prop52
140
1.0
102
RTVSPost2010PropOp52
 70
     0
102
RTVSPost2010Prop53
 90
        2
102
RTVSPost2010PropOp53
 70
     1
102
RTVSPost2010Prop54
  1
strokes_ogs.tif
102
RTVSPost2010PropOp54
 70
     1
102
RTVSPost2010Prop55
280
     0
102
RTVSPost2010PropOp55
 70
     1
102
RTVSPost2010Prop56
140
1.0
102
RTVSPost2010PropOp56
 70
     1
102
RTVSPost2010Prop57
140
1.0
102
RTVSPost2010PropOp57
 70
     1
  0
XRECORD
  5
392
102
{ACAD_REACTORS
330
391
102
}
330
391
100
AcDbXrecord
280
     1
102
RTVSPost2010Prop28
280
     0
102
RTVSPost2010PropOp28
 70
     1
102
RTVSPost2010Prop29
280
     1
102
RTVSPost2010PropOp29
 70
     1
102
RTVSPost2010Prop30
280
     1
102
RTVSPost2010PropOp30
 70
     1
102
RTVSPost2010Prop31
280
     0
102
RTVSPost2010PropOp31
 70
     1
102
RTVSPost2010Prop32
280
     0
102
RTVSPost2010PropOp32
 70
     1
102
RTVSPost2010Prop33
280
     0
102
RTVSPost2010PropOp33
 70
     1
102
RTVSPost2010Prop34
280
     0
102
RTVSPost2010PropOp34
 70
     1
102
RTVSPost2010Prop35
280
     0
102
RTVSPost2010PropOp35
 70
     1
102
RTVSPost2010Prop36
280
     0
102
RTVSPost2010PropOp36
 70
     1
102
RTVSPost2010Prop37
 90
       50
102
RTVSPost2010PropOp37
 70
     1
102
RTVSPost2010Prop38
140
0.0
102
RTVSPost2010PropOp38
 70
     1
102
RTVSPost2010Prop39
140
1.0
102
RTVSPost2010PropOp39
 70
     1
102
RTVSPost2010Prop40
 90
        0
102
RTVSPost2010PropOp40
 70
     1
102
RTVSPost2010Prop41ColorIndex
 90
       18
102
RTVSPost2010Prop41ColorRGB
 90
        0
102
RTVSPost2010PropOp41
 70
     1
102
RTVSPost2010Prop42
 90
       50
102
RTVSPost2010PropOp42
 70
     1
102
RTVSPost2010Prop43
 90
        3
102
RTVSPost2010PropOp43
 70
     1
102
RTVSPost2010Prop44ColorIndex
 90
        5
102
RTVSPost2010Prop44ColorRGB
 90
      255
102
RTVSPost2010PropOp44
 70
     1
102
RTVSPost2010Prop45
280
     0
102
RTVSPost2010PropOp45
 70
     1
102
RTVSPost2010Prop46
 90
       50
102
RTVSPost2010PropOp46
 70
     1
102
RTVSPost2010Prop47
 90
       50
102
RTVSPost2010PropOp47
 70
     1
102
RTVSPost2010Prop48
 90
       50
102
RTVSPost2010PropOp48
 70
     1
102
RTVSPost2010Prop49
280
     0
102
RTVSPost2010PropOp49
 70
     1
102
RTVSPost2010Prop50
 90
       50
102
RTVSPost2010PropOp50
 70
     1
102
RTVSPost2010Prop51ColorIndex
 90
      256
102
RTVSPost2010Prop51ColorRGB
 90
-16777216
102
RTVSPost2010PropOp51
 70
     0
102
RTVSPost2010Prop52
140
1.0
102
RTVSPost2010PropOp52
 70
     0
102
RTVSPost2010Prop53
 90
        2
102
RTVSPost2010PropOp53
 70
     1
102
RTVSPost2010Prop54
  1
strokes_ogs.tif
102
RTVSPost2010PropOp54
 70
     1
102
RTVSPost2010Prop55
280
     0
102
RTVSPost2010PropOp55
 70
     1
102
RTVSPost2010Prop56
140
1.0
102
RTVSPost2010PropOp56
 70
     1
102
RTVSPost2010Prop57
140
1.0
102
RTVSPost2010PropOp57
 70
     1
  0
XRECORD
  5
39A
102
{ACAD_REACTORS
330
399
102
}
330
399
100
AcDbXrecord
280
     1
102
RTVSPost2010Prop28
280
     0
102
RTVSPost2010PropOp28
 70
     1
102
RTVSPost2010Prop29
280
     1
102
RTVSPost2010PropOp29
 70
     1
102
RTVSPost2010Prop30
280
     1
102
RTVSPost2010PropOp30
 70
     1
102
RTVSPost2010Prop31
280
     0
102
RTVSPost2010PropOp31
 70
     1
102
RTVSPost2010Prop32
280
     0
102
RTVSPost2010PropOp32
 70
     1
102
RTVSPost2010Prop33
280
     0
102
RTVSPost2010PropOp33
 70
     1
102
RTVSPost2010Prop34
280
     0
102
RTVSPost2010PropOp34
 70
     1
102
RTVSPost2010Prop35
280
     0
102
RTVSPost2010PropOp35
 70
     1
102
RTVSPost2010Prop36
280
     0
102
RTVSPost2010PropOp36
 70
     1
102
RTVSPost2010Prop37
 90
       50
102
RTVSPost2010PropOp37
 70
     1
102
RTVSPost2010Prop38
140
0.0
102
RTVSPost2010PropOp38
 70
     1
102
RTVSPost2010Prop39
140
1.0
102
RTVSPost2010PropOp39
 70
     1
102
RTVSPost2010Prop40
 90
        0
102
RTVSPost2010PropOp40
 70
     1
102
RTVSPost2010Prop41ColorIndex
 90
       18
102
RTVSPost2010Prop41ColorRGB
 90
        0
102
RTVSPost2010PropOp41
 70
     1
102
RTVSPost2010Prop42
 90
       50
102
RTVSPost2010PropOp42
 70
     1
102
RTVSPost2010Prop43
 90
        3
102
RTVSPost2010PropOp43
 70
     1
102
RTVSPost2010Prop44ColorIndex
 90
        5
102
RTVSPost2010Prop44ColorRGB
 90
      255
102
RTVSPost2010PropOp44
 70
     1
102
RTVSPost2010Prop45
280
     0
102
RTVSPost2010PropOp45
 70
     1
102
RTVSPost2010Prop46
 90
       50
102
RTVSPost2010PropOp46
 70
     1
102
RTVSPost2010Prop47
 90
       50
102
RTVSPost2010PropOp47
 70
     1
102
RTVSPost2010Prop48
 90
       50
102
RTVSPost2010PropOp48
 70
     1
102
RTVSPost2010Prop49
280
     0
102
RTVSPost2010PropOp49
 70
     1
102
RTVSPost2010Prop50
 90
       50
102
RTVSPost2010PropOp50
 70
     1
102
RTVSPost2010Prop51ColorIndex
 90
      256
102
RTVSPost2010Prop51ColorRGB
 90
-16777216
102
RTVSPost2010PropOp51
 70
     0
102
RTVSPost2010Prop52
140
1.0
102
RTVSPost2010PropOp52
 70
     0
102
RTVSPost2010Prop53
 90
        2
102
RTVSPost2010PropOp53
 70
     1
102
RTVSPost2010Prop54
  1
strokes_ogs.tif
102
RTVSPost2010PropOp54
 70
     1
102
RTVSPost2010Prop55
280
     0
102
RTVSPost2010PropOp55
 70
     1
102
RTVSPost2010Prop56
140
1.0
102
RTVSPost2010PropOp56
 70
     1
102
RTVSPost2010Prop57
140
1.0
102
RTVSPost2010PropOp57
 70
     1
  0
XRECORD
  5
38E
102
{ACAD_REACTORS
330
38D
102
}
330
38D
100
AcDbXrecord
280
     1
102
RTVSPost2010Prop28
280
     0
102
RTVSPost2010PropOp28
 70
     1
102
RTVSPost2010Prop29
280
     1
102
RTVSPost2010PropOp29
 70
     1
102
RTVSPost2010Prop30
280
     1
102
RTVSPost2010PropOp30
 70
     1
102
RTVSPost2010Prop31
280
     0
102
RTVSPost2010PropOp31
 70
     1
102
RTVSPost2010Prop32
280
     0
102
RTVSPost2010PropOp32
 70
     1
102
RTVSPost2010Prop33
280
     0
102
RTVSPost2010PropOp33
 70
     1
102
RTVSPost2010Prop34
280
     0
102
RTVSPost2010PropOp34
 70
     1
102
RTVSPost2010Prop35
280
     0
102
RTVSPost2010PropOp35
 70
     1
102
RTVSPost2010Prop36
280
     0
102
RTVSPost2010PropOp36
 70
     1
102
RTVSPost2010Prop37
 90
       50
102
RTVSPost2010PropOp37
 70
     1
102
RTVSPost2010Prop38
140
0.0
102
RTVSPost2010PropOp38
 70
     1
102
RTVSPost2010Prop39
140
1.0
102
RTVSPost2010PropOp39
 70
     1
102
RTVSPost2010Prop40
 90
        0
102
RTVSPost2010PropOp40
 70
     1
102
RTVSPost2010Prop41ColorIndex
 90
       18
102
RTVSPost2010Prop41ColorRGB
 90
        0
102
RTVSPost2010PropOp41
 70
     1
102
RTVSPost2010Prop42
 90
       50
102
RTVSPost2010PropOp42
 70
     1
102
RTVSPost2010Prop43
 90
        3
102
RTVSPost2010PropOp43
 70
     1
102
RTVSPost2010Prop44ColorIndex
 90
        5
102
RTVSPost2010Prop44ColorRGB
 90
      255
102
RTVSPost2010PropOp44
 70
     1
102
RTVSPost2010Prop45
280
     0
102
RTVSPost2010PropOp45
 70
     1
102
RTVSPost2010Prop46
 90
       50
102
RTVSPost2010PropOp46
 70
     1
102
RTVSPost2010Prop47
 90
       50
102
RTVSPost2010PropOp47
 70
     1
102
RTVSPost2010Prop48
 90
       50
102
RTVSPost2010PropOp48
 70
     1
102
RTVSPost2010Prop49
280
     0
102
RTVSPost2010PropOp49
 70
     1
102
RTVSPost2010Prop50
 90
       50
102
RTVSPost2010PropOp50
 70
     1
102
RTVSPost2010Prop51ColorIndex
 90
      256
102
RTVSPost2010Prop51ColorRGB
 90
-16777216
102
RTVSPost2010PropOp51
 70
     0
102
RTVSPost2010Prop52
140
1.0
102
RTVSPost2010PropOp52
 70
     0
102
RTVSPost2010Prop53
 90
        2
102
RTVSPost2010PropOp53
 70
     1
102
RTVSPost2010Prop54
  1
strokes_ogs.tif
102
RTVSPost2010PropOp54
 70
     1
102
RTVSPost2010Prop55
280
     0
102
RTVSPost2010PropOp55
 70
     1
102
RTVSPost2010Prop56
140
1.0
102
RTVSPost2010PropOp56
 70
     1
102
RTVSPost2010Prop57
140
1.0
102
RTVSPost2010PropOp57
 70
     1
  0
XRECORD
  5
390
102
{ACAD_REACTORS
330
38F
102
}
330
38F
100
AcDbXrecord
280
     1
102
RTVSPost2010Prop28
280
     0
102
RTVSPost2010PropOp28
 70
     1
102
RTVSPost2010Prop29
280
     1
102
RTVSPost2010PropOp29
 70
     1
102
RTVSPost2010Prop30
280
     1
102
RTVSPost2010PropOp30
 70
     1
102
RTVSPost2010Prop31
280
     0
102
RTVSPost2010PropOp31
 70
     1
102
RTVSPost2010Prop32
280
     0
102
RTVSPost2010PropOp32
 70
     1
102
RTVSPost2010Prop33
280
     0
102
RTVSPost2010PropOp33
 70
     1
102
RTVSPost2010Prop34
280
     0
102
RTVSPost2010PropOp34
 70
     1
102
RTVSPost2010Prop35
280
     0
102
RTVSPost2010PropOp35
 70
     1
102
RTVSPost2010Prop36
280
     0
102
RTVSPost2010PropOp36
 70
     1
102
RTVSPost2010Prop37
 90
       50
102
RTVSPost2010PropOp37
 70
     1
102
RTVSPost2010Prop38
140
0.0
102
RTVSPost2010PropOp38
 70
     1
102
RTVSPost2010Prop39
140
1.0
102
RTVSPost2010PropOp39
 70
     1
102
RTVSPost2010Prop40
 90
        0
102
RTVSPost2010PropOp40
 70
     1
102
RTVSPost2010Prop41ColorIndex
 90
       18
102
RTVSPost2010Prop41ColorRGB
 90
        0
102
RTVSPost2010PropOp41
 70
     1
102
RTVSPost2010Prop42
 90
       50
102
RTVSPost2010PropOp42
 70
     1
102
RTVSPost2010Prop43
 90
        3
102
RTVSPost2010PropOp43
 70
     1
102
RTVSPost2010Prop44ColorIndex
 90
        5
102
RTVSPost2010Prop44ColorRGB
 90
      255
102
RTVSPost2010PropOp44
 70
     1
102
RTVSPost2010Prop45
280
     0
102
RTVSPost2010PropOp45
 70
     1
102
RTVSPost2010Prop46
 90
       50
102
RTVSPost2010PropOp46
 70
     1
102
RTVSPost2010Prop47
 90
       50
102
RTVSPost2010PropOp47
 70
     1
102
RTVSPost2010Prop48
 90
       50
102
RTVSPost2010PropOp48
 70
     1
102
RTVSPost2010Prop49
280
     0
102
RTVSPost2010PropOp49
 70
     1
102
RTVSPost2010Prop50
 90
       50
102
RTVSPost2010PropOp50
 70
     1
102
RTVSPost2010Prop51ColorIndex
 90
      256
102
RTVSPost2010Prop51ColorRGB
 90
-16777216
102
RTVSPost2010PropOp51
 70
     0
102
RTVSPost2010Prop52
140
1.0
102
RTVSPost2010PropOp52
 70
     0
102
RTVSPost2010Prop53
 90
        2
102
RTVSPost2010PropOp53
 70
     1
102
RTVSPost2010Prop54
  1
strokes_ogs.tif
102
RTVSPost2010PropOp54
 70
     1
102
RTVSPost2010Prop55
280
     0
102
RTVSPost2010PropOp55
 70
     1
102
RTVSPost2010Prop56
140
1.0
102
RTVSPost2010PropOp56
 70
     1
102
RTVSPost2010Prop57
140
1.0
102
RTVSPost2010PropOp57
 70
     1
  0
XRECORD
  5
3A0
102
{ACAD_REACTORS
330
39F
102
}
330
39F
100
AcDbXrecord
280
     1
102
RTVSPost2010Prop28
280
     0
102
RTVSPost2010PropOp28
 70
     0
102
RTVSPost2010Prop29
280
     1
102
RTVSPost2010PropOp29
 70
     0
102
RTVSPost2010Prop30
280
     1
102
RTVSPost2010PropOp30
 70
     0
102
RTVSPost2010Prop31
280
     0
102
RTVSPost2010PropOp31
 70
     0
102
RTVSPost2010Prop32
280
     0
102
RTVSPost2010PropOp32
 70
     0
102
RTVSPost2010Prop33
280
     0
102
RTVSPost2010PropOp33
 70
     0
102
RTVSPost2010Prop34
280
     0
102
RTVSPost2010PropOp34
 70
     0
102
RTVSPost2010Prop35
280
     0
102
RTVSPost2010PropOp35
 70
     0
102
RTVSPost2010Prop36
280
     0
102
RTVSPost2010PropOp36
 70
     0
102
RTVSPost2010Prop37
 90
       50
102
RTVSPost2010PropOp37
 70
     0
102
RTVSPost2010Prop38
140
0.0
102
RTVSPost2010PropOp38
 70
     0
102
RTVSPost2010Prop39
140
1.0
102
RTVSPost2010PropOp39
 70
     0
102
RTVSPost2010Prop40
 90
        0
102
RTVSPost2010PropOp40
 70
     0
102
RTVSPost2010Prop41ColorIndex
 90
       18
102
RTVSPost2010Prop41ColorRGB
 90
        0
102
RTVSPost2010PropOp41
 70
     0
102
RTVSPost2010Prop42
 90
       50
102
RTVSPost2010PropOp42
 70
     0
102
RTVSPost2010Prop43
 90
        3
102
RTVSPost2010PropOp43
 70
     0
102
RTVSPost2010Prop44ColorIndex
 90
        5
102
RTVSPost2010Prop44ColorRGB
 90
      255
102
RTVSPost2010PropOp44
 70
     0
102
RTVSPost2010Prop45
280
     0
102
RTVSPost2010PropOp45
 70
     0
102
RTVSPost2010Prop46
 90
       50
102
RTVSPost2010PropOp46
 70
     0
102
RTVSPost2010Prop47
 90
       50
102
RTVSPost2010PropOp47
 70
     0
102
RTVSPost2010Prop48
 90
       50
102
RTVSPost2010PropOp48
 70
     0
102
RTVSPost2010Prop49
280
     0
102
RTVSPost2010PropOp49
 70
     0
102
RTVSPost2010Prop50
 90
       50
102
RTVSPost2010PropOp50
 70
     0
102
RTVSPost2010Prop51ColorIndex
 90
      256
102
RTVSPost2010Prop51ColorRGB
 90
-16777216
102
RTVSPost2010PropOp51
 70
     0
102
RTVSPost2010Prop52
140
1.0
102
RTVSPost2010PropOp52
 70
     0
102
RTVSPost2010Prop53
 90
        2
102
RTVSPost2010PropOp53
 70
     0
102
RTVSPost2010Prop54
  1
strokes_ogs.tif
102
RTVSPost2010PropOp54
 70
     0
102
RTVSPost2010Prop55
280
     0
102
RTVSPost2010PropOp55
 70
     0
102
RTVSPost2010Prop56
140
1.0
102
RTVSPost2010PropOp56
 70
     0
102
RTVSPost2010Prop57
140
1.0
102
RTVSPost2010PropOp57
 70
     0
  0
XRECORD
  5
398
102
{ACAD_REACTORS
330
397
102
}
330
397
100
AcDbXrecord
280
     1
102
RTVSPost2010Prop28
280
     0
102
RTVSPost2010PropOp28
 70
     1
102
RTVSPost2010Prop29
280
     1
102
RTVSPost2010PropOp29
 70
     1
102
RTVSPost2010Prop30
280
     1
102
RTVSPost2010PropOp30
 70
     1
102
RTVSPost2010Prop31
280
     0
102
RTVSPost2010PropOp31
 70
     1
102
RTVSPost2010Prop32
280
     0
102
RTVSPost2010PropOp32
 70
     1
102
RTVSPost2010Prop33
280
     0
102
RTVSPost2010PropOp33
 70
     1
102
RTVSPost2010Prop34
280
     0
102
RTVSPost2010PropOp34
 70
     1
102
RTVSPost2010Prop35
280
     0
102
RTVSPost2010PropOp35
 70
     1
102
RTVSPost2010Prop36
280
     0
102
RTVSPost2010PropOp36
 70
     1
102
RTVSPost2010Prop37
 90
       50
102
RTVSPost2010PropOp37
 70
     1
102
RTVSPost2010Prop38
140
0.0
102
RTVSPost2010PropOp38
 70
     1
102
RTVSPost2010Prop39
140
1.0
102
RTVSPost2010PropOp39
 70
     1
102
RTVSPost2010Prop40
 90
        0
102
RTVSPost2010PropOp40
 70
     1
102
RTVSPost2010Prop41ColorIndex
 90
       18
102
RTVSPost2010Prop41ColorRGB
 90
        0
102
RTVSPost2010PropOp41
 70
     1
102
RTVSPost2010Prop42
 90
       50
102
RTVSPost2010PropOp42
 70
     1
102
RTVSPost2010Prop43
 90
        3
102
RTVSPost2010PropOp43
 70
     1
102
RTVSPost2010Prop44ColorIndex
 90
        5
102
RTVSPost2010Prop44ColorRGB
 90
      255
102
RTVSPost2010PropOp44
 70
     1
102
RTVSPost2010Prop45
280
     0
102
RTVSPost2010PropOp45
 70
     1
102
RTVSPost2010Prop46
 90
       50
102
RTVSPost2010PropOp46
 70
     1
102
RTVSPost2010Prop47
 90
       50
102
RTVSPost2010PropOp47
 70
     1
102
RTVSPost2010Prop48
 90
       50
102
RTVSPost2010PropOp48
 70
     1
102
RTVSPost2010Prop49
280
     0
102
RTVSPost2010PropOp49
 70
     1
102
RTVSPost2010Prop50
 90
       50
102
RTVSPost2010PropOp50
 70
     1
102
RTVSPost2010Prop51ColorIndex
 90
      256
102
RTVSPost2010Prop51ColorRGB
 90
-16777216
102
RTVSPost2010PropOp51
 70
     0
102
RTVSPost2010Prop52
140
1.0
102
RTVSPost2010PropOp52
 70
     0
102
RTVSPost2010Prop53
 90
        2
102
RTVSPost2010PropOp53
 70
     1
102
RTVSPost2010Prop54
  1
strokes_ogs.tif
102
RTVSPost2010PropOp54
 70
     1
102
RTVSPost2010Prop55
280
     0
102
RTVSPost2010PropOp55
 70
     1
102
RTVSPost2010Prop56
140
1.0
102
RTVSPost2010PropOp56
 70
     1
102
RTVSPost2010Prop57
140
1.0
102
RTVSPost2010PropOp57
 70
     1
  0
XRECORD
  5
37C
102
{ACAD_REACTORS
330
37B
102
}
330
37B
100
AcDbXrecord
280
     1
102
RTVSPost2010Prop28
280
     0
102
RTVSPost2010PropOp28
 70
     1
102
RTVSPost2010Prop29
280
     1
102
RTVSPost2010PropOp29
 70
     1
102
RTVSPost2010Prop30
280
     1
102
RTVSPost2010PropOp30
 70
     1
102
RTVSPost2010Prop31
280
     0
102
RTVSPost2010PropOp31
 70
     1
102
RTVSPost2010Prop32
280
     0
102
RTVSPost2010PropOp32
 70
     1
102
RTVSPost2010Prop33
280
     0
102
RTVSPost2010PropOp33
 70
     1
102
RTVSPost2010Prop34
280
     0
102
RTVSPost2010PropOp34
 70
     1
102
RTVSPost2010Prop35
280
     0
102
RTVSPost2010PropOp35
 70
     1
102
RTVSPost2010Prop36
280
     0
102
RTVSPost2010PropOp36
 70
     1
102
RTVSPost2010Prop37
 90
       50
102
RTVSPost2010PropOp37
 70
     1
102
RTVSPost2010Prop38
140
0.0
102
RTVSPost2010PropOp38
 70
     1
102
RTVSPost2010Prop39
140
1.0
102
RTVSPost2010PropOp39
 70
     1
102
RTVSPost2010Prop40
 90
        0
102
RTVSPost2010PropOp40
 70
     1
102
RTVSPost2010Prop41ColorIndex
 90
       18
102
RTVSPost2010Prop41ColorRGB
 90
        0
102
RTVSPost2010PropOp41
 70
     1
102
RTVSPost2010Prop42
 90
       50
102
RTVSPost2010PropOp42
 70
     1
102
RTVSPost2010Prop43
 90
        3
102
RTVSPost2010PropOp43
 70
     1
102
RTVSPost2010Prop44ColorIndex
 90
        5
102
RTVSPost2010Prop44ColorRGB
 90
      255
102
RTVSPost2010PropOp44
 70
     1
102
RTVSPost2010Prop45
280
     0
102
RTVSPost2010PropOp45
 70
     1
102
RTVSPost2010Prop46
 90
       50
102
RTVSPost2010PropOp46
 70
     1
102
RTVSPost2010Prop47
 90
       50
102
RTVSPost2010PropOp47
 70
     1
102
RTVSPost2010Prop48
 90
       50
102
RTVSPost2010PropOp48
 70
     1
102
RTVSPost2010Prop49
280
     0
102
RTVSPost2010PropOp49
 70
     1
102
RTVSPost2010Prop50
 90
       50
102
RTVSPost2010PropOp50
 70
     1
102
RTVSPost2010Prop51ColorIndex
 90
      256
102
RTVSPost2010Prop51ColorRGB
 90
-16777216
102
RTVSPost2010PropOp51
 70
     0
102
RTVSPost2010Prop52
140
1.0
102
RTVSPost2010PropOp52
 70
     0
102
RTVSPost2010Prop53
 90
        2
102
RTVSPost2010PropOp53
 70
     1
102
RTVSPost2010Prop54
  1
strokes_ogs.tif
102
RTVSPost2010PropOp54
 70
     1
102
RTVSPost2010Prop55
280
     0
102
RTVSPost2010PropOp55
 70
     1
102
RTVSPost2010Prop56
140
1.0
102
RTVSPost2010PropOp56
 70
     1
102
RTVSPost2010Prop57
140
1.0
102
RTVSPost2010PropOp57
 70
     1
  0
XRECORD
  5
37E
102
{ACAD_REACTORS
330
37D
102
}
330
37D
100
AcDbXrecord
280
     1
102
RTVSPost2010Prop28
280
     0
102
RTVSPost2010PropOp28
 70
     1
102
RTVSPost2010Prop29
280
     1
102
RTVSPost2010PropOp29
 70
     1
102
RTVSPost2010Prop30
280
     1
102
RTVSPost2010PropOp30
 70
     1
102
RTVSPost2010Prop31
280
     0
102
RTVSPost2010PropOp31
 70
     1
102
RTVSPost2010Prop32
280
     0
102
RTVSPost2010PropOp32
 70
     1
102
RTVSPost2010Prop33
280
     0
102
RTVSPost2010PropOp33
 70
     1
102
RTVSPost2010Prop34
280
     0
102
RTVSPost2010PropOp34
 70
     1
102
RTVSPost2010Prop35
280
     0
102
RTVSPost2010PropOp35
 70
     1
102
RTVSPost2010Prop36
280
     0
102
RTVSPost2010PropOp36
 70
     1
102
RTVSPost2010Prop37
 90
       50
102
RTVSPost2010PropOp37
 70
     1
102
RTVSPost2010Prop38
140
0.0
102
RTVSPost2010PropOp38
 70
     1
102
RTVSPost2010Prop39
140
1.0
102
RTVSPost2010PropOp39
 70
     1
102
RTVSPost2010Prop40
 90
        0
102
RTVSPost2010PropOp40
 70
     1
102
RTVSPost2010Prop41ColorIndex
 90
       18
102
RTVSPost2010Prop41ColorRGB
 90
        0
102
RTVSPost2010PropOp41
 70
     1
102
RTVSPost2010Prop42
 90
       50
102
RTVSPost2010PropOp42
 70
     1
102
RTVSPost2010Prop43
 90
        3
102
RTVSPost2010PropOp43
 70
     1
102
RTVSPost2010Prop44ColorIndex
 90
        5
102
RTVSPost2010Prop44ColorRGB
 90
      255
102
RTVSPost2010PropOp44
 70
     1
102
RTVSPost2010Prop45
280
     0
102
RTVSPost2010PropOp45
 70
     1
102
RTVSPost2010Prop46
 90
       50
102
RTVSPost2010PropOp46
 70
     1
102
RTVSPost2010Prop47
 90
       50
102
RTVSPost2010PropOp47
 70
     1
102
RTVSPost2010Prop48
 90
       50
102
RTVSPost2010PropOp48
 70
     1
102
RTVSPost2010Prop49
280
     0
102
RTVSPost2010PropOp49
 70
     1
102
RTVSPost2010Prop50
 90
       50
102
RTVSPost2010PropOp50
 70
     1
102
RTVSPost2010Prop51ColorIndex
 90
      256
102
RTVSPost2010Prop51ColorRGB
 90
-16777216
102
RTVSPost2010PropOp51
 70
     0
102
RTVSPost2010Prop52
140
1.0
102
RTVSPost2010PropOp52
 70
     0
102
RTVSPost2010Prop53
 90
        2
102
RTVSPost2010PropOp53
 70
     1
102
RTVSPost2010Prop54
  1
strokes_ogs.tif
102
RTVSPost2010PropOp54
 70
     1
102
RTVSPost2010Prop55
280
     0
102
RTVSPost2010PropOp55
 70
     1
102
RTVSPost2010Prop56
140
1.0
102
RTVSPost2010PropOp56
 70
     1
102
RTVSPost2010Prop57
140
1.0
102
RTVSPost2010PropOp57
 70
     1
  0
XRECORD
  5
380
102
{ACAD_REACTORS
330
37F
102
}
330
37F
100
AcDbXrecord
280
     1
102
RTVSPost2010Prop28
280
     0
102
RTVSPost2010PropOp28
 70
     1
102
RTVSPost2010Prop29
280
     1
102
RTVSPost2010PropOp29
 70
     1
102
RTVSPost2010Prop30
280
     1
102
RTVSPost2010PropOp30
 70
     1
102
RTVSPost2010Prop31
280
     0
102
RTVSPost2010PropOp31
 70
     1
102
RTVSPost2010Prop32
280
     0
102
RTVSPost2010PropOp32
 70
     1
102
RTVSPost2010Prop33
280
     0
102
RTVSPost2010PropOp33
 70
     1
102
RTVSPost2010Prop34
280
     0
102
RTVSPost2010PropOp34
 70
     1
102
RTVSPost2010Prop35
280
     0
102
RTVSPost2010PropOp35
 70
     1
102
RTVSPost2010Prop36
280
     0
102
RTVSPost2010PropOp36
 70
     1
102
RTVSPost2010Prop37
 90
       50
102
RTVSPost2010PropOp37
 70
     1
102
RTVSPost2010Prop38
140
0.0
102
RTVSPost2010PropOp38
 70
     1
102
RTVSPost2010Prop39
140
1.0
102
RTVSPost2010PropOp39
 70
     1
102
RTVSPost2010Prop40
 90
        0
102
RTVSPost2010PropOp40
 70
     1
102
RTVSPost2010Prop41ColorIndex
 90
       18
102
RTVSPost2010Prop41ColorRGB
 90
        0
102
RTVSPost2010PropOp41
 70
     1
102
RTVSPost2010Prop42
 90
       50
102
RTVSPost2010PropOp42
 70
     1
102
RTVSPost2010Prop43
 90
        3
102
RTVSPost2010PropOp43
 70
     1
102
RTVSPost2010Prop44ColorIndex
 90
        5
102
RTVSPost2010Prop44ColorRGB
 90
      255
102
RTVSPost2010PropOp44
 70
     1
102
RTVSPost2010Prop45
280
     0
102
RTVSPost2010PropOp45
 70
     1
102
RTVSPost2010Prop46
 90
       50
102
RTVSPost2010PropOp46
 70
     1
102
RTVSPost2010Prop47
 90
       50
102
RTVSPost2010PropOp47
 70
     1
102
RTVSPost2010Prop48
 90
       50
102
RTVSPost2010PropOp48
 70
     1
102
RTVSPost2010Prop49
280
     0
102
RTVSPost2010PropOp49
 70
     1
102
RTVSPost2010Prop50
 90
       50
102
RTVSPost2010PropOp50
 70
     1
102
RTVSPost2010Prop51ColorIndex
 90
      256
102
RTVSPost2010Prop51ColorRGB
 90
-16777216
102
RTVSPost2010PropOp51
 70
     0
102
RTVSPost2010Prop52
140
1.0
102
RTVSPost2010PropOp52
 70
     0
102
RTVSPost2010Prop53
 90
        2
102
RTVSPost2010PropOp53
 70
     1
102
RTVSPost2010Prop54
  1
strokes_ogs.tif
102
RTVSPost2010PropOp54
 70
     1
102
RTVSPost2010Prop55
280
     0
102
RTVSPost2010PropOp55
 70
     1
102
RTVSPost2010Prop56
140
1.0
102
RTVSPost2010PropOp56
 70
     1
102
RTVSPost2010Prop57
140
1.0
102
RTVSPost2010PropOp57
 70
     1
  0
XRECORD
  5
382
102
{ACAD_REACTORS
330
381
102
}
330
381
100
AcDbXrecord
280
     1
102
RTVSPost2010Prop28
280
     0
102
RTVSPost2010PropOp28
 70
     1
102
RTVSPost2010Prop29
280
     1
102
RTVSPost2010PropOp29
 70
     1
102
RTVSPost2010Prop30
280
     1
102
RTVSPost2010PropOp30
 70
     1
102
RTVSPost2010Prop31
280
     0
102
RTVSPost2010PropOp31
 70
     1
102
RTVSPost2010Prop32
280
     0
102
RTVSPost2010PropOp32
 70
     1
102
RTVSPost2010Prop33
280
     0
102
RTVSPost2010PropOp33
 70
     1
102
RTVSPost2010Prop34
280
     0
102
RTVSPost2010PropOp34
 70
     1
102
RTVSPost2010Prop35
280
     0
102
RTVSPost2010PropOp35
 70
     1
102
RTVSPost2010Prop36
280
     0
102
RTVSPost2010PropOp36
 70
     1
102
RTVSPost2010Prop37
 90
       50
102
RTVSPost2010PropOp37
 70
     1
102
RTVSPost2010Prop38
140
0.0
102
RTVSPost2010PropOp38
 70
     1
102
RTVSPost2010Prop39
140
1.0
102
RTVSPost2010PropOp39
 70
     1
102
RTVSPost2010Prop40
 90
        0
102
RTVSPost2010PropOp40
 70
     1
102
RTVSPost2010Prop41ColorIndex
 90
       18
102
RTVSPost2010Prop41ColorRGB
 90
        0
102
RTVSPost2010PropOp41
 70
     1
102
RTVSPost2010Prop42
 90
       50
102
RTVSPost2010PropOp42
 70
     1
102
RTVSPost2010Prop43
 90
        3
102
RTVSPost2010PropOp43
 70
     1
102
RTVSPost2010Prop44ColorIndex
 90
        5
102
RTVSPost2010Prop44ColorRGB
 90
      255
102
RTVSPost2010PropOp44
 70
     1
102
RTVSPost2010Prop45
280
     0
102
RTVSPost2010PropOp45
 70
     1
102
RTVSPost2010Prop46
 90
       50
102
RTVSPost2010PropOp46
 70
     1
102
RTVSPost2010Prop47
 90
       50
102
RTVSPost2010PropOp47
 70
     1
102
RTVSPost2010Prop48
 90
       50
102
RTVSPost2010PropOp48
 70
     1
102
RTVSPost2010Prop49
280
     0
102
RTVSPost2010PropOp49
 70
     1
102
RTVSPost2010Prop50
 90
       50
102
RTVSPost2010PropOp50
 70
     1
102
RTVSPost2010Prop51ColorIndex
 90
      256
102
RTVSPost2010Prop51ColorRGB
 90
-16777216
102
RTVSPost2010PropOp51
 70
     0
102
RTVSPost2010Prop52
140
1.0
102
RTVSPost2010PropOp52
 70
     0
102
RTVSPost2010Prop53
 90
        2
102
RTVSPost2010PropOp53
 70
     1
102
RTVSPost2010Prop54
  1
strokes_ogs.tif
102
RTVSPost2010PropOp54
 70
     1
102
RTVSPost2010Prop55
280
     0
102
RTVSPost2010PropOp55
 70
     1
102
RTVSPost2010Prop56
140
1.0
102
RTVSPost2010PropOp56
 70
     1
102
RTVSPost2010Prop57
140
1.0
102
RTVSPost2010PropOp57
 70
     1
  0
XRECORD
  5
388
102
{ACAD_REACTORS
330
387
102
}
330
387
100
AcDbXrecord
280
     1
102
RTVSPost2010Prop28
280
     0
102
RTVSPost2010PropOp28
 70
     1
102
RTVSPost2010Prop29
280
     1
102
RTVSPost2010PropOp29
 70
     1
102
RTVSPost2010Prop30
280
     1
102
RTVSPost2010PropOp30
 70
     1
102
RTVSPost2010Prop31
280
     0
102
RTVSPost2010PropOp31
 70
     1
102
RTVSPost2010Prop32
280
     0
102
RTVSPost2010PropOp32
 70
     1
102
RTVSPost2010Prop33
280
     0
102
RTVSPost2010PropOp33
 70
     1
102
RTVSPost2010Prop34
280
     0
102
RTVSPost2010PropOp34
 70
     1
102
RTVSPost2010Prop35
280
     0
102
RTVSPost2010PropOp35
 70
     1
102
RTVSPost2010Prop36
280
     0
102
RTVSPost2010PropOp36
 70
     1
102
RTVSPost2010Prop37
 90
       50
102
RTVSPost2010PropOp37
 70
     1
102
RTVSPost2010Prop38
140
0.0
102
RTVSPost2010PropOp38
 70
     1
102
RTVSPost2010Prop39
140
1.0
102
RTVSPost2010PropOp39
 70
     1
102
RTVSPost2010Prop40
 90
        0
102
RTVSPost2010PropOp40
 70
     1
102
RTVSPost2010Prop41ColorIndex
 90
       18
102
RTVSPost2010Prop41ColorRGB
 90
        0
102
RTVSPost2010PropOp41
 70
     1
102
RTVSPost2010Prop42
 90
       50
102
RTVSPost2010PropOp42
 70
     1
102
RTVSPost2010Prop43
 90
        3
102
RTVSPost2010PropOp43
 70
     1
102
RTVSPost2010Prop44ColorIndex
 90
        5
102
RTVSPost2010Prop44ColorRGB
 90
      255
102
RTVSPost2010PropOp44
 70
     1
102
RTVSPost2010Prop45
280
     0
102
RTVSPost2010PropOp45
 70
     1
102
RTVSPost2010Prop46
 90
       50
102
RTVSPost2010PropOp46
 70
     1
102
RTVSPost2010Prop47
 90
       50
102
RTVSPost2010PropOp47
 70
     1
102
RTVSPost2010Prop48
 90
       50
102
RTVSPost2010PropOp48
 70
     1
102
RTVSPost2010Prop49
280
     0
102
RTVSPost2010PropOp49
 70
     1
102
RTVSPost2010Prop50
 90
       50
102
RTVSPost2010PropOp50
 70
     1
102
RTVSPost2010Prop51ColorIndex
 90
      256
102
RTVSPost2010Prop51ColorRGB
 90
-16777216
102
RTVSPost2010PropOp51
 70
     0
102
RTVSPost2010Prop52
140
1.0
102
RTVSPost2010PropOp52
 70
     0
102
RTVSPost2010Prop53
 90
        2
102
RTVSPost2010PropOp53
 70
     1
102
RTVSPost2010Prop54
  1
strokes_ogs.tif
102
RTVSPost2010PropOp54
 70
     1
102
RTVSPost2010Prop55
280
     0
102
RTVSPost2010PropOp55
 70
     1
102
RTVSPost2010Prop56
140
1.0
102
RTVSPost2010PropOp56
 70
     1
102
RTVSPost2010Prop57
140
1.0
102
RTVSPost2010PropOp57
 70
     1
  0
XRECORD
  5
39C
102
{ACAD_REACTORS
330
39B
102
}
330
39B
100
AcDbXrecord
280
     1
102
RTVSPost2010Prop28
280
     0
102
RTVSPost2010PropOp28
 70
     0
102
RTVSPost2010Prop29
280
     1
102
RTVSPost2010PropOp29
 70
     0
102
RTVSPost2010Prop30
280
     1
102
RTVSPost2010PropOp30
 70
     0
102
RTVSPost2010Prop31
280
     0
102
RTVSPost2010PropOp31
 70
     0
102
RTVSPost2010Prop32
280
     0
102
RTVSPost2010PropOp32
 70
     0
102
RTVSPost2010Prop33
280
     0
102
RTVSPost2010PropOp33
 70
     0
102
RTVSPost2010Prop34
280
     0
102
RTVSPost2010PropOp34
 70
     0
102
RTVSPost2010Prop35
280
     0
102
RTVSPost2010PropOp35
 70
     0
102
RTVSPost2010Prop36
280
     0
102
RTVSPost2010PropOp36
 70
     0
102
RTVSPost2010Prop37
 90
       50
102
RTVSPost2010PropOp37
 70
     0
102
RTVSPost2010Prop38
140
0.0
102
RTVSPost2010PropOp38
 70
     0
102
RTVSPost2010Prop39
140
1.0
102
RTVSPost2010PropOp39
 70
     0
102
RTVSPost2010Prop40
 90
        0
102
RTVSPost2010PropOp40
 70
     0
102
RTVSPost2010Prop41ColorIndex
 90
       18
102
RTVSPost2010Prop41ColorRGB
 90
        0
102
RTVSPost2010PropOp41
 70
     0
102
RTVSPost2010Prop42
 90
       50
102
RTVSPost2010PropOp42
 70
     0
102
RTVSPost2010Prop43
 90
        3
102
RTVSPost2010PropOp43
 70
     0
102
RTVSPost2010Prop44ColorIndex
 90
        5
102
RTVSPost2010Prop44ColorRGB
 90
      255
102
RTVSPost2010PropOp44
 70
     0
102
RTVSPost2010Prop45
280
     0
102
RTVSPost2010PropOp45
 70
     0
102
RTVSPost2010Prop46
 90
       50
102
RTVSPost2010PropOp46
 70
     0
102
RTVSPost2010Prop47
 90
       50
102
RTVSPost2010PropOp47
 70
     0
102
RTVSPost2010Prop48
 90
       50
102
RTVSPost2010PropOp48
 70
     0
102
RTVSPost2010Prop49
280
     0
102
RTVSPost2010PropOp49
 70
     0
102
RTVSPost2010Prop50
 90
       50
102
RTVSPost2010PropOp50
 70
     0
102
RTVSPost2010Prop51ColorIndex
 90
      256
102
RTVSPost2010Prop51ColorRGB
 90
-16777216
102
RTVSPost2010PropOp51
 70
     0
102
RTVSPost2010Prop52
140
1.0
102
RTVSPost2010PropOp52
 70
     0
102
RTVSPost2010Prop53
 90
        2
102
RTVSPost2010PropOp53
 70
     0
102
RTVSPost2010Prop54
  1
strokes_ogs.tif
102
RTVSPost2010PropOp54
 70
     0
102
RTVSPost2010Prop55
280
     0
102
RTVSPost2010PropOp55
 70
     0
102
RTVSPost2010Prop56
140
1.0
102
RTVSPost2010PropOp56
 70
     0
102
RTVSPost2010Prop57
140
1.0
102
RTVSPost2010PropOp57
 70
     0
  0
XRECORD
  5
396
102
{ACAD_REACTORS
330
395
102
}
330
395
100
AcDbXrecord
280
     1
102
RTVSPost2010Prop28
280
     0
102
RTVSPost2010PropOp28
 70
     1
102
RTVSPost2010Prop29
280
     1
102
RTVSPost2010PropOp29
 70
     1
102
RTVSPost2010Prop30
280
     1
102
RTVSPost2010PropOp30
 70
     1
102
RTVSPost2010Prop31
280
     0
102
RTVSPost2010PropOp31
 70
     1
102
RTVSPost2010Prop32
280
     0
102
RTVSPost2010PropOp32
 70
     1
102
RTVSPost2010Prop33
280
     0
102
RTVSPost2010PropOp33
 70
     1
102
RTVSPost2010Prop34
280
     0
102
RTVSPost2010PropOp34
 70
     1
102
RTVSPost2010Prop35
280
     0
102
RTVSPost2010PropOp35
 70
     1
102
RTVSPost2010Prop36
280
     0
102
RTVSPost2010PropOp36
 70
     1
102
RTVSPost2010Prop37
 90
       50
102
RTVSPost2010PropOp37
 70
     1
102
RTVSPost2010Prop38
140
0.0
102
RTVSPost2010PropOp38
 70
     1
102
RTVSPost2010Prop39
140
1.0
102
RTVSPost2010PropOp39
 70
     1
102
RTVSPost2010Prop40
 90
        0
102
RTVSPost2010PropOp40
 70
     1
102
RTVSPost2010Prop41ColorIndex
 90
       18
102
RTVSPost2010Prop41ColorRGB
 90
        0
102
RTVSPost2010PropOp41
 70
     1
102
RTVSPost2010Prop42
 90
       50
102
RTVSPost2010PropOp42
 70
     1
102
RTVSPost2010Prop43
 90
        3
102
RTVSPost2010PropOp43
 70
     1
102
RTVSPost2010Prop44ColorIndex
 90
        5
102
RTVSPost2010Prop44ColorRGB
 90
      255
102
RTVSPost2010PropOp44
 70
     1
102
RTVSPost2010Prop45
280
     0
102
RTVSPost2010PropOp45
 70
     1
102
RTVSPost2010Prop46
 90
       50
102
RTVSPost2010PropOp46
 70
     1
102
RTVSPost2010Prop47
 90
       50
102
RTVSPost2010PropOp47
 70
     1
102
RTVSPost2010Prop48
 90
       50
102
RTVSPost2010PropOp48
 70
     1
102
RTVSPost2010Prop49
280
     0
102
RTVSPost2010PropOp49
 70
     1
102
RTVSPost2010Prop50
 90
       50
102
RTVSPost2010PropOp50
 70
     1
102
RTVSPost2010Prop51ColorIndex
 90
      256
102
RTVSPost2010Prop51ColorRGB
 90
-16777216
102
RTVSPost2010PropOp51
 70
     0
102
RTVSPost2010Prop52
140
1.0
102
RTVSPost2010PropOp52
 70
     0
102
RTVSPost2010Prop53
 90
        2
102
RTVSPost2010PropOp53
 70
     1
102
RTVSPost2010Prop54
  1
strokes_ogs.tif
102
RTVSPost2010PropOp54
 70
     1
102
RTVSPost2010Prop55
280
     0
102
RTVSPost2010PropOp55
 70
     1
102
RTVSPost2010Prop56
140
1.0
102
RTVSPost2010PropOp56
 70
     1
102
RTVSPost2010Prop57
140
1.0
102
RTVSPost2010PropOp57
 70
     1
  0
XRECORD
  5
39E
102
{ACAD_REACTORS
330
39D
102
}
330
39D
100
AcDbXrecord
280
     1
102
RTVSPost2010Prop28
280
     0
102
RTVSPost2010PropOp28
 70
     0
102
RTVSPost2010Prop29
280
     1
102
RTVSPost2010PropOp29
 70
     0
102
RTVSPost2010Prop30
280
     1
102
RTVSPost2010PropOp30
 70
     0
102
RTVSPost2010Prop31
280
     0
102
RTVSPost2010PropOp31
 70
     0
102
RTVSPost2010Prop32
280
     0
102
RTVSPost2010PropOp32
 70
     0
102
RTVSPost2010Prop33
280
     0
102
RTVSPost2010PropOp33
 70
     0
102
RTVSPost2010Prop34
280
     0
102
RTVSPost2010PropOp34
 70
     0
102
RTVSPost2010Prop35
280
     0
102
RTVSPost2010PropOp35
 70
     0
102
RTVSPost2010Prop36
280
     0
102
RTVSPost2010PropOp36
 70
     0
102
RTVSPost2010Prop37
 90
       50
102
RTVSPost2010PropOp37
 70
     0
102
RTVSPost2010Prop38
140
0.0
102
RTVSPost2010PropOp38
 70
     0
102
RTVSPost2010Prop39
140
1.0
102
RTVSPost2010PropOp39
 70
     0
102
RTVSPost2010Prop40
 90
        0
102
RTVSPost2010PropOp40
 70
     0
102
RTVSPost2010Prop41ColorIndex
 90
       18
102
RTVSPost2010Prop41ColorRGB
 90
        0
102
RTVSPost2010PropOp41
 70
     0
102
RTVSPost2010Prop42
 90
       50
102
RTVSPost2010PropOp42
 70
     0
102
RTVSPost2010Prop43
 90
        3
102
RTVSPost2010PropOp43
 70
     0
102
RTVSPost2010Prop44ColorIndex
 90
        5
102
RTVSPost2010Prop44ColorRGB
 90
      255
102
RTVSPost2010PropOp44
 70
     0
102
RTVSPost2010Prop45
280
     0
102
RTVSPost2010PropOp45
 70
     0
102
RTVSPost2010Prop46
 90
       50
102
RTVSPost2010PropOp46
 70
     0
102
RTVSPost2010Prop47
 90
       50
102
RTVSPost2010PropOp47
 70
     0
102
RTVSPost2010Prop48
 90
       50
102
RTVSPost2010PropOp48
 70
     0
102
RTVSPost2010Prop49
280
     0
102
RTVSPost2010PropOp49
 70
     0
102
RTVSPost2010Prop50
 90
       50
102
RTVSPost2010PropOp50
 70
     0
102
RTVSPost2010Prop51ColorIndex
 90
      256
102
RTVSPost2010Prop51ColorRGB
 90
-16777216
102
RTVSPost2010PropOp51
 70
     0
102
RTVSPost2010Prop52
140
1.0
102
RTVSPost2010PropOp52
 70
     0
102
RTVSPost2010Prop53
 90
        2
102
RTVSPost2010PropOp53
 70
     0
102
RTVSPost2010Prop54
  1
strokes_ogs.tif
102
RTVSPost2010PropOp54
 70
     0
102
RTVSPost2010Prop55
280
     0
102
RTVSPost2010PropOp55
 70
     0
102
RTVSPost2010Prop56
140
1.0
102
RTVSPost2010PropOp56
 70
     0
102
RTVSPost2010Prop57
140
1.0
102
RTVSPost2010PropOp57
 70
     0
  0
XRECORD
  5
38C
102
{ACAD_REACTORS
330
38B
102
}
330
38B
100
AcDbXrecord
280
     1
102
RTVSPost2010Prop28
280
     0
102
RTVSPost2010PropOp28
 70
     1
102
RTVSPost2010Prop29
280
     1
102
RTVSPost2010PropOp29
 70
     1
102
RTVSPost2010Prop30
280
     1
102
RTVSPost2010PropOp30
 70
     1
102
RTVSPost2010Prop31
280
     0
102
RTVSPost2010PropOp31
 70
     1
102
RTVSPost2010Prop32
280
     0
102
RTVSPost2010PropOp32
 70
     1
102
RTVSPost2010Prop33
280
     0
102
RTVSPost2010PropOp33
 70
     1
102
RTVSPost2010Prop34
280
     0
102
RTVSPost2010PropOp34
 70
     1
102
RTVSPost2010Prop35
280
     0
102
RTVSPost2010PropOp35
 70
     1
102
RTVSPost2010Prop36
280
     0
102
RTVSPost2010PropOp36
 70
     1
102
RTVSPost2010Prop37
 90
       50
102
RTVSPost2010PropOp37
 70
     1
102
RTVSPost2010Prop38
140
0.0
102
RTVSPost2010PropOp38
 70
     1
102
RTVSPost2010Prop39
140
1.0
102
RTVSPost2010PropOp39
 70
     1
102
RTVSPost2010Prop40
 90
        0
102
RTVSPost2010PropOp40
 70
     1
102
RTVSPost2010Prop41ColorIndex
 90
       18
102
RTVSPost2010Prop41ColorRGB
 90
        0
102
RTVSPost2010PropOp41
 70
     1
102
RTVSPost2010Prop42
 90
       50
102
RTVSPost2010PropOp42
 70
     1
102
RTVSPost2010Prop43
 90
        3
102
RTVSPost2010PropOp43
 70
     1
102
RTVSPost2010Prop44ColorIndex
 90
        5
102
RTVSPost2010Prop44ColorRGB
 90
      255
102
RTVSPost2010PropOp44
 70
     1
102
RTVSPost2010Prop45
280
     0
102
RTVSPost2010PropOp45
 70
     1
102
RTVSPost2010Prop46
 90
       50
102
RTVSPost2010PropOp46
 70
     1
102
RTVSPost2010Prop47
 90
       50
102
RTVSPost2010PropOp47
 70
     1
102
RTVSPost2010Prop48
 90
       50
102
RTVSPost2010PropOp48
 70
     1
102
RTVSPost2010Prop49
280
     0
102
RTVSPost2010PropOp49
 70
     1
102
RTVSPost2010Prop50
 90
       50
102
RTVSPost2010PropOp50
 70
     1
102
RTVSPost2010Prop51ColorIndex
 90
      256
102
RTVSPost2010Prop51ColorRGB
 90
-16777216
102
RTVSPost2010PropOp51
 70
     0
102
RTVSPost2010Prop52
140
1.0
102
RTVSPost2010PropOp52
 70
     0
102
RTVSPost2010Prop53
 90
        2
102
RTVSPost2010PropOp53
 70
     1
102
RTVSPost2010Prop54
  1
strokes_ogs.tif
102
RTVSPost2010PropOp54
 70
     1
102
RTVSPost2010Prop55
280
     0
102
RTVSPost2010PropOp55
 70
     1
102
RTVSPost2010Prop56
140
1.0
102
RTVSPost2010PropOp56
 70
     1
102
RTVSPost2010Prop57
140
1.0
102
RTVSPost2010PropOp57
 70
     1
  0
XRECORD
  5
3AA
102
{ACAD_REACTORS
330
3A9
102
}
330
3A9
100
AcDbXrecord
280
     1
102
RTVSPost2010Prop28
280
     0
102
RTVSPost2010PropOp28
 70
     1
102
RTVSPost2010Prop29
280
     1
102
RTVSPost2010PropOp29
 70
     1
102
RTVSPost2010Prop30
280
     1
102
RTVSPost2010PropOp30
 70
     1
102
RTVSPost2010Prop31
280
     0
102
RTVSPost2010PropOp31
 70
     1
102
RTVSPost2010Prop32
280
     0
102
RTVSPost2010PropOp32
 70
     1
102
RTVSPost2010Prop33
280
     0
102
RTVSPost2010PropOp33
 70
     1
102
RTVSPost2010Prop34
280
     0
102
RTVSPost2010PropOp34
 70
     1
102
RTVSPost2010Prop35
280
     0
102
RTVSPost2010PropOp35
 70
     1
102
RTVSPost2010Prop36
280
     0
102
RTVSPost2010PropOp36
 70
     1
102
RTVSPost2010Prop37
 90
       50
102
RTVSPost2010PropOp37
 70
     1
102
RTVSPost2010Prop38
140
0.0
102
RTVSPost2010PropOp38
 70
     1
102
RTVSPost2010Prop39
140
1.0
102
RTVSPost2010PropOp39
 70
     1
102
RTVSPost2010Prop40
 90
        0
102
RTVSPost2010PropOp40
 70
     1
102
RTVSPost2010Prop41ColorIndex
 90
       18
102
RTVSPost2010Prop41ColorRGB
 90
        0
102
RTVSPost2010PropOp41
 70
     1
102
RTVSPost2010Prop42
 90
       50
102
RTVSPost2010PropOp42
 70
     1
102
RTVSPost2010Prop43
 90
        3
102
RTVSPost2010PropOp43
 70
     1
102
RTVSPost2010Prop44ColorIndex
 90
        5
102
RTVSPost2010Prop44ColorRGB
 90
      255
102
RTVSPost2010PropOp44
 70
     1
102
RTVSPost2010Prop45
280
     0
102
RTVSPost2010PropOp45
 70
     1
102
RTVSPost2010Prop46
 90
       50
102
RTVSPost2010PropOp46
 70
     1
102
RTVSPost2010Prop47
 90
       50
102
RTVSPost2010PropOp47
 70
     1
102
RTVSPost2010Prop48
 90
       50
102
RTVSPost2010PropOp48
 70
     1
102
RTVSPost2010Prop49
280
     0
102
RTVSPost2010PropOp49
 70
     1
102
RTVSPost2010Prop50
 90
       50
102
RTVSPost2010PropOp50
 70
     1
102
RTVSPost2010Prop51ColorIndex
 90
      256
102
RTVSPost2010Prop51ColorRGB
 90
-16777216
102
RTVSPost2010PropOp51
 70
     0
102
RTVSPost2010Prop52
140
1.0
102
RTVSPost2010PropOp52
 70
     0
102
RTVSPost2010Prop53
 90
        2
102
RTVSPost2010PropOp53
 70
     1
102
RTVSPost2010Prop54
  1
strokes_ogs.tif
102
RTVSPost2010PropOp54
 70
     1
102
RTVSPost2010Prop55
280
     0
102
RTVSPost2010PropOp55
 70
     1
102
RTVSPost2010Prop56
140
1.0
102
RTVSPost2010PropOp56
 70
     1
102
RTVSPost2010Prop57
140
1.0
102
RTVSPost2010PropOp57
 70
     1
  0
XRECORD
  5
3A8
102
{ACAD_REACTORS
330
3A7
102
}
330
3A7
100
AcDbXrecord
280
     1
102
RTVSPost2010Prop28
280
     0
102
RTVSPost2010PropOp28
 70
     1
102
RTVSPost2010Prop29
280
     1
102
RTVSPost2010PropOp29
 70
     1
102
RTVSPost2010Prop30
280
     1
102
RTVSPost2010PropOp30
 70
     1
102
RTVSPost2010Prop31
280
     0
102
RTVSPost2010PropOp31
 70
     1
102
RTVSPost2010Prop32
280
     0
102
RTVSPost2010PropOp32
 70
     1
102
RTVSPost2010Prop33
280
     0
102
RTVSPost2010PropOp33
 70
     1
102
RTVSPost2010Prop34
280
     0
102
RTVSPost2010PropOp34
 70
     1
102
RTVSPost2010Prop35
280
     0
102
RTVSPost2010PropOp35
 70
     1
102
RTVSPost2010Prop36
280
     0
102
RTVSPost2010PropOp36
 70
     1
102
RTVSPost2010Prop37
 90
       50
102
RTVSPost2010PropOp37
 70
     1
102
RTVSPost2010Prop38
140
0.0
102
RTVSPost2010PropOp38
 70
     1
102
RTVSPost2010Prop39
140
1.0
102
RTVSPost2010PropOp39
 70
     1
102
RTVSPost2010Prop40
 90
        0
102
RTVSPost2010PropOp40
 70
     1
102
RTVSPost2010Prop41ColorIndex
 90
       18
102
RTVSPost2010Prop41ColorRGB
 90
        0
102
RTVSPost2010PropOp41
 70
     1
102
RTVSPost2010Prop42
 90
       50
102
RTVSPost2010PropOp42
 70
     1
102
RTVSPost2010Prop43
 90
        3
102
RTVSPost2010PropOp43
 70
     1
102
RTVSPost2010Prop44ColorIndex
 90
        5
102
RTVSPost2010Prop44ColorRGB
 90
      255
102
RTVSPost2010PropOp44
 70
     1
102
RTVSPost2010Prop45
280
     0
102
RTVSPost2010PropOp45
 70
     1
102
RTVSPost2010Prop46
 90
       50
102
RTVSPost2010PropOp46
 70
     1
102
RTVSPost2010Prop47
 90
       50
102
RTVSPost2010PropOp47
 70
     1
102
RTVSPost2010Prop48
 90
       50
102
RTVSPost2010PropOp48
 70
     1
102
RTVSPost2010Prop49
280
     0
102
RTVSPost2010PropOp49
 70
     1
102
RTVSPost2010Prop50
 90
       50
102
RTVSPost2010PropOp50
 70
     1
102
RTVSPost2010Prop51ColorIndex
 90
      256
102
RTVSPost2010Prop51ColorRGB
 90
-16777216
102
RTVSPost2010PropOp51
 70
     0
102
RTVSPost2010Prop52
140
1.0
102
RTVSPost2010PropOp52
 70
     0
102
RTVSPost2010Prop53
 90
        2
102
RTVSPost2010PropOp53
 70
     1
102
RTVSPost2010Prop54
  1
strokes_ogs.tif
102
RTVSPost2010PropOp54
 70
     1
102
RTVSPost2010Prop55
280
     0
102
RTVSPost2010PropOp55
 70
     1
102
RTVSPost2010Prop56
140
1.0
102
RTVSPost2010PropOp56
 70
     1
102
RTVSPost2010Prop57
140
1.0
102
RTVSPost2010PropOp57
 70
     1
  0
XRECORD
  5
3A2
102
{ACAD_REACTORS
330
3A1
102
}
330
3A1
100
AcDbXrecord
280
     1
102
RTVSPost2010Prop28
280
     0
102
RTVSPost2010PropOp28
 70
     1
102
RTVSPost2010Prop29
280
     1
102
RTVSPost2010PropOp29
 70
     1
102
RTVSPost2010Prop30
280
     1
102
RTVSPost2010PropOp30
 70
     1
102
RTVSPost2010Prop31
280
     0
102
RTVSPost2010PropOp31
 70
     1
102
RTVSPost2010Prop32
280
     0
102
RTVSPost2010PropOp32
 70
     1
102
RTVSPost2010Prop33
280
     0
102
RTVSPost2010PropOp33
 70
     1
102
RTVSPost2010Prop34
280
     0
102
RTVSPost2010PropOp34
 70
     1
102
RTVSPost2010Prop35
280
     0
102
RTVSPost2010PropOp35
 70
     1
102
RTVSPost2010Prop36
280
     0
102
RTVSPost2010PropOp36
 70
     1
102
RTVSPost2010Prop37
 90
       50
102
RTVSPost2010PropOp37
 70
     1
102
RTVSPost2010Prop38
140
0.0
102
RTVSPost2010PropOp38
 70
     1
102
RTVSPost2010Prop39
140
1.0
102
RTVSPost2010PropOp39
 70
     1
102
RTVSPost2010Prop40
 90
        0
102
RTVSPost2010PropOp40
 70
     1
102
RTVSPost2010Prop41ColorIndex
 90
       18
102
RTVSPost2010Prop41ColorRGB
 90
        0
102
RTVSPost2010PropOp41
 70
     1
102
RTVSPost2010Prop42
 90
       50
102
RTVSPost2010PropOp42
 70
     1
102
RTVSPost2010Prop43
 90
        3
102
RTVSPost2010PropOp43
 70
     1
102
RTVSPost2010Prop44ColorIndex
 90
        5
102
RTVSPost2010Prop44ColorRGB
 90
      255
102
RTVSPost2010PropOp44
 70
     1
102
RTVSPost2010Prop45
280
     0
102
RTVSPost2010PropOp45
 70
     1
102
RTVSPost2010Prop46
 90
       50
102
RTVSPost2010PropOp46
 70
     1
102
RTVSPost2010Prop47
 90
       50
102
RTVSPost2010PropOp47
 70
     1
102
RTVSPost2010Prop48
 90
       50
102
RTVSPost2010PropOp48
 70
     1
102
RTVSPost2010Prop49
280
     0
102
RTVSPost2010PropOp49
 70
     1
102
RTVSPost2010Prop50
 90
       50
102
RTVSPost2010PropOp50
 70
     1
102
RTVSPost2010Prop51ColorIndex
 90
      256
102
RTVSPost2010Prop51ColorRGB
 90
-16777216
102
RTVSPost2010PropOp51
 70
     0
102
RTVSPost2010Prop52
140
1.0
102
RTVSPost2010PropOp52
 70
     0
102
RTVSPost2010Prop53
 90
        2
102
RTVSPost2010PropOp53
 70
     1
102
RTVSPost2010Prop54
  1
strokes_ogs.tif
102
RTVSPost2010PropOp54
 70
     1
102
RTVSPost2010Prop55
280
     0
102
RTVSPost2010PropOp55
 70
     1
102
RTVSPost2010Prop56
140
1.0
102
RTVSPost2010PropOp56
 70
     1
102
RTVSPost2010Prop57
140
1.0
102
RTVSPost2010PropOp57
 70
     1
  0
XRECORD
  5
3A4
102
{ACAD_REACTORS
330
3A3
102
}
330
3A3
100
AcDbXrecord
280
     1
102
RTVSPost2010Prop28
280
     0
102
RTVSPost2010PropOp28
 70
     1
102
RTVSPost2010Prop29
280
     1
102
RTVSPost2010PropOp29
 70
     1
102
RTVSPost2010Prop30
280
     1
102
RTVSPost2010PropOp30
 70
     1
102
RTVSPost2010Prop31
280
     0
102
RTVSPost2010PropOp31
 70
     1
102
RTVSPost2010Prop32
280
     0
102
RTVSPost2010PropOp32
 70
     1
102
RTVSPost2010Prop33
280
     0
102
RTVSPost2010PropOp33
 70
     1
102
RTVSPost2010Prop34
280
     0
102
RTVSPost2010PropOp34
 70
     1
102
RTVSPost2010Prop35
280
     0
102
RTVSPost2010PropOp35
 70
     1
102
RTVSPost2010Prop36
280
     0
102
RTVSPost2010PropOp36
 70
     1
102
RTVSPost2010Prop37
 90
       50
102
RTVSPost2010PropOp37
 70
     1
102
RTVSPost2010Prop38
140
0.0
102
RTVSPost2010PropOp38
 70
     1
102
RTVSPost2010Prop39
140
1.0
102
RTVSPost2010PropOp39
 70
     1
102
RTVSPost2010Prop40
 90
        0
102
RTVSPost2010PropOp40
 70
     1
102
RTVSPost2010Prop41ColorIndex
 90
       18
102
RTVSPost2010Prop41ColorRGB
 90
        0
102
RTVSPost2010PropOp41
 70
     1
102
RTVSPost2010Prop42
 90
       50
102
RTVSPost2010PropOp42
 70
     1
102
RTVSPost2010Prop43
 90
        3
102
RTVSPost2010PropOp43
 70
     1
102
RTVSPost2010Prop44ColorIndex
 90
        5
102
RTVSPost2010Prop44ColorRGB
 90
      255
102
RTVSPost2010PropOp44
 70
     1
102
RTVSPost2010Prop45
280
     0
102
RTVSPost2010PropOp45
 70
     1
102
RTVSPost2010Prop46
 90
       50
102
RTVSPost2010PropOp46
 70
     1
102
RTVSPost2010Prop47
 90
       50
102
RTVSPost2010PropOp47
 70
     1
102
RTVSPost2010Prop48
 90
       50
102
RTVSPost2010PropOp48
 70
     1
102
RTVSPost2010Prop49
280
     0
102
RTVSPost2010PropOp49
 70
     1
102
RTVSPost2010Prop50
 90
       50
102
RTVSPost2010PropOp50
 70
     1
102
RTVSPost2010Prop51ColorIndex
 90
      256
102
RTVSPost2010Prop51ColorRGB
 90
-16777216
102
RTVSPost2010PropOp51
 70
     0
102
RTVSPost2010Prop52
140
1.0
102
RTVSPost2010PropOp52
 70
     0
102
RTVSPost2010Prop53
 90
        2
102
RTVSPost2010PropOp53
 70
     1
102
RTVSPost2010Prop54
  1
strokes_ogs.tif
102
RTVSPost2010PropOp54
 70
     1
102
RTVSPost2010Prop55
280
     0
102
RTVSPost2010PropOp55
 70
     1
102
RTVSPost2010Prop56
140
1.0
102
RTVSPost2010PropOp56
 70
     1
102
RTVSPost2010Prop57
140
1.0
102
RTVSPost2010PropOp57
 70
     1
  0
XRECORD
  5
394
102
{ACAD_REACTORS
330
393
102
}
330
393
100
AcDbXrecord
280
     1
102
RTVSPost2010Prop28
280
     0
102
RTVSPost2010PropOp28
 70
     1
102
RTVSPost2010Prop29
280
     1
102
RTVSPost2010PropOp29
 70
     1
102
RTVSPost2010Prop30
280
     1
102
RTVSPost2010PropOp30
 70
     1
102
RTVSPost2010Prop31
280
     0
102
RTVSPost2010PropOp31
 70
     1
102
RTVSPost2010Prop32
280
     0
102
RTVSPost2010PropOp32
 70
     1
102
RTVSPost2010Prop33
280
     0
102
RTVSPost2010PropOp33
 70
     1
102
RTVSPost2010Prop34
280
     0
102
RTVSPost2010PropOp34
 70
     1
102
RTVSPost2010Prop35
280
     0
102
RTVSPost2010PropOp35
 70
     1
102
RTVSPost2010Prop36
280
     0
102
RTVSPost2010PropOp36
 70
     1
102
RTVSPost2010Prop37
 90
       50
102
RTVSPost2010PropOp37
 70
     1
102
RTVSPost2010Prop38
140
0.0
102
RTVSPost2010PropOp38
 70
     1
102
RTVSPost2010Prop39
140
1.0
102
RTVSPost2010PropOp39
 70
     1
102
RTVSPost2010Prop40
 90
        0
102
RTVSPost2010PropOp40
 70
     1
102
RTVSPost2010Prop41ColorIndex
 90
       18
102
RTVSPost2010Prop41ColorRGB
 90
        0
102
RTVSPost2010PropOp41
 70
     1
102
RTVSPost2010Prop42
 90
       50
102
RTVSPost2010PropOp42
 70
     1
102
RTVSPost2010Prop43
 90
        3
102
RTVSPost2010PropOp43
 70
     1
102
RTVSPost2010Prop44ColorIndex
 90
        5
102
RTVSPost2010Prop44ColorRGB
 90
      255
102
RTVSPost2010PropOp44
 70
     1
102
RTVSPost2010Prop45
280
     0
102
RTVSPost2010PropOp45
 70
     1
102
RTVSPost2010Prop46
 90
       50
102
RTVSPost2010PropOp46
 70
     1
102
RTVSPost2010Prop47
 90
       50
102
RTVSPost2010PropOp47
 70
     1
102
RTVSPost2010Prop48
 90
       50
102
RTVSPost2010PropOp48
 70
     1
102
RTVSPost2010Prop49
280
     0
102
RTVSPost2010PropOp49
 70
     1
102
RTVSPost2010Prop50
 90
       50
102
RTVSPost2010PropOp50
 70
     1
102
RTVSPost2010Prop51ColorIndex
 90
      256
102
RTVSPost2010Prop51ColorRGB
 90
-16777216
102
RTVSPost2010PropOp51
 70
     0
102
RTVSPost2010Prop52
140
1.0
102
RTVSPost2010PropOp52
 70
     0
102
RTVSPost2010Prop53
 90
        2
102
RTVSPost2010PropOp53
 70
     1
102
RTVSPost2010Prop54
  1
strokes_ogs.tif
102
RTVSPost2010PropOp54
 70
     1
102
RTVSPost2010Prop55
280
     0
102
RTVSPost2010PropOp55
 70
     1
102
RTVSPost2010Prop56
140
1.0
102
RTVSPost2010PropOp56
 70
     1
102
RTVSPost2010Prop57
140
1.0
102
RTVSPost2010PropOp57
 70
     1
  0
XRECORD
  5
386
102
{ACAD_REACTORS
330
385
102
}
330
385
100
AcDbXrecord
280
     1
102
RTVSPost2010Prop28
280
     0
102
RTVSPost2010PropOp28
 70
     1
102
RTVSPost2010Prop29
280
     1
102
RTVSPost2010PropOp29
 70
     1
102
RTVSPost2010Prop30
280
     1
102
RTVSPost2010PropOp30
 70
     1
102
RTVSPost2010Prop31
280
     0
102
RTVSPost2010PropOp31
 70
     1
102
RTVSPost2010Prop32
280
     0
102
RTVSPost2010PropOp32
 70
     1
102
RTVSPost2010Prop33
280
     0
102
RTVSPost2010PropOp33
 70
     1
102
RTVSPost2010Prop34
280
     0
102
RTVSPost2010PropOp34
 70
     1
102
RTVSPost2010Prop35
280
     0
102
RTVSPost2010PropOp35
 70
     1
102
RTVSPost2010Prop36
280
     0
102
RTVSPost2010PropOp36
 70
     1
102
RTVSPost2010Prop37
 90
       50
102
RTVSPost2010PropOp37
 70
     1
102
RTVSPost2010Prop38
140
0.0
102
RTVSPost2010PropOp38
 70
     1
102
RTVSPost2010Prop39
140
1.0
102
RTVSPost2010PropOp39
 70
     1
102
RTVSPost2010Prop40
 90
        0
102
RTVSPost2010PropOp40
 70
     1
102
RTVSPost2010Prop41ColorIndex
 90
       18
102
RTVSPost2010Prop41ColorRGB
 90
        0
102
RTVSPost2010PropOp41
 70
     1
102
RTVSPost2010Prop42
 90
       50
102
RTVSPost2010PropOp42
 70
     1
102
RTVSPost2010Prop43
 90
        3
102
RTVSPost2010PropOp43
 70
     1
102
RTVSPost2010Prop44ColorIndex
 90
        5
102
RTVSPost2010Prop44ColorRGB
 90
      255
102
RTVSPost2010PropOp44
 70
     1
102
RTVSPost2010Prop45
280
     0
102
RTVSPost2010PropOp45
 70
     1
102
RTVSPost2010Prop46
 90
       50
102
RTVSPost2010PropOp46
 70
     1
102
RTVSPost2010Prop47
 90
       50
102
RTVSPost2010PropOp47
 70
     1
102
RTVSPost2010Prop48
 90
       50
102
RTVSPost2010PropOp48
 70
     1
102
RTVSPost2010Prop49
280
     0
102
RTVSPost2010PropOp49
 70
     1
102
RTVSPost2010Prop50
 90
       50
102
RTVSPost2010PropOp50
 70
     1
102
RTVSPost2010Prop51ColorIndex
 90
      256
102
RTVSPost2010Prop51ColorRGB
 90
-16777216
102
RTVSPost2010PropOp51
 70
     0
102
RTVSPost2010Prop52
140
1.0
102
RTVSPost2010PropOp52
 70
     0
102
RTVSPost2010Prop53
 90
        2
102
RTVSPost2010PropOp53
 70
     1
102
RTVSPost2010Prop54
  1
strokes_ogs.tif
102
RTVSPost2010PropOp54
 70
     1
102
RTVSPost2010Prop55
280
     0
102
RTVSPost2010PropOp55
 70
     1
102
RTVSPost2010Prop56
140
1.0
102
RTVSPost2010PropOp56
 70
     1
102
RTVSPost2010Prop57
140
1.0
102
RTVSPost2010PropOp57
 70
     1
  0
XRECORD
  5
3A6
102
{ACAD_REACTORS
330
3A5
102
}
330
3A5
100
AcDbXrecord
280
     1
102
RTVSPost2010Prop28
280
     0
102
RTVSPost2010PropOp28
 70
     1
102
RTVSPost2010Prop29
280
     1
102
RTVSPost2010PropOp29
 70
     1
102
RTVSPost2010Prop30
280
     1
102
RTVSPost2010PropOp30
 70
     1
102
RTVSPost2010Prop31
280
     0
102
RTVSPost2010PropOp31
 70
     1
102
RTVSPost2010Prop32
280
     0
102
RTVSPost2010PropOp32
 70
     1
102
RTVSPost2010Prop33
280
     0
102
RTVSPost2010PropOp33
 70
     1
102
RTVSPost2010Prop34
280
     0
102
RTVSPost2010PropOp34
 70
     1
102
RTVSPost2010Prop35
280
     0
102
RTVSPost2010PropOp35
 70
     1
102
RTVSPost2010Prop36
280
     0
102
RTVSPost2010PropOp36
 70
     1
102
RTVSPost2010Prop37
 90
       50
102
RTVSPost2010PropOp37
 70
     1
102
RTVSPost2010Prop38
140
0.0
102
RTVSPost2010PropOp38
 70
     1
102
RTVSPost2010Prop39
140
1.0
102
RTVSPost2010PropOp39
 70
     1
102
RTVSPost2010Prop40
 90
        0
102
RTVSPost2010PropOp40
 70
     1
102
RTVSPost2010Prop41ColorIndex
 90
       18
102
RTVSPost2010Prop41ColorRGB
 90
        0
102
RTVSPost2010PropOp41
 70
     1
102
RTVSPost2010Prop42
 90
       50
102
RTVSPost2010PropOp42
 70
     1
102
RTVSPost2010Prop43
 90
        3
102
RTVSPost2010PropOp43
 70
     1
102
RTVSPost2010Prop44ColorIndex
 90
        5
102
RTVSPost2010Prop44ColorRGB
 90
      255
102
RTVSPost2010PropOp44
 70
     1
102
RTVSPost2010Prop45
280
     0
102
RTVSPost2010PropOp45
 70
     1
102
RTVSPost2010Prop46
 90
       50
102
RTVSPost2010PropOp46
 70
     1
102
RTVSPost2010Prop47
 90
       50
102
RTVSPost2010PropOp47
 70
     1
102
RTVSPost2010Prop48
 90
       50
102
RTVSPost2010PropOp48
 70
     1
102
RTVSPost2010Prop49
280
     0
102
RTVSPost2010PropOp49
 70
     1
102
RTVSPost2010Prop50
 90
       50
102
RTVSPost2010PropOp50
 70
     1
102
RTVSPost2010Prop51ColorIndex
 90
      256
102
RTVSPost2010Prop51ColorRGB
 90
-16777216
102
RTVSPost2010PropOp51
 70
     0
102
RTVSPost2010Prop52
140
1.0
102
RTVSPost2010PropOp52
 70
     0
102
RTVSPost2010Prop53
 90
        2
102
RTVSPost2010PropOp53
 70
     1
102
RTVSPost2010Prop54
  1
strokes_ogs.tif
102
RTVSPost2010PropOp54
 70
     1
102
RTVSPost2010Prop55
280
     0
102
RTVSPost2010PropOp55
 70
     1
102
RTVSPost2010Prop56
140
1.0
102
RTVSPost2010PropOp56
 70
     1
102
RTVSPost2010Prop57
140
1.0
102
RTVSPost2010PropOp57
 70
     1
  0
ENDSEC
  0
EOF
