  0
SECTION
  2
HEADER
  9
$ACADVER
  1
AC1024
  9
$ACADMAINTVER
 70
     6
  9
$DWGCODEPAGE
  3
ANSI_932
  9
$INSBASE
 10
0.0
 20
0.0
 30
0.0
  9
$EXTMIN
 10
-4455.0
 20
-3150.0
 30
0.0
  9
$EXTMAX
 10
4455.0
 20
3150.0
 30
0.0
  9
$LIMMIN
 10
-4455.0
 20
-3150.0
  9
$LIMMAX
 10
4455.0
 20
3150.0
  9
$ORTHOMODE
 70
     0
  9
$REGENMODE
 70
     1
  9
$FILLMODE
 70
     1
  9
$QTEXTMODE
 70
     0
  9
$MIRRTEXT
 70
     1
  9
$LTSCALE
 40
30.0
  9
$ATTMODE
 70
     1
  9
$TEXTSIZE
 40
2.5
  9
$TRACEWID
 40
1.0
  9
$TEXTSTYLE
  7
Standard
  9
$CLAYER
  8
0
  9
$CELTYPE
  6
ByLayer
  9
$CECOLOR
 62
   256
  9
$CELTSCALE
 40
1.0
  9
$DISPSILH
 70
     0
  9
$DIMSCALE
 40
1.0
  9
$DIMASZ
 40
2.5
  9
$DIMEXO
 40
0.625
  9
$DIMDLI
 40
3.75
  9
$DIMRND
 40
0.0
  9
$DIMDLE
 40
0.0
  9
$DIMEXE
 40
1.25
  9
$DIMTP
 40
0.0
  9
$DIMTM
 40
0.0
  9
$DIMTXT
 40
2.5
  9
$DIMCEN
 40
2.5
  9
$DIMTSZ
 40
0.0
  9
$DIMTOL
 70
     0
  9
$DIMLIM
 70
     0
  9
$DIMTIH
 70
     0
  9
$DIMTOH
 70
     0
  9
$DIMSE1
 70
     0
  9
$DIMSE2
 70
     0
  9
$DIMTAD
 70
     1
  9
$DIMZIN
 70
     8
  9
$DIMBLK
  1

  9
$DIMASO
 70
     1
  9
$DIMSHO
 70
     1
  9
$DIMPOST
  1

  9
$DIMAPOST
  1

  9
$DIMALT
 70
     0
  9
$DIMALTD
 70
     3
  9
$DIMALTF
 40
0.03937007874016
  9
$DIMLFAC
 40
1.0
  9
$DIMTOFL
 70
     1
  9
$DIMTVP
 40
0.0
  9
$DIMTIX
 70
     0
  9
$DIMSOXD
 70
     0
  9
$DIMSAH
 70
     0
  9
$DIMBLK1
  1

  9
$DIMBLK2
  1

  9
$DIMSTYLE
  2
ISO-25
  9
$DIMCLRD
 70
     0
  9
$DIMCLRE
 70
     0
  9
$DIMCLRT
 70
     0
  9
$DIMTFAC
 40
1.0
  9
$DIMGAP
 40
0.625
  9
$DIMJUST
 70
     0
  9
$DIMSD1
 70
     0
  9
$DIMSD2
 70
     0
  9
$DIMTOLJ
 70
     0
  9
$DIMTZIN
 70
     8
  9
$DIMALTZ
 70
     0
  9
$DIMALTTZ
 70
     0
  9
$DIMUPT
 70
     0
  9
$DIMDEC
 70
     2
  9
$DIMTDEC
 70
     2
  9
$DIMALTU
 70
     2
  9
$DIMALTTD
 70
     3
  9
$DIMTXSTY
  7
Standard
  9
$DIMAUNIT
 70
     0
  9
$DIMADEC
 70
     0
  9
$DIMALTRND
 40
0.0
  9
$DIMAZIN
 70
     0
  9
$DIMDSEP
 70
    44
  9
$DIMATFIT
 70
     3
  9
$DIMFRAC
 70
     0
  9
$DIMLDRBLK
  1

  9
$DIMLUNIT
 70
     2
  9
$DIMLWD
 70
    -2
  9
$DIMLWE
 70
    -2
  9
$DIMTMOVE
 70
     0
  9
$DIMFXL
 40
1.0
  9
$DIMFXLON
 70
     0
  9
$DIMJOGANG
 40
0.7853981633974483
  9
$DIMTFILL
 70
     0
  9
$DIMTFILLCLR
 70
     0
  9
$DIMARCSYM
 70
     0
  9
$DIMLTYPE
  6

  9
$DIMLTEX1
  6

  9
$DIMLTEX2
  6

  9
$DIMTXTDIRECTION
 70
     0
  9
$LUNITS
 70
     2
  9
$LUPREC
 70
     4
  9
$SKETCHINC
 40
1.0
  9
$FILLETRAD
 40
10.0
  9
$AUNITS
 70
     0
  9
$AUPREC
 70
     0
  9
$MENU
  1
.
  9
$ELEVATION
 40
0.0
  9
$PELEVATION
 40
0.0
  9
$THICKNESS
 40
0.0
  9
$LIMCHECK
 70
     0
  9
$CHAMFERA
 40
10.0
  9
$CHAMFERB
 40
10.0
  9
$CHAMFERC
 40
20.0
  9
$CHAMFERD
 40
0.0
  9
$SKPOLY
 70
     0
  9
$TDCREATE
 40
2457996.734571713
  9
$TDUCREATE
 40
2457996.359571713
  9
$TDUPDATE
 40
2457996.734571725
  9
$TDUUPDATE
 40
2457996.359571725
  9
$TDINDWG
 40
0.0000000116
  9
$TDUSRTIMER
 40
0.0000000116
  9
$USRTIMER
 70
     1
  9
$ANGBASE
 50
0.0
  9
$ANGDIR
 70
     0
  9
$PDMODE
 70
     0
  9
$PDSIZE
 40
0.0
  9
$PLINEWID
 40
0.0
  9
$SPLFRAME
 70
     0
  9
$SPLINETYPE
 70
     6
  9
$SPLINESEGS
 70
     8
  9
$HANDSEED
  5
209
  9
$SURFTAB1
 70
     6
  9
$SURFTAB2
 70
     6
  9
$SURFTYPE
 70
     6
  9
$SURFU
 70
     6
  9
$SURFV
 70
     6
  9
$UCSBASE
  2

  9
$UCSNAME
  2

  9
$UCSORG
 10
0.0
 20
0.0
 30
0.0
  9
$UCSXDIR
 10
1.0
 20
0.0
 30
0.0
  9
$UCSYDIR
 10
0.0
 20
1.0
 30
0.0
  9
$UCSORTHOREF
  2

  9
$UCSORTHOVIEW
 70
     0
  9
$UCSORGTOP
 10
0.0
 20
0.0
 30
0.0
  9
$UCSORGBOTTOM
 10
0.0
 20
0.0
 30
0.0
  9
$UCSORGLEFT
 10
0.0
 20
0.0
 30
0.0
  9
$UCSORGRIGHT
 10
0.0
 20
0.0
 30
0.0
  9
$UCSORGFRONT
 10
0.0
 20
0.0
 30
0.0
  9
$UCSORGBACK
 10
0.0
 20
0.0
 30
0.0
  9
$PUCSBASE
  2

  9
$PUCSNAME
  2

  9
$PUCSORG
 10
0.0
 20
0.0
 30
0.0
  9
$PUCSXDIR
 10
1.0
 20
0.0
 30
0.0
  9
$PUCSYDIR
 10
0.0
 20
1.0
 30
0.0
  9
$PUCSORTHOREF
  2

  9
$PUCSORTHOVIEW
 70
     0
  9
$PUCSORGTOP
 10
0.0
 20
0.0
 30
0.0
  9
$PUCSORGBOTTOM
 10
0.0
 20
0.0
 30
0.0
  9
$PUCSORGLEFT
 10
0.0
 20
0.0
 30
0.0
  9
$PUCSORGRIGHT
 10
0.0
 20
0.0
 30
0.0
  9
$PUCSORGFRONT
 10
0.0
 20
0.0
 30
0.0
  9
$PUCSORGBACK
 10
0.0
 20
0.0
 30
0.0
  9
$USERI1
 70
     0
  9
$USERI2
 70
     0
  9
$USERI3
 70
     0
  9
$USERI4
 70
     0
  9
$USERI5
 70
     0
  9
$USERR1
 40
0.0
  9
$USERR2
 40
0.0
  9
$USERR3
 40
0.0
  9
$USERR4
 40
0.0
  9
$USERR5
 40
0.0
  9
$WORLDVIEW
 70
     1
  9
$SHADEDGE
 70
     3
  9
$SHADEDIF
 70
    70
  9
$TILEMODE
 70
     1
  9
$MAXACTVP
 70
    64
  9
$PINSBASE
 10
0.0
 20
0.0
 30
0.0
  9
$PLIMCHECK
 70
     0
  9
$PEXTMIN
 10
1.000000000000000E+20
 20
1.000000000000000E+20
 30
1.000000000000000E+20
  9
$PEXTMAX
 10
-1.000000000000000E+20
 20
-1.000000000000000E+20
 30
-1.000000000000000E+20
  9
$PLIMMIN
 10
0.0
 20
0.0
  9
$PLIMMAX
 10
420.0
 20
297.0
  9
$UNITMODE
 70
     0
  9
$VISRETAIN
 70
     1
  9
$PLINEGEN
 70
     0
  9
$PSLTSCALE
 70
     1
  9
$TREEDEPTH
 70
  3020
  9
$CMLSTYLE
  2
Standard
  9
$CMLJUST
 70
     0
  9
$CMLSCALE
 40
20.0
  9
$PROXYGRAPHICS
 70
     1
  9
$MEASUREMENT
 70
     1
  9
$CELWEIGHT
370
    -1
  9
$ENDCAPS
280
     0
  9
$JOINSTYLE
280
     0
  9
$LWDISPLAY
290
     0
  9
$INSUNITS
 70
     4
  9
$HYPERLINKBASE
  1

  9
$STYLESHEET
  1

  9
$XEDIT
290
     1
  9
$CEPSNTYPE
380
     0
  9
$PSTYLEMODE
290
     1
  9
$FINGERPRINTGUID
  2
{F3E3209F-4844-4EFE-A532-90D8FA194E4B}
  9
$VERSIONGUID
  2
{FAEB1C32-E019-11D5-929B-00C0DF256EC4}
  9
$EXTNAMES
290
     1
  9
$PSVPSCALE
 40
0.0
  9
$OLESTARTUP
290
     0
  9
$SORTENTS
280
   127
  9
$INDEXCTL
280
     0
  9
$HIDETEXT
280
     1
  9
$XCLIPFRAME
280
     2
  9
$HALOGAP
280
     0
  9
$OBSCOLOR
 70
   257
  9
$OBSLTYPE
280
     0
  9
$INTERSECTIONDISPLAY
280
     0
  9
$INTERSECTIONCOLOR
 70
   257
  9
$DIMASSOC
280
     2
  9
$PROJECTNAME
  1

  9
$CAMERADISPLAY
290
     0
  9
$LENSLENGTH
 40
50.0
  9
$CAMERAHEIGHT
 40
0.0
  9
$STEPSPERSEC
 40
2.0
  9
$STEPSIZE
 40
6.0
  9
$3DDWFPREC
 40
2.0
  9
$PSOLWIDTH
 40
5.0
  9
$PSOLHEIGHT
 40
80.0
  9
$LOFTANG1
 40
1.570796326794897
  9
$LOFTANG2
 40
1.570796326794897
  9
$LOFTMAG1
 40
0.0
  9
$LOFTMAG2
 40
0.0
  9
$LOFTPARAM
 70
     7
  9
$LOFTNORMALS
280
     1
  9
$LATITUDE
 40
37.795
  9
$LONGITUDE
 40
-122.394
  9
$NORTHDIRECTION
 40
0.0
  9
$TIMEZONE
 70
 -8000
  9
$LIGHTGLYPHDISPLAY
280
     1
  9
$TILEMODELIGHTSYNCH
280
     1
  9
$SOLIDHIST
280
     1
  9
$SHOWHIST
280
     1
  9
$DWFFRAME
280
     2
  9
$DGNFRAME
280
     2
  9
$REALWORLDSCALE
290
     1
  9
$INTERFERECOLOR
 62
   256
  9
$CSHADOW
280
     0
  9
$SHADOWPLANELOCATION
 40
0.0
  0
ENDSEC
  0
SECTION
  2
CLASSES
  0
CLASS
  1
ACDBDICTIONARYWDFLT
  2
AcDbDictionaryWithDefault
  3
ObjectDBX Classes
 90
        0
 91
        4
280
     0
281
     0
  0
CLASS
  1
VISUALSTYLE
  2
AcDbVisualStyle
  3
ObjectDBX Classes
 90
     4095
 91
        4
280
     0
281
     0
  0
CLASS
  1
MATERIAL
  2
AcDbMaterial
  3
ObjectDBX Classes
 90
     1153
 91
        4
280
     0
281
     0
  0
ENDSEC
  0
SECTION
  2
TABLES
  0
TABLE
  2
VPORT
  5
8
330
0
100
AcDbSymbolTable
 70
     1
  0
VPORT
  5
29
330
8
100
AcDbSymbolTableRecord
100
AcDbViewportTableRecord
  2
*Active
 70
     0
 10
0.0
 20
0.0
 11
1.0
 21
1.0
 12
0.0
 22
0.0
 13
0.0
 23
0.0
 14
10.0
 24
10.0
 15
10.0
 25
10.0
 16
0.0
 26
0.0
 36
1.0
 17
0.0
 27
0.0
 37
0.0
 40
6930.000000000001
 41
1.414285714285714
 42
50.0
 43
0.0
 44
0.0
 50
0.0
 51
0.0
 71
     0
 72
 10000
 73
     1
 74
     3
 75
     0
 76
     0
 77
     0
 78
     0
281
     0
 65
     1
110
0.0
120
0.0
130
0.0
111
1.0
121
0.0
131
0.0
112
0.0
122
1.0
132
0.0
 79
     0
146
0.0
 60
     3
 61
     5
292
     1
282
     1
141
0.0
142
0.0
 63
   250
  0
ENDTAB
  0
TABLE
  2
LTYPE
  5
5
330
0
100
AcDbSymbolTable
 70
     2
  0
LTYPE
  5
14
330
5
100
AcDbSymbolTableRecord
100
AcDbLinetypeTableRecord
  2
ByBlock
 70
     0
  3

 72
    65
 73
     0
 40
0.0
  0
LTYPE
  5
15
330
5
100
AcDbSymbolTableRecord
100
AcDbLinetypeTableRecord
  2
ByLayer
 70
     0
  3

 72
    65
 73
     0
 40
0.0
  0
LTYPE
  5
16
330
5
100
AcDbSymbolTableRecord
100
AcDbLinetypeTableRecord
  2
Continuous
 70
     0
  3
Solid line
 72
    65
 73
     0
 40
0.0
  0
LTYPE
  5
3F
330
5
100
AcDbSymbolTableRecord
100
AcDbLinetypeTableRecord
  2
JWW_DASHED1
 70
     0
  3
-  --  --  --  --  --  --  --  -
 72
    65
 73
     2
 40
1.693333333333333
 49
0.8466666666666667
 74
     0
 49
-0.8466666666666667
 74
     0
  0
ENDTAB
  0
TABLE
  2
LAYER
  5
2
330
0
100
AcDbSymbolTable
 70
     3
  0
LAYER
  5
10
330
2
100
AcDbSymbolTableRecord
100
AcDbLayerTableRecord
  2
0
 70
     0
 62
     7
  6
Continuous
370
    -3
390
F
347
3E
  0
LAYER
  5
40
330
2
100
AcDbSymbolTableRecord
100
AcDbLayerTableRecord
  2
寸法
 70
     0
 62
     7
  6
Continuous
370
    -3
390
F
347
3E
  0
LAYER
  5
41
330
2
100
AcDbSymbolTableRecord
100
AcDbLayerTableRecord
  2
0-0
 70
     0
 62
     7
  6
Continuous
370
    -3
390
F
347
3E
  0
ENDTAB
  0
TABLE
  2
STYLE
  5
3
330
0
100
AcDbSymbolTable
 70
     1
  0
STYLE
  5
11
330
3
100
AcDbSymbolTableRecord
100
AcDbTextStyleTableRecord
  2
Standard
 70
     0
 40
0.0
 41
1.0
 50
0.0
 71
     0
 42
2.5
  3
txt
  4

  0
ENDTAB
  0
TABLE
  2
VIEW
  5
6
330
0
100
AcDbSymbolTable
 70
     0
  0
ENDTAB
  0
TABLE
  2
UCS
  5
7
330
0
100
AcDbSymbolTable
 70
     0
  0
ENDTAB
  0
TABLE
  2
APPID
  5
9
330
0
100
AcDbSymbolTable
 70
     1
  0
APPID
  5
12
330
9
100
AcDbSymbolTableRecord
100
AcDbRegAppTableRecord
  2
ACAD
 70
     0
  0
ENDTAB
  0
TABLE
  2
DIMSTYLE
  5
A
330
0
100
AcDbSymbolTable
 70
     1
100
AcDbDimStyleTable
  0
DIMSTYLE
105
27
330
A
100
AcDbSymbolTableRecord
100
AcDbDimStyleTableRecord
  2
ISO-25
 70
     0
 41
2.5
 42
0.625
 43
3.75
 44
1.25
 73
     0
 74
     0
 77
     1
 78
     8
140
2.5
141
2.5
143
0.03937007874016
147
0.625
171
     3
172
     1
178
     0
271
     2
272
     2
274
     3
278
    44
283
     0
284
     8
340
11
  0
ENDTAB
  0
TABLE
  2
BLOCK_RECORD
  5
1
330
0
100
AcDbSymbolTable
 70
     1
  0
BLOCK_RECORD
  5
1F
330
1
100
AcDbSymbolTableRecord
100
AcDbBlockTableRecord
  2
*Model_Space
340
22
 70
     0
280
     1
281
     0
  0
BLOCK_RECORD
  5
1B
330
1
100
AcDbSymbolTableRecord
100
AcDbBlockTableRecord
  2
*Paper_Space
340
1E
 70
     0
280
     1
281
     0
  0
BLOCK_RECORD
  5
23
330
1
100
AcDbSymbolTableRecord
100
AcDbBlockTableRecord
  2
*Paper_Space0
340
26
 70
     0
280
     1
281
     0
  0
ENDTAB
  0
ENDSEC
  0
SECTION
  2
BLOCKS
  0
BLOCK
  5
20
330
1F
100
AcDbEntity
  8
0
100
AcDbBlockBegin
  2
*Model_Space
 70
     0
 10
0.0
 20
0.0
 30
0.0
  3
*Model_Space
  1

  0
ENDBLK
  5
21
330
1F
100
AcDbEntity
  8
0
100
AcDbBlockEnd
  0
BLOCK
  5
1C
330
1B
100
AcDbEntity
 67
     1
  8
0
100
AcDbBlockBegin
  2
*Paper_Space
 70
     0
 10
0.0
 20
0.0
 30
0.0
  3
*Paper_Space
  1

  0
ENDBLK
  5
1D
330
1B
100
AcDbEntity
 67
     1
  8
0
100
AcDbBlockEnd
  0
BLOCK
  5
24
330
23
100
AcDbEntity
  8
0
100
AcDbBlockBegin
  2
*Paper_Space0
 70
     0
 10
0.0
 20
0.0
 30
0.0
  3
*Paper_Space0
  1

  0
ENDBLK
  5
25
330
23
100
AcDbEntity
  8
0
100
AcDbBlockEnd
  0
ENDSEC
  0
SECTION
  2
ENTITIES
  0
LINE
  5
42
330
1F
100
AcDbEntity
  8
寸法
  6
Continuous
 62
   120
370
     5
100
AcDbLine
 10
-1613.198675496689
 20
1079.169349309323
 30
0.0
 11
-1613.198675496689
 21
-967.8306506906769
 31
0.0
  0
LWPOLYLINE
  5
43
330
1F
100
AcDbEntity
  8
寸法
  6
Continuous
 62
     7
370
     9
100
AcDbPolyline
 90
        4
 70
     1
 43
3.0
 10
-1611.698675496689
 20
1079.169349309323
 42
0.4142135623731
 10
-1613.198675496689
 20
1080.669349309323
 42
0.4142135623731
 10
-1614.698675496689
 20
1079.169349309323
 42
0.4142135623731
 10
-1613.198675496689
 20
1077.669349309324
 42
0.4142135623731
  0
LWPOLYLINE
  5
44
330
1F
100
AcDbEntity
  8
寸法
  6
Continuous
 62
     7
370
     9
100
AcDbPolyline
 90
        4
 70
     1
 43
3.0
 10
-1611.698675496689
 20
-967.8306506906769
 42
0.4142135623731
 10
-1613.198675496689
 20
-966.330650690677
 42
0.4142135623731
 10
-1614.698675496689
 20
-967.8306506906769
 42
0.4142135623731
 10
-1613.198675496689
 20
-969.3306506906767
 42
0.4142135623731
  0
LWPOLYLINE
  5
45
330
1F
100
AcDbEntity
  8
寸法
  6
Continuous
 62
     7
370
     9
100
AcDbPolyline
 90
        4
 70
     1
 43
3.0
 10
-1411.698675496691
 20
-947.8306506906763
 42
0.4142135623731
 10
-1413.198675496691
 20
-946.3306506906763
 42
0.4142135623731
 10
-1414.698675496691
 20
-947.8306506906763
 42
0.4142135623731
 10
-1413.198675496691
 20
-949.3306506906763
 42
0.4142135623731
  0
LINE
  5
46
330
1F
100
AcDbEntity
  8
寸法
  6
Continuous
 62
   120
370
     5
100
AcDbLine
 10
-1413.198675496691
 20
1035.169349309323
 30
0.0
 11
-1413.198675496691
 21
-947.8306506906763
 31
0.0
  0
LWPOLYLINE
  5
47
330
1F
100
AcDbEntity
  8
寸法
  6
Continuous
 62
     7
370
     9
100
AcDbPolyline
 90
        4
 70
     1
 43
3.0
 10
-1411.698675496691
 20
1035.169349309323
 42
0.4142135623731
 10
-1413.198675496691
 20
1036.669349309323
 42
0.4142135623731
 10
-1414.698675496691
 20
1035.169349309323
 42
0.4142135623731
 10
-1413.198675496691
 20
1033.669349309323
 42
0.4142135623731
  0
LINE
  5
48
330
1F
100
AcDbEntity
  8
寸法
  6
Continuous
 62
   120
370
     5
100
AcDbLine
 10
-1613.198675496689
 20
1079.169349309323
 30
0.0
 11
-1213.19867549669
 21
1079.169349309323
 31
0.0
  0
LINE
  5
49
330
1F
100
AcDbEntity
  8
寸法
  6
Continuous
 62
   120
370
     5
100
AcDbLine
 10
-1613.198675496689
 20
-967.8306506906769
 30
0.0
 11
-1213.19867549669
 21
-967.8306506906769
 31
0.0
  0
LINE
  5
4A
330
1F
100
AcDbEntity
  8
寸法
  6
Continuous
 62
   120
370
     5
100
AcDbLine
 10
-1413.198675496691
 20
-947.8306506906763
 30
0.0
 11
-1213.19867549669
 21
-947.8306506906763
 31
0.0
  0
LINE
  5
4B
330
1F
100
AcDbEntity
  8
寸法
  6
Continuous
 62
   120
370
     5
100
AcDbLine
 10
-1413.198675496691
 20
1035.169349309323
 30
0.0
 11
-1213.19867549669
 21
1035.169349309323
 31
0.0
  0
LINE
  5
4C
330
1F
100
AcDbEntity
  8
寸法
  6
Continuous
 62
   120
370
     5
100
AcDbLine
 10
450.8013245033117
 20
-1417.830650690677
 30
0.0
 11
450.8013245033117
 21
-1017.830650690677
 31
0.0
  0
LINE
  5
4D
330
1F
100
AcDbEntity
  8
寸法
  6
Continuous
 62
   120
370
     5
100
AcDbLine
 10
480.8013245033117
 20
-1617.830650690676
 30
0.0
 11
480.8013245033117
 21
-1017.830650690677
 31
0.0
  0
LINE
  5
4E
330
1F
100
AcDbEntity
  8
寸法
  6
Continuous
 62
   120
370
     5
100
AcDbLine
 10
450.8013245033117
 20
-1417.830650690677
 30
0.0
 11
-1133.198675496689
 21
-1417.830650690677
 31
0.0
  0
LINE
  5
4F
330
1F
100
AcDbEntity
  8
寸法
  6
Continuous
 62
   120
370
     5
100
AcDbLine
 10
-1133.198675496689
 20
-1417.830650690677
 30
0.0
 11
-1133.198675496689
 21
-1017.830650690677
 31
0.0
  0
LINE
  5
50
330
1F
100
AcDbEntity
  8
寸法
  6
Continuous
 62
   120
370
     5
100
AcDbLine
 10
480.8013245033117
 20
-1617.830650690676
 30
0.0
 11
-1163.198675496689
 21
-1617.830650690676
 31
0.0
  0
LINE
  5
51
330
1F
100
AcDbEntity
  8
寸法
  6
Continuous
 62
   120
370
     5
100
AcDbLine
 10
-1163.198675496689
 20
-1617.830650690676
 30
0.0
 11
-1163.198675496689
 21
-1017.830650690677
 31
0.0
  0
LINE
  5
52
330
1F
100
AcDbEntity
  8
寸法
  6
Continuous
 62
   120
370
     5
100
AcDbLine
 10
-356.1986754966886
 20
-1217.830650690677
 30
0.0
 11
-356.1986754966886
 21
-1017.830650690677
 31
0.0
  0
LINE
  5
53
330
1F
100
AcDbEntity
  8
寸法
  6
Continuous
 62
   120
370
     5
100
AcDbLine
 10
453.8013245033114
 20
-1217.830650690677
 30
0.0
 11
453.8013245033114
 21
-1017.830650690677
 31
0.0
  0
LINE
  5
54
330
1F
100
AcDbEntity
  8
寸法
  6
Continuous
 62
   120
370
     5
100
AcDbLine
 10
453.8013245033114
 20
-1217.830650690677
 30
0.0
 11
-356.1986754966886
 21
-1217.830650690677
 31
0.0
  0
LWPOLYLINE
  5
55
330
1F
100
AcDbEntity
  8
寸法
  6
Continuous
 62
     7
370
     9
100
AcDbPolyline
 90
        4
 70
     1
 43
3.0
 10
452.3013245033117
 20
-1417.830650690677
 42
0.4142135623731
 10
450.8013245033117
 20
-1416.330650690677
 42
0.4142135623731
 10
449.3013245033116
 20
-1417.830650690677
 42
0.4142135623731
 10
450.8013245033117
 20
-1419.330650690677
 42
0.4142135623731
  0
LWPOLYLINE
  5
56
330
1F
100
AcDbEntity
  8
寸法
  6
Continuous
 62
     7
370
     9
100
AcDbPolyline
 90
        4
 70
     1
 43
3.0
 10
482.3013245033117
 20
-1617.830650690676
 42
0.4142135623731
 10
480.8013245033117
 20
-1616.330650690677
 42
0.4142135623731
 10
479.3013245033116
 20
-1617.830650690676
 42
0.4142135623731
 10
480.8013245033117
 20
-1619.330650690676
 42
0.4142135623731
  0
LWPOLYLINE
  5
57
330
1F
100
AcDbEntity
  8
寸法
  6
Continuous
 62
     7
370
     9
100
AcDbPolyline
 90
        4
 70
     1
 43
3.0
 10
-1131.69867549669
 20
-1417.830650690677
 42
0.4142135623731
 10
-1133.198675496689
 20
-1416.330650690677
 42
0.4142135623731
 10
-1134.698675496689
 20
-1417.830650690677
 42
0.4142135623731
 10
-1133.198675496689
 20
-1419.330650690677
 42
0.4142135623731
  0
LWPOLYLINE
  5
58
330
1F
100
AcDbEntity
  8
寸法
  6
Continuous
 62
     7
370
     9
100
AcDbPolyline
 90
        4
 70
     1
 43
3.0
 10
-1161.69867549669
 20
-1617.830650690676
 42
0.4142135623731
 10
-1163.198675496689
 20
-1616.330650690677
 42
0.4142135623731
 10
-1164.698675496689
 20
-1617.830650690676
 42
0.4142135623731
 10
-1163.198675496689
 20
-1619.330650690676
 42
0.4142135623731
  0
LWPOLYLINE
  5
59
330
1F
100
AcDbEntity
  8
寸法
  6
Continuous
 62
     7
370
     9
100
AcDbPolyline
 90
        4
 70
     1
 43
3.0
 10
-354.6986754966885
 20
-1217.830650690677
 42
0.4142135623731
 10
-356.1986754966886
 20
-1216.330650690677
 42
0.4142135623731
 10
-357.6986754966886
 20
-1217.830650690677
 42
0.4142135623731
 10
-356.1986754966886
 20
-1219.330650690677
 42
0.4142135623731
  0
LWPOLYLINE
  5
5A
330
1F
100
AcDbEntity
  8
寸法
  6
Continuous
 62
     7
370
     9
100
AcDbPolyline
 90
        4
 70
     1
 43
3.0
 10
455.3013245033114
 20
-1217.830650690677
 42
0.4142135623731
 10
453.8013245033114
 20
-1216.330650690677
 42
0.4142135623731
 10
452.3013245033114
 20
-1217.830650690677
 42
0.4142135623731
 10
453.8013245033114
 20
-1219.330650690677
 42
0.4142135623731
  0
MTEXT
  5
5B
330
1F
100
AcDbEntity
  8
寸法
  6
Continuous
 62
     7
370
    70
100
AcDbMText
 10
-1628.198675496689
 20
-159.5056506906767
 30
0.0
 40
57.14999999999999
 41
412.5
 46
0.0
 71
     7
 72
     1
  1
{\fＭＳ ゴシック|b0|i0|c128|p49;枠外＝2,047}
 11
6.123031769111886E-17
 21
1.0
 31
0.0
 73
     1
 44
1.0
  0
MTEXT
  5
5C
330
1F
100
AcDbEntity
  8
寸法
  6
Continuous
 62
     7
370
    70
100
AcDbMText
 10
-1428.198675496691
 20
-165.5056506906763
 30
0.0
 40
57.14999999999999
 41
412.5
 46
0.0
 71
     7
 72
     1
  1
{\fＭＳ ゴシック|b0|i0|c128|p49;ＤＨ＝1,983}
 11
6.123031769111886E-17
 21
1.0
 31
0.0
 73
     1
 44
1.0
  0
MTEXT
  5
5D
330
1F
100
AcDbEntity
  8
寸法
  6
Continuous
 62
     7
370
   211
100
AcDbMText
 10
-119.9486754966885
 20
-1211.755650690677
 30
0.0
 40
57.15
 41
337.5
 46
0.0
 71
     7
 72
     1
  1
{\fＭＳ ゴシック|b0|i0|c128|p49;ＤＷ＝810}
 73
     1
 44
1.0
  0
MTEXT
  5
5E
330
1F
100
AcDbEntity
  8
寸法
  6
Continuous
 62
     7
370
   211
100
AcDbMText
 10
-547.4486754966903
 20
-1411.755650690677
 30
0.0
 40
57.14999999999999
 41
412.5
 46
0.0
 71
     7
 72
     1
  1
{\fＭＳ ゴシック|b0|i0|c128|p49;枠内＝1,584}
 73
     1
 44
1.0
  0
MTEXT
  5
5F
330
1F
100
AcDbEntity
  8
寸法
  6
Continuous
 62
     7
370
   211
100
AcDbMText
 10
-547.4486754966903
 20
-1611.755650690676
 30
0.0
 40
57.14999999999999
 41
412.5
 46
0.0
 71
     7
 72
     1
  1
{\fＭＳ ゴシック|b0|i0|c128|p49;枠外＝1,644}
 73
     1
 44
1.0
  0
ARC
  5
60
330
1F
100
AcDbEntity
  8
0-0
  6
Continuous
 62
    92
370
    13
100
AcDbCircle
 10
422.301324503312
 20
69.169349309323
 30
0.0
 40
1.5
100
AcDbArc
 50
0.0
 51
90.0
  0
LINE
  5
61
330
1F
100
AcDbEntity
  8
0-0
  6
Continuous
 62
    92
370
    13
100
AcDbLine
 10
383.3013245033125
 20
70.66934930932334
 30
0.0
 11
422.301324503312
 21
70.66934930932334
 31
0.0
  0
ARC
  5
62
330
1F
100
AcDbEntity
  8
0-0
  6
Continuous
 62
    92
370
    13
100
AcDbCircle
 10
383.3013245033125
 20
69.169349309323
 30
0.0
 40
1.5
100
AcDbArc
 50
89.99999999999999
 51
180.0
  0
LINE
  5
63
330
1F
100
AcDbEntity
  8
0-0
  6
Continuous
 62
    92
370
    13
100
AcDbLine
 10
381.8013245033121
 20
-49.83065069067621
 30
0.0
 11
381.8013245033121
 21
69.169349309323
 31
0.0
  0
ARC
  5
64
330
1F
100
AcDbEntity
  8
0-0
  6
Continuous
 62
    92
370
    13
100
AcDbCircle
 10
383.3013245033125
 20
-49.83065069067621
 30
0.0
 40
1.5
100
AcDbArc
 50
180.0
 51
270.0
  0
LINE
  5
65
330
1F
100
AcDbEntity
  8
0-0
  6
Continuous
 62
    92
370
    13
100
AcDbLine
 10
422.301324503312
 20
-51.33065069067825
 30
0.0
 11
383.3013245033125
 21
-51.33065069067825
 31
0.0
  0
LINE
  5
66
330
1F
100
AcDbEntity
  8
0-0
  6
Continuous
 62
    92
370
    13
100
AcDbLine
 10
423.8013245033114
 20
-49.83065069067621
 30
0.0
 11
423.8013245033114
 21
69.169349309323
 31
0.0
  0
ARC
  5
67
330
1F
100
AcDbEntity
  8
0-0
  6
Continuous
 62
    92
370
    13
100
AcDbCircle
 10
422.301324503312
 20
-49.83065069067621
 30
0.0
 40
1.5
100
AcDbArc
 50
270.0
 51
0.0
  0
ARC
  5
68
330
1F
100
AcDbEntity
  8
0-0
  6
Continuous
 62
     7
370
     9
100
AcDbCircle
 10
402.8013245033118
 20
-19.93065069067612
 30
0.0
 40
15.0
100
AcDbArc
 50
180.0
 51
0.0
  0
ARC
  5
69
330
1F
100
AcDbEntity
  8
0-0
  6
Continuous
 62
     7
370
     9
100
AcDbCircle
 10
402.8013245033118
 20
39.2693493093212
 30
0.0
 40
15.0
100
AcDbArc
 50
0.0
 51
180.0
  0
LINE
  5
6A
330
1F
100
AcDbEntity
  8
0-0
  6
Continuous
 62
     7
370
     9
100
AcDbLine
 10
387.8013245033118
 20
-19.93065069067612
 30
0.0
 11
387.8013245033118
 21
39.2693493093212
 31
0.0
  0
LINE
  5
6B
330
1F
100
AcDbEntity
  8
0-0
  6
Continuous
 62
     7
370
     9
100
AcDbLine
 10
417.8013245033118
 20
39.2693493093212
 30
0.0
 11
417.8013245033118
 21
-19.93065069067612
 31
0.0
  0
LINE
  5
6C
330
1F
100
AcDbEntity
  8
0-0
  6
Continuous
 62
    92
370
    13
100
AcDbLine
 10
-1163.198675496689
 20
-967.8306506906769
 30
0.0
 11
480.8013245033117
 21
-967.8306506906769
 31
0.0
  0
LINE
  5
6D
330
1F
100
AcDbEntity
  8
0-0
  6
Continuous
 62
    92
370
    13
100
AcDbLine
 10
-1133.198675496689
 20
-952.8306506906769
 30
0.0
 11
450.8013245033117
 21
-952.8306506906769
 31
0.0
  0
LINE
  5
6E
330
1F
100
AcDbEntity
  8
0-0
  6
JWW_DASHED1
 62
   120
370
     5
100
AcDbLine
 10
450.8013245033117
 20
-947.8306506906763
 30
0.0
 11
453.8013245033114
 21
-947.8306506906763
 31
0.0
  0
LINE
  5
6F
330
1F
100
AcDbEntity
  8
0-0
  6
JWW_DASHED1
 62
   120
370
     5
100
AcDbLine
 10
453.8013245033114
 20
-947.8306506906763
 30
0.0
 11
453.8013245033114
 21
1035.169349309323
 31
0.0
  0
LINE
  5
70
330
1F
100
AcDbEntity
  8
0-0
  6
JWW_DASHED1
 62
   120
370
     5
100
AcDbLine
 10
450.8013245033117
 20
1035.169349309323
 30
0.0
 11
453.8013245033114
 21
1035.169349309323
 31
0.0
  0
LINE
  5
71
330
1F
100
AcDbEntity
  8
0-0
  6
JWW_DASHED1
 62
   120
370
     5
100
AcDbLine
 10
-356.1986754966886
 20
-952.8306506906769
 30
0.0
 11
-356.1986754966886
 21
1049.169349309323
 31
0.0
  0
LINE
  5
72
330
1F
100
AcDbEntity
  8
0-0
  6
JWW_DASHED1
 62
   120
370
     5
100
AcDbLine
 10
-326.1986754966886
 20
-952.8306506906769
 30
0.0
 11
-326.1986754966886
 21
1049.169349309323
 31
0.0
  0
LINE
  5
73
330
1F
100
AcDbEntity
  8
0-0
  6
JWW_DASHED1
 62
   120
370
     5
100
AcDbLine
 10
-356.1986754966886
 20
1035.169349309323
 30
0.0
 11
-356.1986754966886
 21
1031.169349309323
 31
0.0
  0
LINE
  5
74
330
1F
100
AcDbEntity
  8
0-0
  6
Continuous
 62
    92
370
    13
100
AcDbLine
 10
-356.1986754966886
 20
1035.169349309323
 30
0.0
 11
-356.1986754966886
 21
-947.8306506906763
 31
0.0
  0
LINE
  5
75
330
1F
100
AcDbEntity
  8
0-0
  6
Continuous
 62
    92
370
    13
100
AcDbLine
 10
450.8013245033117
 20
1035.169349309323
 30
0.0
 11
-356.1986754966886
 21
1035.169349309323
 31
0.0
  0
LINE
  5
76
330
1F
100
AcDbEntity
  8
0-0
  6
Continuous
 62
    92
370
    13
100
AcDbLine
 10
450.8013245033117
 20
-947.8306506906763
 30
0.0
 11
-356.1986754966886
 21
-947.8306506906763
 31
0.0
  0
LINE
  5
77
330
1F
100
AcDbEntity
  8
0-0
  6
Continuous
 62
    92
370
    13
100
AcDbLine
 10
-1163.198675496689
 20
-967.8306506906769
 30
0.0
 11
-1163.198675496689
 21
1079.169349309323
 31
0.0
  0
LINE
  5
78
330
1F
100
AcDbEntity
  8
0-0
  6
Continuous
 62
    92
370
    13
100
AcDbLine
 10
-1133.198675496689
 20
-967.8306506906769
 30
0.0
 11
-1133.198675496689
 21
1049.169349309323
 31
0.0
  0
LINE
  5
79
330
1F
100
AcDbEntity
  8
0-0
  6
Continuous
 62
    92
370
    13
100
AcDbLine
 10
480.8013245033117
 20
-967.8306506906769
 30
0.0
 11
480.8013245033117
 21
1079.169349309323
 31
0.0
  0
LINE
  5
7A
330
1F
100
AcDbEntity
  8
0-0
  6
Continuous
 62
    92
370
    13
100
AcDbLine
 10
450.8013245033117
 20
-967.8306506906769
 30
0.0
 11
450.8013245033117
 21
1049.169349309323
 31
0.0
  0
LINE
  5
7B
330
1F
100
AcDbEntity
  8
0-0
  6
Continuous
 62
    92
370
    13
100
AcDbLine
 10
-1133.198675496689
 20
1049.169349309323
 30
0.0
 11
450.8013245033117
 21
1049.169349309323
 31
0.0
  0
LINE
  5
7C
330
1F
100
AcDbEntity
  8
0-0
  6
Continuous
 62
    92
370
    13
100
AcDbLine
 10
-1163.198675496689
 20
1079.169349309323
 30
0.0
 11
480.8013245033117
 21
1079.169349309323
 31
0.0
  0
LINE
  5
7D
330
1F
100
AcDbEntity
  8
0-0
  6
Continuous
 62
   120
370
     5
100
AcDbLine
 10
-65.19867549668845
 20
892.169349309329
 30
0.0
 11
162.8013245033114
 21
892.169349309329
 31
0.0
  0
LINE
  5
7E
330
1F
100
AcDbEntity
  8
0-0
  6
Continuous
 62
   120
370
     5
100
AcDbLine
 10
-65.19867549668845
 20
882.1693493093288
 30
0.0
 11
162.8013245033114
 21
882.1693493093288
 31
0.0
  0
LINE
  5
7F
330
1F
100
AcDbEntity
  8
0-0
  6
Continuous
 62
   120
370
     5
100
AcDbLine
 10
-65.19867549668845
 20
866.1693493093288
 30
0.0
 11
162.8013245033114
 21
866.1693493093288
 31
0.0
  0
LINE
  5
80
330
1F
100
AcDbEntity
  8
0-0
  6
Continuous
 62
   120
370
     5
100
AcDbLine
 10
-65.19867549668845
 20
856.1693493093286
 30
0.0
 11
162.8013245033114
 21
856.1693493093286
 31
0.0
  0
LINE
  5
81
330
1F
100
AcDbEntity
  8
0-0
  6
Continuous
 62
   120
370
     5
100
AcDbLine
 10
-65.19867549668845
 20
840.1693493093286
 30
0.0
 11
162.8013245033114
 21
840.1693493093286
 31
0.0
  0
LINE
  5
82
330
1F
100
AcDbEntity
  8
0-0
  6
Continuous
 62
   120
370
     5
100
AcDbLine
 10
-65.19867549668845
 20
830.1693493093284
 30
0.0
 11
162.8013245033114
 21
830.1693493093284
 31
0.0
  0
LINE
  5
83
330
1F
100
AcDbEntity
  8
0-0
  6
Continuous
 62
   120
370
     5
100
AcDbLine
 10
-65.19867549668845
 20
814.1693493093284
 30
0.0
 11
162.8013245033114
 21
814.1693493093284
 31
0.0
  0
LINE
  5
84
330
1F
100
AcDbEntity
  8
0-0
  6
Continuous
 62
   120
370
     5
100
AcDbLine
 10
-65.19867549668845
 20
804.1693493093281
 30
0.0
 11
162.8013245033114
 21
804.1693493093281
 31
0.0
  0
LINE
  5
85
330
1F
100
AcDbEntity
  8
0-0
  6
Continuous
 62
   120
370
     5
100
AcDbLine
 10
-65.19867549668845
 20
788.169349309329
 30
0.0
 11
162.8013245033114
 21
788.169349309329
 31
0.0
  0
LINE
  5
86
330
1F
100
AcDbEntity
  8
0-0
  6
Continuous
 62
   120
370
     5
100
AcDbLine
 10
-65.19867549668845
 20
778.1693493093279
 30
0.0
 11
162.8013245033114
 21
778.1693493093279
 31
0.0
  0
LINE
  5
87
330
1F
100
AcDbEntity
  8
0-0
  6
Continuous
 62
   120
370
     5
100
AcDbLine
 10
-65.19867549668845
 20
762.1693493093288
 30
0.0
 11
162.8013245033114
 21
762.1693493093288
 31
0.0
  0
LINE
  5
88
330
1F
100
AcDbEntity
  8
0-0
  6
Continuous
 62
   120
370
     5
100
AcDbLine
 10
-65.19867549668845
 20
752.1693493093285
 30
0.0
 11
162.8013245033114
 21
752.1693493093285
 31
0.0
  0
LINE
  5
89
330
1F
100
AcDbEntity
  8
0-0
  6
Continuous
 62
   120
370
     5
100
AcDbLine
 10
-65.19867549668845
 20
736.1693493093286
 30
0.0
 11
162.8013245033114
 21
736.1693493093286
 31
0.0
  0
LINE
  5
8A
330
1F
100
AcDbEntity
  8
0-0
  6
Continuous
 62
   120
370
     5
100
AcDbLine
 10
-65.19867549668845
 20
726.1693493093283
 30
0.0
 11
162.8013245033114
 21
726.1693493093283
 31
0.0
  0
LINE
  5
8B
330
1F
100
AcDbEntity
  8
0-0
  6
Continuous
 62
   120
370
     5
100
AcDbLine
 10
-65.19867549668845
 20
710.1693493093284
 30
0.0
 11
162.8013245033114
 21
710.1693493093284
 31
0.0
  0
LINE
  5
8C
330
1F
100
AcDbEntity
  8
0-0
  6
Continuous
 62
   120
370
     5
100
AcDbLine
 10
-65.19867549668845
 20
700.169349309328
 30
0.0
 11
162.8013245033114
 21
700.169349309328
 31
0.0
  0
LINE
  5
8D
330
1F
100
AcDbEntity
  8
0-0
  6
Continuous
 62
   120
370
     5
100
AcDbLine
 10
-65.19867549668845
 20
684.1693493093281
 30
0.0
 11
162.8013245033114
 21
684.1693493093281
 31
0.0
  0
LINE
  5
8E
330
1F
100
AcDbEntity
  8
0-0
  6
Continuous
 62
   120
370
     5
100
AcDbLine
 10
-65.19867549668845
 20
674.1693493093287
 30
0.0
 11
162.8013245033114
 21
674.1693493093287
 31
0.0
  0
LINE
  5
8F
330
1F
100
AcDbEntity
  8
0-0
  6
Continuous
 62
   120
370
     5
100
AcDbLine
 10
-65.19867549668845
 20
658.1693493093279
 30
0.0
 11
162.8013245033114
 21
658.1693493093279
 31
0.0
  0
LINE
  5
90
330
1F
100
AcDbEntity
  8
0-0
  6
Continuous
 62
   120
370
     5
100
AcDbLine
 10
-65.19867549668845
 20
648.1693493093285
 30
0.0
 11
162.8013245033114
 21
648.1693493093285
 31
0.0
  0
LINE
  5
91
330
1F
100
AcDbEntity
  8
0-0
  6
Continuous
 62
   120
370
     5
100
AcDbLine
 10
-65.19867549668845
 20
632.1693493093277
 30
0.0
 11
162.8013245033114
 21
632.1693493093277
 31
0.0
  0
LINE
  5
92
330
1F
100
AcDbEntity
  8
0-0
  6
Continuous
 62
   120
370
     5
100
AcDbLine
 10
-65.19867549668845
 20
622.1693493093283
 30
0.0
 11
162.8013245033114
 21
622.1693493093283
 31
0.0
  0
LINE
  5
93
330
1F
100
AcDbEntity
  8
0-0
  6
Continuous
 62
   120
370
     5
100
AcDbLine
 10
-65.19867549668845
 20
606.1693493093275
 30
0.0
 11
162.8013245033114
 21
606.1693493093275
 31
0.0
  0
LINE
  5
94
330
1F
100
AcDbEntity
  8
0-0
  6
Continuous
 62
   120
370
     5
100
AcDbLine
 10
-65.19867549668845
 20
596.169349309328
 30
0.0
 11
162.8013245033114
 21
596.169349309328
 31
0.0
  0
LINE
  5
95
330
1F
100
AcDbEntity
  8
0-0
  6
Continuous
 62
   120
370
     5
100
AcDbLine
 10
-65.19867549668845
 20
580.169349309328
 30
0.0
 11
162.8013245033114
 21
580.169349309328
 31
0.0
  0
LINE
  5
96
330
1F
100
AcDbEntity
  8
0-0
  6
Continuous
 62
   120
370
     5
100
AcDbLine
 10
-65.19867549668845
 20
570.1693493093278
 30
0.0
 11
162.8013245033114
 21
570.1693493093278
 31
0.0
  0
LINE
  5
97
330
1F
100
AcDbEntity
  8
0-0
  6
Continuous
 62
   120
370
     5
100
AcDbLine
 10
-65.19867549668845
 20
554.1693493093278
 30
0.0
 11
162.8013245033114
 21
554.1693493093278
 31
0.0
  0
LINE
  5
98
330
1F
100
AcDbEntity
  8
0-0
  6
Continuous
 62
   120
370
     5
100
AcDbLine
 10
-65.19867549668845
 20
544.1693493093276
 30
0.0
 11
162.8013245033114
 21
544.1693493093276
 31
0.0
  0
LINE
  5
99
330
1F
100
AcDbEntity
  8
0-0
  6
Continuous
 62
   120
370
     5
100
AcDbLine
 10
-65.19867549668845
 20
528.1693493093276
 30
0.0
 11
162.8013245033114
 21
528.1693493093276
 31
0.0
  0
LINE
  5
9A
330
1F
100
AcDbEntity
  8
0-0
  6
Continuous
 62
   120
370
     5
100
AcDbLine
 10
-65.19867549668845
 20
518.1693493093273
 30
0.0
 11
162.8013245033114
 21
518.1693493093273
 31
0.0
  0
LINE
  5
9B
330
1F
100
AcDbEntity
  8
0-0
  6
Continuous
 62
   120
370
     5
100
AcDbLine
 10
-65.19867549668845
 20
502.1693493093273
 30
0.0
 11
162.8013245033114
 21
502.1693493093273
 31
0.0
  0
LINE
  5
9C
330
1F
100
AcDbEntity
  8
0-0
  6
Continuous
 62
   120
370
     5
100
AcDbLine
 10
-65.19867549668845
 20
492.1693493093271
 30
0.0
 11
162.8013245033114
 21
492.1693493093271
 31
0.0
  0
LINE
  5
9D
330
1F
100
AcDbEntity
  8
0-0
  6
Continuous
 62
   120
370
     5
100
AcDbLine
 10
-65.19867549668845
 20
476.1693493093271
 30
0.0
 11
162.8013245033114
 21
476.1693493093271
 31
0.0
  0
LINE
  5
9E
330
1F
100
AcDbEntity
  8
0-0
  6
Continuous
 62
   120
370
     5
100
AcDbLine
 10
-65.19867549668845
 20
466.1693493093269
 30
0.0
 11
162.8013245033114
 21
466.1693493093269
 31
0.0
  0
LINE
  5
9F
330
1F
100
AcDbEntity
  8
0-0
  6
Continuous
 62
   120
370
     5
100
AcDbLine
 10
-65.19867549668845
 20
450.1693493093269
 30
0.0
 11
162.8013245033114
 21
450.1693493093269
 31
0.0
  0
LINE
  5
A0
330
1F
100
AcDbEntity
  8
0-0
  6
Continuous
 62
   120
370
     5
100
AcDbLine
 10
-65.19867549668845
 20
440.1693493093275
 30
0.0
 11
162.8013245033114
 21
440.1693493093275
 31
0.0
  0
LINE
  5
A1
330
1F
100
AcDbEntity
  8
0-0
  6
Continuous
 62
   120
370
     5
100
AcDbLine
 10
-65.19867549668845
 20
424.1693493093267
 30
0.0
 11
162.8013245033114
 21
424.1693493093267
 31
0.0
  0
LINE
  5
A2
330
1F
100
AcDbEntity
  8
0-0
  6
Continuous
 62
   120
370
     5
100
AcDbLine
 10
-65.19867549668845
 20
414.1693493093272
 30
0.0
 11
162.8013245033114
 21
414.1693493093272
 31
0.0
  0
LINE
  5
A3
330
1F
100
AcDbEntity
  8
0-0
  6
Continuous
 62
   120
370
     5
100
AcDbLine
 10
-65.19867549668845
 20
398.1693493093273
 30
0.0
 11
162.8013245033114
 21
398.1693493093273
 31
0.0
  0
LINE
  5
A4
330
1F
100
AcDbEntity
  8
0-0
  6
Continuous
 62
   120
370
     5
100
AcDbLine
 10
-65.19867549668845
 20
388.169349309327
 30
0.0
 11
162.8013245033114
 21
388.169349309327
 31
0.0
  0
LINE
  5
A5
330
1F
100
AcDbEntity
  8
0-0
  6
Continuous
 62
   120
370
     5
100
AcDbLine
 10
-65.19867549668845
 20
372.1693493093271
 30
0.0
 11
162.8013245033114
 21
372.1693493093271
 31
0.0
  0
LINE
  5
A6
330
1F
100
AcDbEntity
  8
0-0
  6
Continuous
 62
   120
370
     5
100
AcDbLine
 10
-65.19867549668845
 20
362.1693493093268
 30
0.0
 11
162.8013245033114
 21
362.1693493093268
 31
0.0
  0
LINE
  5
A7
330
1F
100
AcDbEntity
  8
0-0
  6
Continuous
 62
   120
370
     5
100
AcDbLine
 10
-65.19867549668845
 20
346.1693493093269
 30
0.0
 11
162.8013245033114
 21
346.1693493093269
 31
0.0
  0
LINE
  5
A8
330
1F
100
AcDbEntity
  8
0-0
  6
Continuous
 62
   120
370
     5
100
AcDbLine
 10
-65.19867549668845
 20
336.1693493093275
 30
0.0
 11
162.8013245033114
 21
336.1693493093275
 31
0.0
  0
LINE
  5
A9
330
1F
100
AcDbEntity
  8
0-0
  6
Continuous
 62
   120
370
     5
100
AcDbLine
 10
-65.19867549668845
 20
320.1693493093267
 30
0.0
 11
162.8013245033114
 21
320.1693493093267
 31
0.0
  0
LINE
  5
AA
330
1F
100
AcDbEntity
  8
0-0
  6
Continuous
 62
   120
370
     5
100
AcDbLine
 10
-65.19867549668845
 20
310.1693493093272
 30
0.0
 11
162.8013245033114
 21
310.1693493093272
 31
0.0
  0
LINE
  5
AB
330
1F
100
AcDbEntity
  8
0-0
  6
Continuous
 62
   120
370
     5
100
AcDbLine
 10
-65.19867549668845
 20
294.1693493093264
 30
0.0
 11
162.8013245033114
 21
294.1693493093264
 31
0.0
  0
LINE
  5
AC
330
1F
100
AcDbEntity
  8
0-0
  6
Continuous
 62
   120
370
     5
100
AcDbLine
 10
-65.19867549668845
 20
284.169349309327
 30
0.0
 11
162.8013245033114
 21
284.169349309327
 31
0.0
  0
LINE
  5
AD
330
1F
100
AcDbEntity
  8
0-0
  6
Continuous
 62
   120
370
     5
100
AcDbLine
 10
-65.19867549668845
 20
268.169349309327
 30
0.0
 11
162.8013245033114
 21
268.169349309327
 31
0.0
  0
LINE
  5
AE
330
1F
100
AcDbEntity
  8
0-0
  6
Continuous
 62
   120
370
     5
100
AcDbLine
 10
-65.19867549668845
 20
258.1693493093268
 30
0.0
 11
162.8013245033114
 21
258.1693493093268
 31
0.0
  0
LINE
  5
AF
330
1F
100
AcDbEntity
  8
0-0
  6
Continuous
 62
   120
370
     5
100
AcDbLine
 10
-65.19867549668845
 20
242.1693493093268
 30
0.0
 11
162.8013245033114
 21
242.1693493093268
 31
0.0
  0
LINE
  5
B0
330
1F
100
AcDbEntity
  8
0-0
  6
Continuous
 62
   120
370
     5
100
AcDbLine
 10
-65.19867549668845
 20
232.1693493093265
 30
0.0
 11
162.8013245033114
 21
232.1693493093265
 31
0.0
  0
LINE
  5
B1
330
1F
100
AcDbEntity
  8
0-0
  6
Continuous
 62
   120
370
     5
100
AcDbLine
 10
-65.19867549668845
 20
216.1693493093266
 30
0.0
 11
162.8013245033114
 21
216.1693493093266
 31
0.0
  0
LINE
  5
B2
330
1F
100
AcDbEntity
  8
0-0
  6
Continuous
 62
   120
370
     5
100
AcDbLine
 10
-65.19867549668845
 20
206.1693493093263
 30
0.0
 11
162.8013245033114
 21
206.1693493093263
 31
0.0
  0
LINE
  5
B3
330
1F
100
AcDbEntity
  8
0-0
  6
Continuous
 62
   120
370
     5
100
AcDbLine
 10
-65.19867549668845
 20
190.1693493093263
 30
0.0
 11
162.8013245033114
 21
190.1693493093263
 31
0.0
  0
LINE
  5
B4
330
1F
100
AcDbEntity
  8
0-0
  6
Continuous
 62
   120
370
     5
100
AcDbLine
 10
-65.19867549668845
 20
180.1693493093261
 30
0.0
 11
162.8013245033114
 21
180.1693493093261
 31
0.0
  0
LINE
  5
B5
330
1F
100
AcDbEntity
  8
0-0
  6
Continuous
 62
   120
370
     5
100
AcDbLine
 10
-65.19867549668845
 20
164.169349309327
 30
0.0
 11
162.8013245033114
 21
164.169349309327
 31
0.0
  0
LINE
  5
B6
330
1F
100
AcDbEntity
  8
0-0
  6
Continuous
 62
   120
370
     5
100
AcDbLine
 10
-65.19867549668845
 20
154.1693493093258
 30
0.0
 11
162.8013245033114
 21
154.1693493093258
 31
0.0
  0
LINE
  5
B7
330
1F
100
AcDbEntity
  8
0-0
  6
Continuous
 62
   120
370
     5
100
AcDbLine
 10
-65.19867549668845
 20
138.1693493093267
 30
0.0
 11
162.8013245033114
 21
138.1693493093267
 31
0.0
  0
LINE
  5
B8
330
1F
100
AcDbEntity
  8
0-0
  6
Continuous
 62
   120
370
     5
100
AcDbLine
 10
-65.19867549668845
 20
128.1693493093265
 30
0.0
 11
162.8013245033114
 21
128.1693493093265
 31
0.0
  0
LINE
  5
B9
330
1F
100
AcDbEntity
  8
0-0
  6
Continuous
 62
   120
370
     5
100
AcDbLine
 10
-65.19867549668845
 20
112.1693493093265
 30
0.0
 11
162.8013245033114
 21
112.1693493093265
 31
0.0
  0
LINE
  5
BA
330
1F
100
AcDbEntity
  8
0-0
  6
Continuous
 62
   120
370
     5
100
AcDbLine
 10
-65.19867549668845
 20
102.1693493093262
 30
0.0
 11
162.8013245033114
 21
102.1693493093262
 31
0.0
  0
LINE
  5
BB
330
1F
100
AcDbEntity
  8
0-0
  6
Continuous
 62
   120
370
     5
100
AcDbLine
 10
-65.19867549668845
 20
86.1693493093263
 30
0.0
 11
162.8013245033114
 21
86.1693493093263
 31
0.0
  0
LINE
  5
BC
330
1F
100
AcDbEntity
  8
0-0
  6
Continuous
 62
   120
370
     5
100
AcDbLine
 10
-65.19867549668845
 20
76.16934930932601
 30
0.0
 11
162.8013245033114
 21
76.16934930932601
 31
0.0
  0
LINE
  5
BD
330
1F
100
AcDbEntity
  8
0-0
  6
Continuous
 62
   120
370
     5
100
AcDbLine
 10
-65.19867549668845
 20
60.16934930932607
 30
0.0
 11
162.8013245033114
 21
60.16934930932607
 31
0.0
  0
LINE
  5
BE
330
1F
100
AcDbEntity
  8
0-0
  6
Continuous
 62
   120
370
     5
100
AcDbLine
 10
-65.19867549668845
 20
50.16934930932578
 30
0.0
 11
162.8013245033114
 21
50.16934930932578
 31
0.0
  0
LINE
  5
BF
330
1F
100
AcDbEntity
  8
0-0
  6
Continuous
 62
   120
370
     5
100
AcDbLine
 10
-65.19867549668845
 20
34.16934930932584
 30
0.0
 11
162.8013245033114
 21
34.16934930932584
 31
0.0
  0
LINE
  5
C0
330
1F
100
AcDbEntity
  8
0-0
  6
Continuous
 62
   120
370
     5
100
AcDbLine
 10
-65.19867549668845
 20
24.16934930932555
 30
0.0
 11
162.8013245033114
 21
24.16934930932555
 31
0.0
  0
LINE
  5
C1
330
1F
100
AcDbEntity
  8
0-0
  6
Continuous
 62
   120
370
     5
100
AcDbLine
 10
-65.19867549668845
 20
8.16934930932561
 30
0.0
 11
162.8013245033114
 21
8.16934930932561
 31
0.0
  0
LINE
  5
C2
330
1F
100
AcDbEntity
  8
0-0
  6
Continuous
 62
   120
370
     5
100
AcDbLine
 10
-65.19867549668845
 20
-1.830650690674673
 30
0.0
 11
162.8013245033114
 21
-1.830650690674673
 31
0.0
  0
LINE
  5
C3
330
1F
100
AcDbEntity
  8
0-0
  6
Continuous
 62
   120
370
     5
100
AcDbLine
 10
-65.19867549668845
 20
-17.83065069067462
 30
0.0
 11
162.8013245033114
 21
-17.83065069067462
 31
0.0
  0
LINE
  5
C4
330
1F
100
AcDbEntity
  8
0-0
  6
Continuous
 62
   120
370
     5
100
AcDbLine
 10
-65.19867549668845
 20
-27.83065069067405
 30
0.0
 11
162.8013245033114
 21
-27.83065069067405
 31
0.0
  0
LINE
  5
C5
330
1F
100
AcDbEntity
  8
0-0
  6
Continuous
 62
   120
370
     5
100
AcDbLine
 10
-65.19867549668845
 20
-43.83065069067484
 30
0.0
 11
162.8013245033114
 21
-43.83065069067484
 31
0.0
  0
LINE
  5
C6
330
1F
100
AcDbEntity
  8
0-0
  6
Continuous
 62
   120
370
     5
100
AcDbLine
 10
-65.19867549668845
 20
-53.83065069067428
 30
0.0
 11
162.8013245033114
 21
-53.83065069067428
 31
0.0
  0
LINE
  5
C7
330
1F
100
AcDbEntity
  8
0-0
  6
Continuous
 62
   120
370
     5
100
AcDbLine
 10
-65.19867549668845
 20
-69.83065069067422
 30
0.0
 11
162.8013245033114
 21
-69.83065069067422
 31
0.0
  0
LINE
  5
C8
330
1F
100
AcDbEntity
  8
0-0
  6
Continuous
 62
   120
370
     5
100
AcDbLine
 10
-65.19867549668845
 20
-79.8306506906745
 30
0.0
 11
162.8013245033114
 21
-79.8306506906745
 31
0.0
  0
LINE
  5
C9
330
1F
100
AcDbEntity
  8
0-0
  6
Continuous
 62
   120
370
     5
100
AcDbLine
 10
-65.19867549668845
 20
-95.83065069067445
 30
0.0
 11
162.8013245033114
 21
-95.83065069067445
 31
0.0
  0
LINE
  5
CA
330
1F
100
AcDbEntity
  8
0-0
  6
Continuous
 62
   120
370
     5
100
AcDbLine
 10
-65.19867549668845
 20
-105.8306506906747
 30
0.0
 11
162.8013245033114
 21
-105.8306506906747
 31
0.0
  0
LINE
  5
CB
330
1F
100
AcDbEntity
  8
0-0
  6
Continuous
 62
   120
370
     5
100
AcDbLine
 10
-65.19867549668845
 20
-121.8306506906747
 30
0.0
 11
162.8013245033114
 21
-121.8306506906747
 31
0.0
  0
LINE
  5
CC
330
1F
100
AcDbEntity
  8
0-0
  6
Continuous
 62
   120
370
     5
100
AcDbLine
 10
-65.19867549668845
 20
-131.830650690675
 30
0.0
 11
162.8013245033114
 21
-131.830650690675
 31
0.0
  0
LINE
  5
CD
330
1F
100
AcDbEntity
  8
0-0
  6
Continuous
 62
   120
370
     5
100
AcDbLine
 10
-65.19867549668845
 20
-147.8306506906749
 30
0.0
 11
162.8013245033114
 21
-147.8306506906749
 31
0.0
  0
LINE
  5
CE
330
1F
100
AcDbEntity
  8
0-0
  6
Continuous
 62
   120
370
     5
100
AcDbLine
 10
-65.19867549668845
 20
-157.8306506906752
 30
0.0
 11
162.8013245033114
 21
-157.8306506906752
 31
0.0
  0
LINE
  5
CF
330
1F
100
AcDbEntity
  8
0-0
  6
Continuous
 62
   120
370
     5
100
AcDbLine
 10
-65.19867549668845
 20
-173.8306506906751
 30
0.0
 11
162.8013245033114
 21
-173.8306506906751
 31
0.0
  0
LINE
  5
D0
330
1F
100
AcDbEntity
  8
0-0
  6
Continuous
 62
   120
370
     5
100
AcDbLine
 10
-65.19867549668845
 20
-183.8306506906746
 30
0.0
 11
162.8013245033114
 21
-183.8306506906746
 31
0.0
  0
LINE
  5
D1
330
1F
100
AcDbEntity
  8
0-0
  6
Continuous
 62
   120
370
     5
100
AcDbLine
 10
-65.19867549668845
 20
-199.8306506906745
 30
0.0
 11
162.8013245033114
 21
-199.8306506906745
 31
0.0
  0
LINE
  5
D2
330
1F
100
AcDbEntity
  8
0-0
  6
Continuous
 62
   120
370
     5
100
AcDbLine
 10
-65.19867549668845
 20
-209.8306506906748
 30
0.0
 11
162.8013245033114
 21
-209.8306506906748
 31
0.0
  0
LINE
  5
D3
330
1F
100
AcDbEntity
  8
0-0
  6
Continuous
 62
   120
370
     5
100
AcDbLine
 10
-65.19867549668845
 20
-225.8306506906747
 30
0.0
 11
162.8013245033114
 21
-225.8306506906747
 31
0.0
  0
LINE
  5
D4
330
1F
100
AcDbEntity
  8
0-0
  6
Continuous
 62
   120
370
     5
100
AcDbLine
 10
-65.19867549668845
 20
-235.830650690675
 30
0.0
 11
162.8013245033114
 21
-235.830650690675
 31
0.0
  0
LINE
  5
D5
330
1F
100
AcDbEntity
  8
0-0
  6
Continuous
 62
   120
370
     5
100
AcDbLine
 10
-65.19867549668845
 20
-251.830650690675
 30
0.0
 11
162.8013245033114
 21
-251.830650690675
 31
0.0
  0
LINE
  5
D6
330
1F
100
AcDbEntity
  8
0-0
  6
Continuous
 62
   120
370
     5
100
AcDbLine
 10
-65.19867549668845
 20
-261.8306506906753
 30
0.0
 11
162.8013245033114
 21
-261.8306506906753
 31
0.0
  0
LINE
  5
D7
330
1F
100
AcDbEntity
  8
0-0
  6
Continuous
 62
   120
370
     5
100
AcDbLine
 10
-65.19867549668845
 20
-277.8306506906752
 30
0.0
 11
162.8013245033114
 21
-277.8306506906752
 31
0.0
  0
LINE
  5
D8
330
1F
100
AcDbEntity
  8
0-0
  6
Continuous
 62
   120
370
     5
100
AcDbLine
 10
-65.19867549668845
 20
-287.8306506906746
 30
0.0
 11
162.8013245033114
 21
-287.8306506906746
 31
0.0
  0
LINE
  5
D9
330
1F
100
AcDbEntity
  8
0-0
  6
Continuous
 62
   120
370
     5
100
AcDbLine
 10
-65.19867549668845
 20
-303.8306506906754
 30
0.0
 11
162.8013245033114
 21
-303.8306506906754
 31
0.0
  0
LINE
  5
DA
330
1F
100
AcDbEntity
  8
0-0
  6
Continuous
 62
   120
370
     5
100
AcDbLine
 10
-65.19867549668845
 20
-313.8306506906748
 30
0.0
 11
162.8013245033114
 21
-313.8306506906748
 31
0.0
  0
LINE
  5
DB
330
1F
100
AcDbEntity
  8
0-0
  6
Continuous
 62
   120
370
     5
100
AcDbLine
 10
-65.19867549668845
 20
-329.8306506906748
 30
0.0
 11
162.8013245033114
 21
-329.8306506906748
 31
0.0
  0
LINE
  5
DC
330
1F
100
AcDbEntity
  8
0-0
  6
Continuous
 62
   120
370
     5
100
AcDbLine
 10
-65.19867549668845
 20
-339.830650690675
 30
0.0
 11
162.8013245033114
 21
-339.830650690675
 31
0.0
  0
LINE
  5
DD
330
1F
100
AcDbEntity
  8
0-0
  6
Continuous
 62
   120
370
     5
100
AcDbLine
 10
-65.19867549668845
 20
-355.830650690675
 30
0.0
 11
162.8013245033114
 21
-355.830650690675
 31
0.0
  0
LINE
  5
DE
330
1F
100
AcDbEntity
  8
0-0
  6
Continuous
 62
   120
370
     5
100
AcDbLine
 10
-65.19867549668845
 20
-365.8306506906753
 30
0.0
 11
162.8013245033114
 21
-365.8306506906753
 31
0.0
  0
LINE
  5
DF
330
1F
100
AcDbEntity
  8
0-0
  6
Continuous
 62
   120
370
     5
100
AcDbLine
 10
-65.19867549668845
 20
-381.8306506906753
 30
0.0
 11
162.8013245033114
 21
-381.8306506906753
 31
0.0
  0
LINE
  5
E0
330
1F
100
AcDbEntity
  8
0-0
  6
Continuous
 62
   120
370
     5
100
AcDbLine
 10
-65.19867549668845
 20
-391.8306506906755
 30
0.0
 11
162.8013245033114
 21
-391.8306506906755
 31
0.0
  0
LINE
  5
E1
330
1F
100
AcDbEntity
  8
0-0
  6
Continuous
 62
   120
370
     5
100
AcDbLine
 10
-65.19867549668845
 20
-407.8306506906763
 30
0.0
 11
162.8013245033114
 21
-407.8306506906763
 31
0.0
  0
LINE
  5
E2
330
1F
100
AcDbEntity
  8
0-0
  6
Continuous
 62
   120
370
     5
100
AcDbLine
 10
-65.19867549668845
 20
-417.8306506906757
 30
0.0
 11
162.8013245033114
 21
-417.8306506906757
 31
0.0
  0
LINE
  5
E3
330
1F
100
AcDbEntity
  8
0-0
  6
Continuous
 62
   120
370
     5
100
AcDbLine
 10
-65.19867549668845
 20
-433.8306506906757
 30
0.0
 11
162.8013245033114
 21
-433.8306506906757
 31
0.0
  0
LINE
  5
E4
330
1F
100
AcDbEntity
  8
0-0
  6
Continuous
 62
   120
370
     5
100
AcDbLine
 10
-65.19867549668845
 20
-443.830650690676
 30
0.0
 11
162.8013245033114
 21
-443.830650690676
 31
0.0
  0
LINE
  5
E5
330
1F
100
AcDbEntity
  8
0-0
  6
Continuous
 62
   120
370
     5
100
AcDbLine
 10
-65.19867549668845
 20
-459.830650690675
 30
0.0
 11
162.8013245033114
 21
-459.830650690675
 31
0.0
  0
LINE
  5
E6
330
1F
100
AcDbEntity
  8
0-0
  6
Continuous
 62
   120
370
     5
100
AcDbLine
 10
-65.19867549668845
 20
-469.8306506906762
 30
0.0
 11
162.8013245033114
 21
-469.8306506906762
 31
0.0
  0
LINE
  5
E7
330
1F
100
AcDbEntity
  8
0-0
  6
Continuous
 62
   120
370
     5
100
AcDbLine
 10
-65.19867549668845
 20
-485.8306506906753
 30
0.0
 11
162.8013245033114
 21
-485.8306506906753
 31
0.0
  0
LINE
  5
E8
330
1F
100
AcDbEntity
  8
0-0
  6
Continuous
 62
   120
370
     5
100
AcDbLine
 10
-65.19867549668845
 20
-495.8306506906756
 30
0.0
 11
162.8013245033114
 21
-495.8306506906756
 31
0.0
  0
LINE
  5
E9
330
1F
100
AcDbEntity
  8
0-0
  6
Continuous
 62
   120
370
     5
100
AcDbLine
 10
-65.19867549668845
 20
-511.8306506906755
 30
0.0
 11
162.8013245033114
 21
-511.8306506906755
 31
0.0
  0
LINE
  5
EA
330
1F
100
AcDbEntity
  8
0-0
  6
Continuous
 62
   120
370
     5
100
AcDbLine
 10
-65.19867549668845
 20
-521.8306506906758
 30
0.0
 11
162.8013245033114
 21
-521.8306506906758
 31
0.0
  0
LINE
  5
EB
330
1F
100
AcDbEntity
  8
0-0
  6
Continuous
 62
   120
370
     5
100
AcDbLine
 10
-65.19867549668845
 20
-537.8306506906757
 30
0.0
 11
162.8013245033114
 21
-537.8306506906757
 31
0.0
  0
LINE
  5
EC
330
1F
100
AcDbEntity
  8
0-0
  6
Continuous
 62
   120
370
     5
100
AcDbLine
 10
-65.19867549668845
 20
-547.8306506906761
 30
0.0
 11
162.8013245033114
 21
-547.8306506906761
 31
0.0
  0
LINE
  5
ED
330
1F
100
AcDbEntity
  8
0-0
  6
Continuous
 62
   120
370
     5
100
AcDbLine
 10
-65.19867549668845
 20
-563.830650690676
 30
0.0
 11
162.8013245033114
 21
-563.830650690676
 31
0.0
  0
LINE
  5
EE
330
1F
100
AcDbEntity
  8
0-0
  6
Continuous
 62
   120
370
     5
100
AcDbLine
 10
-65.19867549668845
 20
-573.8306506906763
 30
0.0
 11
162.8013245033114
 21
-573.8306506906763
 31
0.0
  0
LINE
  5
EF
330
1F
100
AcDbEntity
  8
0-0
  6
Continuous
 62
   120
370
     5
100
AcDbLine
 10
-65.19867549668845
 20
-589.8306506906762
 30
0.0
 11
162.8013245033114
 21
-589.8306506906762
 31
0.0
  0
LINE
  5
F0
330
1F
100
AcDbEntity
  8
0-0
  6
Continuous
 62
   120
370
     5
100
AcDbLine
 10
-65.19867549668845
 20
-599.8306506906765
 30
0.0
 11
162.8013245033114
 21
-599.8306506906765
 31
0.0
  0
LINE
  5
F1
330
1F
100
AcDbEntity
  8
0-0
  6
Continuous
 62
   120
370
     5
100
AcDbLine
 10
-65.19867549668845
 20
-615.8306506906764
 30
0.0
 11
162.8013245033114
 21
-615.8306506906764
 31
0.0
  0
LINE
  5
F2
330
1F
100
AcDbEntity
  8
0-0
  6
Continuous
 62
   120
370
     5
100
AcDbLine
 10
-65.19867549668845
 20
-625.8306506906758
 30
0.0
 11
162.8013245033114
 21
-625.8306506906758
 31
0.0
  0
LINE
  5
F3
330
1F
100
AcDbEntity
  8
0-0
  6
Continuous
 62
   120
370
     5
100
AcDbLine
 10
-65.19867549668845
 20
-641.8306506906766
 30
0.0
 11
162.8013245033114
 21
-641.8306506906766
 31
0.0
  0
LINE
  5
F4
330
1F
100
AcDbEntity
  8
0-0
  6
Continuous
 62
   120
370
     5
100
AcDbLine
 10
-65.19867549668845
 20
-651.830650690677
 30
0.0
 11
162.8013245033114
 21
-651.830650690677
 31
0.0
  0
LINE
  5
F5
330
1F
100
AcDbEntity
  8
0-0
  6
Continuous
 62
   120
370
     5
100
AcDbLine
 10
-65.19867549668845
 20
-667.8306506906761
 30
0.0
 11
162.8013245033114
 21
-667.8306506906761
 31
0.0
  0
LINE
  5
F6
330
1F
100
AcDbEntity
  8
0-0
  6
Continuous
 62
   120
370
     5
100
AcDbLine
 10
-65.19867549668845
 20
-781.8306506906772
 30
0.0
 11
162.8013245033114
 21
-781.8306506906772
 31
0.0
  0
LINE
  5
F7
330
1F
100
AcDbEntity
  8
0-0
  6
Continuous
 62
   120
370
     5
100
AcDbLine
 10
-65.19867549668845
 20
-771.830650690677
 30
0.0
 11
162.8013245033114
 21
-771.830650690677
 31
0.0
  0
LINE
  5
F8
330
1F
100
AcDbEntity
  8
0-0
  6
Continuous
 62
   120
370
     5
100
AcDbLine
 10
-65.19867549668845
 20
-755.830650690677
 30
0.0
 11
162.8013245033114
 21
-755.830650690677
 31
0.0
  0
LINE
  5
F9
330
1F
100
AcDbEntity
  8
0-0
  6
Continuous
 62
   120
370
     5
100
AcDbLine
 10
-65.19867549668845
 20
-745.8306506906767
 30
0.0
 11
162.8013245033114
 21
-745.8306506906767
 31
0.0
  0
LINE
  5
FA
330
1F
100
AcDbEntity
  8
0-0
  6
Continuous
 62
   120
370
     5
100
AcDbLine
 10
-65.19867549668845
 20
-729.8306506906767
 30
0.0
 11
162.8013245033114
 21
-729.8306506906767
 31
0.0
  0
LINE
  5
FB
330
1F
100
AcDbEntity
  8
0-0
  6
Continuous
 62
   120
370
     5
100
AcDbLine
 10
-65.19867549668845
 20
-677.8306506906763
 30
0.0
 11
162.8013245033114
 21
-677.8306506906763
 31
0.0
  0
LINE
  5
FC
330
1F
100
AcDbEntity
  8
0-0
  6
Continuous
 62
   120
370
     5
100
AcDbLine
 10
-65.19867549668845
 20
-693.8306506906763
 30
0.0
 11
162.8013245033114
 21
-693.8306506906763
 31
0.0
  0
LINE
  5
FD
330
1F
100
AcDbEntity
  8
0-0
  6
Continuous
 62
   120
370
     5
100
AcDbLine
 10
-65.19867549668845
 20
-703.8306506906765
 30
0.0
 11
162.8013245033114
 21
-703.8306506906765
 31
0.0
  0
LINE
  5
FE
330
1F
100
AcDbEntity
  8
0-0
  6
Continuous
 62
   120
370
     5
100
AcDbLine
 10
-65.19867549668845
 20
-719.8306506906765
 30
0.0
 11
162.8013245033114
 21
-719.8306506906765
 31
0.0
  0
LINE
  5
FF
330
1F
100
AcDbEntity
  8
0-0
  6
Continuous
 62
   120
370
     5
100
AcDbLine
 10
-60.19867549668874
 20
-771.830650690677
 30
0.0
 11
-60.19867549668874
 21
-778.249703188754
 31
0.0
  0
LINE
  5
100
330
1F
100
AcDbEntity
  8
0-0
  6
Continuous
 62
   120
370
     5
100
AcDbLine
 10
-65.19867549668845
 20
-778.249703188754
 30
0.0
 11
-60.19867549668874
 21
-778.249703188754
 31
0.0
  0
LINE
  5
101
330
1F
100
AcDbEntity
  8
0-0
  6
Continuous
 62
   120
370
     5
100
AcDbLine
 10
-60.19867549668874
 20
-745.8306506906767
 30
0.0
 11
-60.19867549668874
 21
-752.2497031887547
 31
0.0
  0
LINE
  5
102
330
1F
100
AcDbEntity
  8
0-0
  6
Continuous
 62
   120
370
     5
100
AcDbLine
 10
-65.19867549668845
 20
-752.2497031887547
 30
0.0
 11
-60.19867549668874
 21
-752.2497031887547
 31
0.0
  0
LINE
  5
103
330
1F
100
AcDbEntity
  8
0-0
  6
Continuous
 62
   120
370
     5
100
AcDbLine
 10
-60.19867549668874
 20
-719.8306506906765
 30
0.0
 11
-60.19867549668874
 21
-726.2497031887544
 31
0.0
  0
LINE
  5
104
330
1F
100
AcDbEntity
  8
0-0
  6
Continuous
 62
   120
370
     5
100
AcDbLine
 10
-65.19867549668845
 20
-726.2497031887544
 30
0.0
 11
-60.19867549668874
 21
-726.2497031887544
 31
0.0
  0
LINE
  5
105
330
1F
100
AcDbEntity
  8
0-0
  6
Continuous
 62
   120
370
     5
100
AcDbLine
 10
-60.19867549668874
 20
-693.8306506906763
 30
0.0
 11
-60.19867549668874
 21
-700.2497031887542
 31
0.0
  0
LINE
  5
106
330
1F
100
AcDbEntity
  8
0-0
  6
Continuous
 62
   120
370
     5
100
AcDbLine
 10
-65.19867549668845
 20
-700.2497031887542
 30
0.0
 11
-60.19867549668874
 21
-700.2497031887542
 31
0.0
  0
LINE
  5
107
330
1F
100
AcDbEntity
  8
0-0
  6
Continuous
 62
   120
370
     5
100
AcDbLine
 10
-60.19867549668874
 20
-667.8306506906761
 30
0.0
 11
-60.19867549668874
 21
-674.249703188754
 31
0.0
  0
LINE
  5
108
330
1F
100
AcDbEntity
  8
0-0
  6
Continuous
 62
   120
370
     5
100
AcDbLine
 10
-65.19867549668845
 20
-674.249703188754
 30
0.0
 11
-60.19867549668874
 21
-674.249703188754
 31
0.0
  0
LINE
  5
109
330
1F
100
AcDbEntity
  8
0-0
  6
Continuous
 62
   120
370
     5
100
AcDbLine
 10
-60.19867549668874
 20
-641.8306506906766
 30
0.0
 11
-60.19867549668874
 21
-648.2497031887538
 31
0.0
  0
LINE
  5
10A
330
1F
100
AcDbEntity
  8
0-0
  6
Continuous
 62
   120
370
     5
100
AcDbLine
 10
-65.19867549668845
 20
-648.2497031887538
 30
0.0
 11
-60.19867549668874
 21
-648.2497031887538
 31
0.0
  0
LINE
  5
10B
330
1F
100
AcDbEntity
  8
0-0
  6
Continuous
 62
   120
370
     5
100
AcDbLine
 10
-60.19867549668874
 20
-615.8306506906764
 30
0.0
 11
-60.19867549668874
 21
-622.2497031887543
 31
0.0
  0
LINE
  5
10C
330
1F
100
AcDbEntity
  8
0-0
  6
Continuous
 62
   120
370
     5
100
AcDbLine
 10
-65.19867549668845
 20
-622.2497031887543
 30
0.0
 11
-60.19867549668874
 21
-622.2497031887543
 31
0.0
  0
LINE
  5
10D
330
1F
100
AcDbEntity
  8
0-0
  6
Continuous
 62
   120
370
     5
100
AcDbLine
 10
-60.19867549668874
 20
-589.8306506906762
 30
0.0
 11
-60.19867549668874
 21
-596.2497031887541
 31
0.0
  0
LINE
  5
10E
330
1F
100
AcDbEntity
  8
0-0
  6
Continuous
 62
   120
370
     5
100
AcDbLine
 10
-65.19867549668845
 20
-596.2497031887541
 30
0.0
 11
-60.19867549668874
 21
-596.2497031887541
 31
0.0
  0
LINE
  5
10F
330
1F
100
AcDbEntity
  8
0-0
  6
Continuous
 62
   120
370
     5
100
AcDbLine
 10
-60.19867549668874
 20
-563.830650690676
 30
0.0
 11
-60.19867549668874
 21
-570.2497031887539
 31
0.0
  0
LINE
  5
110
330
1F
100
AcDbEntity
  8
0-0
  6
Continuous
 62
   120
370
     5
100
AcDbLine
 10
-65.19867549668845
 20
-570.2497031887539
 30
0.0
 11
-60.19867549668874
 21
-570.2497031887539
 31
0.0
  0
LINE
  5
111
330
1F
100
AcDbEntity
  8
0-0
  6
Continuous
 62
   120
370
     5
100
AcDbLine
 10
-60.19867549668874
 20
-537.8306506906757
 30
0.0
 11
-60.19867549668874
 21
-544.2497031887536
 31
0.0
  0
LINE
  5
112
330
1F
100
AcDbEntity
  8
0-0
  6
Continuous
 62
   120
370
     5
100
AcDbLine
 10
-65.19867549668845
 20
-544.2497031887536
 30
0.0
 11
-60.19867549668874
 21
-544.2497031887536
 31
0.0
  0
LINE
  5
113
330
1F
100
AcDbEntity
  8
0-0
  6
Continuous
 62
   120
370
     5
100
AcDbLine
 10
-60.19867549668874
 20
-511.8306506906755
 30
0.0
 11
-60.19867549668874
 21
-518.2497031887534
 31
0.0
  0
LINE
  5
114
330
1F
100
AcDbEntity
  8
0-0
  6
Continuous
 62
   120
370
     5
100
AcDbLine
 10
-65.19867549668845
 20
-518.2497031887534
 30
0.0
 11
-60.19867549668874
 21
-518.2497031887534
 31
0.0
  0
LINE
  5
115
330
1F
100
AcDbEntity
  8
0-0
  6
Continuous
 62
   120
370
     5
100
AcDbLine
 10
-60.19867549668874
 20
-485.8306506906753
 30
0.0
 11
-60.19867549668874
 21
-492.2497031887532
 31
0.0
  0
LINE
  5
116
330
1F
100
AcDbEntity
  8
0-0
  6
Continuous
 62
   120
370
     5
100
AcDbLine
 10
-65.19867549668845
 20
-492.2497031887532
 30
0.0
 11
-60.19867549668874
 21
-492.2497031887532
 31
0.0
  0
LINE
  5
117
330
1F
100
AcDbEntity
  8
0-0
  6
Continuous
 62
   120
370
     5
100
AcDbLine
 10
-60.19867549668874
 20
-459.830650690675
 30
0.0
 11
-60.19867549668874
 21
-466.249703188753
 31
0.0
  0
LINE
  5
118
330
1F
100
AcDbEntity
  8
0-0
  6
Continuous
 62
   120
370
     5
100
AcDbLine
 10
-65.19867549668845
 20
-466.249703188753
 30
0.0
 11
-60.19867549668874
 21
-466.249703188753
 31
0.0
  0
LINE
  5
119
330
1F
100
AcDbEntity
  8
0-0
  6
Continuous
 62
   120
370
     5
100
AcDbLine
 10
-60.19867549668874
 20
-433.8306506906757
 30
0.0
 11
-60.19867549668874
 21
-440.2497031887527
 31
0.0
  0
LINE
  5
11A
330
1F
100
AcDbEntity
  8
0-0
  6
Continuous
 62
   120
370
     5
100
AcDbLine
 10
-65.19867549668845
 20
-440.2497031887527
 30
0.0
 11
-60.19867549668874
 21
-440.2497031887527
 31
0.0
  0
LINE
  5
11B
330
1F
100
AcDbEntity
  8
0-0
  6
Continuous
 62
   120
370
     5
100
AcDbLine
 10
-60.19867549668874
 20
-407.8306506906763
 30
0.0
 11
-60.19867549668874
 21
-414.2497031887525
 31
0.0
  0
LINE
  5
11C
330
1F
100
AcDbEntity
  8
0-0
  6
Continuous
 62
   120
370
     5
100
AcDbLine
 10
-65.19867549668845
 20
-414.2497031887525
 30
0.0
 11
-60.19867549668874
 21
-414.2497031887525
 31
0.0
  0
LINE
  5
11D
330
1F
100
AcDbEntity
  8
0-0
  6
Continuous
 62
   120
370
     5
100
AcDbLine
 10
-60.19867549668874
 20
-381.8306506906753
 30
0.0
 11
-60.19867549668874
 21
-388.2497031887532
 31
0.0
  0
LINE
  5
11E
330
1F
100
AcDbEntity
  8
0-0
  6
Continuous
 62
   120
370
     5
100
AcDbLine
 10
-65.19867549668845
 20
-388.2497031887532
 30
0.0
 11
-60.19867549668874
 21
-388.2497031887532
 31
0.0
  0
LINE
  5
11F
330
1F
100
AcDbEntity
  8
0-0
  6
Continuous
 62
   120
370
     5
100
AcDbLine
 10
-60.19867549668874
 20
-355.830650690675
 30
0.0
 11
-60.19867549668874
 21
-362.249703188753
 31
0.0
  0
LINE
  5
120
330
1F
100
AcDbEntity
  8
0-0
  6
Continuous
 62
   120
370
     5
100
AcDbLine
 10
-65.19867549668845
 20
-362.249703188753
 30
0.0
 11
-60.19867549668874
 21
-362.249703188753
 31
0.0
  0
LINE
  5
121
330
1F
100
AcDbEntity
  8
0-0
  6
Continuous
 62
   120
370
     5
100
AcDbLine
 10
-60.19867549668874
 20
-329.8306506906748
 30
0.0
 11
-60.19867549668874
 21
-336.2497031887527
 31
0.0
  0
LINE
  5
122
330
1F
100
AcDbEntity
  8
0-0
  6
Continuous
 62
   120
370
     5
100
AcDbLine
 10
-65.19867549668845
 20
-336.2497031887527
 30
0.0
 11
-60.19867549668874
 21
-336.2497031887527
 31
0.0
  0
LINE
  5
123
330
1F
100
AcDbEntity
  8
0-0
  6
Continuous
 62
   120
370
     5
100
AcDbLine
 10
-60.19867549668874
 20
-303.8306506906754
 30
0.0
 11
-60.19867549668874
 21
-310.2497031887525
 31
0.0
  0
LINE
  5
124
330
1F
100
AcDbEntity
  8
0-0
  6
Continuous
 62
   120
370
     5
100
AcDbLine
 10
-65.19867549668845
 20
-310.2497031887525
 30
0.0
 11
-60.19867549668874
 21
-310.2497031887525
 31
0.0
  0
LINE
  5
125
330
1F
100
AcDbEntity
  8
0-0
  6
Continuous
 62
   120
370
     5
100
AcDbLine
 10
-60.19867549668874
 20
-277.8306506906752
 30
0.0
 11
-60.19867549668874
 21
-284.2497031887523
 31
0.0
  0
LINE
  5
126
330
1F
100
AcDbEntity
  8
0-0
  6
Continuous
 62
   120
370
     5
100
AcDbLine
 10
-65.19867549668845
 20
-284.2497031887523
 30
0.0
 11
-60.19867549668874
 21
-284.2497031887523
 31
0.0
  0
LINE
  5
127
330
1F
100
AcDbEntity
  8
0-0
  6
Continuous
 62
   120
370
     5
100
AcDbLine
 10
-60.19867549668874
 20
-251.830650690675
 30
0.0
 11
-60.19867549668874
 21
-258.2497031887528
 31
0.0
  0
LINE
  5
128
330
1F
100
AcDbEntity
  8
0-0
  6
Continuous
 62
   120
370
     5
100
AcDbLine
 10
-65.19867549668845
 20
-258.2497031887528
 30
0.0
 11
-60.19867549668874
 21
-258.2497031887528
 31
0.0
  0
LINE
  5
129
330
1F
100
AcDbEntity
  8
0-0
  6
Continuous
 62
   120
370
     5
100
AcDbLine
 10
-60.19867549668874
 20
-225.8306506906747
 30
0.0
 11
-60.19867549668874
 21
-232.2497031887526
 31
0.0
  0
LINE
  5
12A
330
1F
100
AcDbEntity
  8
0-0
  6
Continuous
 62
   120
370
     5
100
AcDbLine
 10
-65.19867549668845
 20
-232.2497031887526
 30
0.0
 11
-60.19867549668874
 21
-232.2497031887526
 31
0.0
  0
LINE
  5
12B
330
1F
100
AcDbEntity
  8
0-0
  6
Continuous
 62
   120
370
     5
100
AcDbLine
 10
-60.19867549668874
 20
-199.8306506906745
 30
0.0
 11
-60.19867549668874
 21
-206.2497031887524
 31
0.0
  0
LINE
  5
12C
330
1F
100
AcDbEntity
  8
0-0
  6
Continuous
 62
   120
370
     5
100
AcDbLine
 10
-65.19867549668845
 20
-206.2497031887524
 30
0.0
 11
-60.19867549668874
 21
-206.2497031887524
 31
0.0
  0
LINE
  5
12D
330
1F
100
AcDbEntity
  8
0-0
  6
Continuous
 62
   120
370
     5
100
AcDbLine
 10
-60.19867549668874
 20
-173.8306506906751
 30
0.0
 11
-60.19867549668874
 21
-180.2497031887522
 31
0.0
  0
LINE
  5
12E
330
1F
100
AcDbEntity
  8
0-0
  6
Continuous
 62
   120
370
     5
100
AcDbLine
 10
-65.19867549668845
 20
-180.2497031887522
 30
0.0
 11
-60.19867549668874
 21
-180.2497031887522
 31
0.0
  0
LINE
  5
12F
330
1F
100
AcDbEntity
  8
0-0
  6
Continuous
 62
   120
370
     5
100
AcDbLine
 10
-60.19867549668874
 20
-147.8306506906749
 30
0.0
 11
-60.19867549668874
 21
-154.249703188752
 31
0.0
  0
LINE
  5
130
330
1F
100
AcDbEntity
  8
0-0
  6
Continuous
 62
   120
370
     5
100
AcDbLine
 10
-65.19867549668845
 20
-154.249703188752
 30
0.0
 11
-60.19867549668874
 21
-154.249703188752
 31
0.0
  0
LINE
  5
131
330
1F
100
AcDbEntity
  8
0-0
  6
Continuous
 62
   120
370
     5
100
AcDbLine
 10
-60.19867549668874
 20
-121.8306506906747
 30
0.0
 11
-60.19867549668874
 21
-128.2497031887517
 31
0.0
  0
LINE
  5
132
330
1F
100
AcDbEntity
  8
0-0
  6
Continuous
 62
   120
370
     5
100
AcDbLine
 10
-65.19867549668845
 20
-128.2497031887517
 30
0.0
 11
-60.19867549668874
 21
-128.2497031887517
 31
0.0
  0
LINE
  5
133
330
1F
100
AcDbEntity
  8
0-0
  6
Continuous
 62
   120
370
     5
100
AcDbLine
 10
-60.19867549668874
 20
-95.83065069067445
 30
0.0
 11
-60.19867549668874
 21
-102.2497031887524
 31
0.0
  0
LINE
  5
134
330
1F
100
AcDbEntity
  8
0-0
  6
Continuous
 62
   120
370
     5
100
AcDbLine
 10
-65.19867549668845
 20
-102.2497031887524
 30
0.0
 11
-60.19867549668874
 21
-102.2497031887524
 31
0.0
  0
LINE
  5
135
330
1F
100
AcDbEntity
  8
0-0
  6
Continuous
 62
   120
370
     5
100
AcDbLine
 10
-60.19867549668874
 20
-69.83065069067422
 30
0.0
 11
-60.19867549668874
 21
-76.24970318875214
 31
0.0
  0
LINE
  5
136
330
1F
100
AcDbEntity
  8
0-0
  6
Continuous
 62
   120
370
     5
100
AcDbLine
 10
-65.19867549668845
 20
-76.24970318875214
 30
0.0
 11
-60.19867549668874
 21
-76.24970318875214
 31
0.0
  0
LINE
  5
137
330
1F
100
AcDbEntity
  8
0-0
  6
Continuous
 62
   120
370
     5
100
AcDbLine
 10
-60.19867549668874
 20
-43.83065069067484
 30
0.0
 11
-60.19867549668874
 21
-50.24970318875191
 31
0.0
  0
LINE
  5
138
330
1F
100
AcDbEntity
  8
0-0
  6
Continuous
 62
   120
370
     5
100
AcDbLine
 10
-65.19867549668845
 20
-50.24970318875191
 30
0.0
 11
-60.19867549668874
 21
-50.24970318875191
 31
0.0
  0
LINE
  5
139
330
1F
100
AcDbEntity
  8
0-0
  6
Continuous
 62
   120
370
     5
100
AcDbLine
 10
-60.19867549668874
 20
-17.83065069067462
 30
0.0
 11
-60.19867549668874
 21
-24.24970318875168
 31
0.0
  0
LINE
  5
13A
330
1F
100
AcDbEntity
  8
0-0
  6
Continuous
 62
   120
370
     5
100
AcDbLine
 10
-65.19867549668845
 20
-24.24970318875168
 30
0.0
 11
-60.19867549668874
 21
-24.24970318875168
 31
0.0
  0
LINE
  5
13B
330
1F
100
AcDbEntity
  8
0-0
  6
Continuous
 62
   120
370
     5
100
AcDbLine
 10
-60.19867549668874
 20
8.16934930932561
 30
0.0
 11
-60.19867549668874
 21
1.750296811247694
 31
0.0
  0
LINE
  5
13C
330
1F
100
AcDbEntity
  8
0-0
  6
Continuous
 62
   120
370
     5
100
AcDbLine
 10
-65.19867549668845
 20
1.750296811247694
 30
0.0
 11
-60.19867549668874
 21
1.750296811247694
 31
0.0
  0
LINE
  5
13D
330
1F
100
AcDbEntity
  8
0-0
  6
Continuous
 62
   120
370
     5
100
AcDbLine
 10
-60.19867549668874
 20
34.16934930932584
 30
0.0
 11
-60.19867549668874
 21
27.75029681124792
 31
0.0
  0
LINE
  5
13E
330
1F
100
AcDbEntity
  8
0-0
  6
Continuous
 62
   120
370
     5
100
AcDbLine
 10
-65.19867549668845
 20
27.75029681124792
 30
0.0
 11
-60.19867549668874
 21
27.75029681124792
 31
0.0
  0
LINE
  5
13F
330
1F
100
AcDbEntity
  8
0-0
  6
Continuous
 62
   120
370
     5
100
AcDbLine
 10
-60.19867549668874
 20
60.16934930932607
 30
0.0
 11
-60.19867549668874
 21
53.75029681124815
 31
0.0
  0
LINE
  5
140
330
1F
100
AcDbEntity
  8
0-0
  6
Continuous
 62
   120
370
     5
100
AcDbLine
 10
-65.19867549668845
 20
53.75029681124815
 30
0.0
 11
-60.19867549668874
 21
53.75029681124815
 31
0.0
  0
LINE
  5
141
330
1F
100
AcDbEntity
  8
0-0
  6
Continuous
 62
   120
370
     5
100
AcDbLine
 10
-60.19867549668874
 20
86.1693493093263
 30
0.0
 11
-60.19867549668874
 21
79.75029681124838
 31
0.0
  0
LINE
  5
142
330
1F
100
AcDbEntity
  8
0-0
  6
Continuous
 62
   120
370
     5
100
AcDbLine
 10
-65.19867549668845
 20
79.75029681124838
 30
0.0
 11
-60.19867549668874
 21
79.75029681124838
 31
0.0
  0
LINE
  5
143
330
1F
100
AcDbEntity
  8
0-0
  6
Continuous
 62
   120
370
     5
100
AcDbLine
 10
-60.19867549668874
 20
112.1693493093265
 30
0.0
 11
-60.19867549668874
 21
105.7502968112486
 31
0.0
  0
LINE
  5
144
330
1F
100
AcDbEntity
  8
0-0
  6
Continuous
 62
   120
370
     5
100
AcDbLine
 10
-65.19867549668845
 20
105.7502968112486
 30
0.0
 11
-60.19867549668874
 21
105.7502968112486
 31
0.0
  0
LINE
  5
145
330
1F
100
AcDbEntity
  8
0-0
  6
Continuous
 62
   120
370
     5
100
AcDbLine
 10
-60.19867549668874
 20
138.1693493093267
 30
0.0
 11
-60.19867549668874
 21
131.7502968112488
 31
0.0
  0
LINE
  5
146
330
1F
100
AcDbEntity
  8
0-0
  6
Continuous
 62
   120
370
     5
100
AcDbLine
 10
-65.19867549668845
 20
131.7502968112488
 30
0.0
 11
-60.19867549668874
 21
131.7502968112488
 31
0.0
  0
LINE
  5
147
330
1F
100
AcDbEntity
  8
0-0
  6
Continuous
 62
   120
370
     5
100
AcDbLine
 10
-60.19867549668874
 20
164.169349309327
 30
0.0
 11
-60.19867549668874
 21
157.7502968112491
 31
0.0
  0
LINE
  5
148
330
1F
100
AcDbEntity
  8
0-0
  6
Continuous
 62
   120
370
     5
100
AcDbLine
 10
-65.19867549668845
 20
157.7502968112491
 30
0.0
 11
-60.19867549668874
 21
157.7502968112491
 31
0.0
  0
LINE
  5
149
330
1F
100
AcDbEntity
  8
0-0
  6
Continuous
 62
   120
370
     5
100
AcDbLine
 10
-60.19867549668874
 20
190.1693493093263
 30
0.0
 11
-60.19867549668874
 21
183.7502968112493
 31
0.0
  0
LINE
  5
14A
330
1F
100
AcDbEntity
  8
0-0
  6
Continuous
 62
   120
370
     5
100
AcDbLine
 10
-65.19867549668845
 20
183.7502968112493
 30
0.0
 11
-60.19867549668874
 21
183.7502968112493
 31
0.0
  0
LINE
  5
14B
330
1F
100
AcDbEntity
  8
0-0
  6
Continuous
 62
   120
370
     5
100
AcDbLine
 10
-60.19867549668874
 20
216.1693493093266
 30
0.0
 11
-60.19867549668874
 21
209.7502968112495
 31
0.0
  0
LINE
  5
14C
330
1F
100
AcDbEntity
  8
0-0
  6
Continuous
 62
   120
370
     5
100
AcDbLine
 10
-65.19867549668845
 20
209.7502968112495
 30
0.0
 11
-60.19867549668874
 21
209.7502968112495
 31
0.0
  0
LINE
  5
14D
330
1F
100
AcDbEntity
  8
0-0
  6
Continuous
 62
   120
370
     5
100
AcDbLine
 10
-60.19867549668874
 20
242.1693493093268
 30
0.0
 11
-60.19867549668874
 21
235.7502968112489
 31
0.0
  0
LINE
  5
14E
330
1F
100
AcDbEntity
  8
0-0
  6
Continuous
 62
   120
370
     5
100
AcDbLine
 10
-65.19867549668845
 20
235.7502968112489
 30
0.0
 11
-60.19867549668874
 21
235.7502968112489
 31
0.0
  0
LINE
  5
14F
330
1F
100
AcDbEntity
  8
0-0
  6
Continuous
 62
   120
370
     5
100
AcDbLine
 10
-60.19867549668874
 20
268.169349309327
 30
0.0
 11
-60.19867549668874
 21
261.7502968112491
 31
0.0
  0
LINE
  5
150
330
1F
100
AcDbEntity
  8
0-0
  6
Continuous
 62
   120
370
     5
100
AcDbLine
 10
-65.19867549668845
 20
261.7502968112491
 30
0.0
 11
-60.19867549668874
 21
261.7502968112491
 31
0.0
  0
LINE
  5
151
330
1F
100
AcDbEntity
  8
0-0
  6
Continuous
 62
   120
370
     5
100
AcDbLine
 10
-60.19867549668874
 20
294.1693493093264
 30
0.0
 11
-60.19867549668874
 21
287.7502968112493
 31
0.0
  0
LINE
  5
152
330
1F
100
AcDbEntity
  8
0-0
  6
Continuous
 62
   120
370
     5
100
AcDbLine
 10
-65.19867549668845
 20
287.7502968112493
 30
0.0
 11
-60.19867549668874
 21
287.7502968112493
 31
0.0
  0
LINE
  5
153
330
1F
100
AcDbEntity
  8
0-0
  6
Continuous
 62
   120
370
     5
100
AcDbLine
 10
-60.19867549668874
 20
320.1693493093267
 30
0.0
 11
-60.19867549668874
 21
313.7502968112495
 31
0.0
  0
LINE
  5
154
330
1F
100
AcDbEntity
  8
0-0
  6
Continuous
 62
   120
370
     5
100
AcDbLine
 10
-65.19867549668845
 20
313.7502968112495
 30
0.0
 11
-60.19867549668874
 21
313.7502968112495
 31
0.0
  0
LINE
  5
155
330
1F
100
AcDbEntity
  8
0-0
  6
Continuous
 62
   120
370
     5
100
AcDbLine
 10
-60.19867549668874
 20
346.1693493093269
 30
0.0
 11
-60.19867549668874
 21
339.750296811249
 31
0.0
  0
LINE
  5
156
330
1F
100
AcDbEntity
  8
0-0
  6
Continuous
 62
   120
370
     5
100
AcDbLine
 10
-65.19867549668845
 20
339.750296811249
 30
0.0
 11
-60.19867549668874
 21
339.750296811249
 31
0.0
  0
LINE
  5
157
330
1F
100
AcDbEntity
  8
0-0
  6
Continuous
 62
   120
370
     5
100
AcDbLine
 10
-60.19867549668874
 20
372.1693493093271
 30
0.0
 11
-60.19867549668874
 21
365.7502968112492
 31
0.0
  0
LINE
  5
158
330
1F
100
AcDbEntity
  8
0-0
  6
Continuous
 62
   120
370
     5
100
AcDbLine
 10
-65.19867549668845
 20
365.7502968112492
 30
0.0
 11
-60.19867549668874
 21
365.7502968112492
 31
0.0
  0
LINE
  5
159
330
1F
100
AcDbEntity
  8
0-0
  6
Continuous
 62
   120
370
     5
100
AcDbLine
 10
-60.19867549668874
 20
398.1693493093273
 30
0.0
 11
-60.19867549668874
 21
391.7502968112494
 31
0.0
  0
LINE
  5
15A
330
1F
100
AcDbEntity
  8
0-0
  6
Continuous
 62
   120
370
     5
100
AcDbLine
 10
-65.19867549668845
 20
391.7502968112494
 30
0.0
 11
-60.19867549668874
 21
391.7502968112494
 31
0.0
  0
LINE
  5
15B
330
1F
100
AcDbEntity
  8
0-0
  6
Continuous
 62
   120
370
     5
100
AcDbLine
 10
-60.19867549668874
 20
424.1693493093267
 30
0.0
 11
-60.19867549668874
 21
417.7502968112497
 31
0.0
  0
LINE
  5
15C
330
1F
100
AcDbEntity
  8
0-0
  6
Continuous
 62
   120
370
     5
100
AcDbLine
 10
-65.19867549668845
 20
417.7502968112497
 30
0.0
 11
-60.19867549668874
 21
417.7502968112497
 31
0.0
  0
LINE
  5
15D
330
1F
100
AcDbEntity
  8
0-0
  6
Continuous
 62
   120
370
     5
100
AcDbLine
 10
-60.19867549668874
 20
450.1693493093269
 30
0.0
 11
-60.19867549668874
 21
443.7502968112499
 31
0.0
  0
LINE
  5
15E
330
1F
100
AcDbEntity
  8
0-0
  6
Continuous
 62
   120
370
     5
100
AcDbLine
 10
-65.19867549668845
 20
443.7502968112499
 30
0.0
 11
-60.19867549668874
 21
443.7502968112499
 31
0.0
  0
LINE
  5
15F
330
1F
100
AcDbEntity
  8
0-0
  6
Continuous
 62
   120
370
     5
100
AcDbLine
 10
-60.19867549668874
 20
476.1693493093271
 30
0.0
 11
-60.19867549668874
 21
469.7502968112492
 31
0.0
  0
LINE
  5
160
330
1F
100
AcDbEntity
  8
0-0
  6
Continuous
 62
   120
370
     5
100
AcDbLine
 10
-65.19867549668845
 20
469.7502968112492
 30
0.0
 11
-60.19867549668874
 21
469.7502968112492
 31
0.0
  0
LINE
  5
161
330
1F
100
AcDbEntity
  8
0-0
  6
Continuous
 62
   120
370
     5
100
AcDbLine
 10
-60.19867549668874
 20
502.1693493093273
 30
0.0
 11
-60.19867549668874
 21
495.7502968112494
 31
0.0
  0
LINE
  5
162
330
1F
100
AcDbEntity
  8
0-0
  6
Continuous
 62
   120
370
     5
100
AcDbLine
 10
-65.19867549668845
 20
495.7502968112494
 30
0.0
 11
-60.19867549668874
 21
495.7502968112494
 31
0.0
  0
LINE
  5
163
330
1F
100
AcDbEntity
  8
0-0
  6
Continuous
 62
   120
370
     5
100
AcDbLine
 10
-60.19867549668874
 20
528.1693493093276
 30
0.0
 11
-60.19867549668874
 21
521.7502968112497
 31
0.0
  0
LINE
  5
164
330
1F
100
AcDbEntity
  8
0-0
  6
Continuous
 62
   120
370
     5
100
AcDbLine
 10
-65.19867549668845
 20
521.7502968112497
 30
0.0
 11
-60.19867549668874
 21
521.7502968112497
 31
0.0
  0
LINE
  5
165
330
1F
100
AcDbEntity
  8
0-0
  6
Continuous
 62
   120
370
     5
100
AcDbLine
 10
-60.19867549668874
 20
554.1693493093278
 30
0.0
 11
-60.19867549668874
 21
547.7502968112499
 31
0.0
  0
LINE
  5
166
330
1F
100
AcDbEntity
  8
0-0
  6
Continuous
 62
   120
370
     5
100
AcDbLine
 10
-65.19867549668845
 20
547.7502968112499
 30
0.0
 11
-60.19867549668874
 21
547.7502968112499
 31
0.0
  0
LINE
  5
167
330
1F
100
AcDbEntity
  8
0-0
  6
Continuous
 62
   120
370
     5
100
AcDbLine
 10
-60.19867549668874
 20
580.169349309328
 30
0.0
 11
-60.19867549668874
 21
573.7502968112501
 31
0.0
  0
LINE
  5
168
330
1F
100
AcDbEntity
  8
0-0
  6
Continuous
 62
   120
370
     5
100
AcDbLine
 10
-65.19867549668845
 20
573.7502968112501
 30
0.0
 11
-60.19867549668874
 21
573.7502968112501
 31
0.0
  0
LINE
  5
169
330
1F
100
AcDbEntity
  8
0-0
  6
Continuous
 62
   120
370
     5
100
AcDbLine
 10
-60.19867549668874
 20
606.1693493093275
 30
0.0
 11
-60.19867549668874
 21
599.7502968112503
 31
0.0
  0
LINE
  5
16A
330
1F
100
AcDbEntity
  8
0-0
  6
Continuous
 62
   120
370
     5
100
AcDbLine
 10
-65.19867549668845
 20
599.7502968112503
 30
0.0
 11
-60.19867549668874
 21
599.7502968112503
 31
0.0
  0
LINE
  5
16B
330
1F
100
AcDbEntity
  8
0-0
  6
Continuous
 62
   120
370
     5
100
AcDbLine
 10
-60.19867549668874
 20
632.1693493093277
 30
0.0
 11
-60.19867549668874
 21
625.7502968112506
 31
0.0
  0
LINE
  5
16C
330
1F
100
AcDbEntity
  8
0-0
  6
Continuous
 62
   120
370
     5
100
AcDbLine
 10
-65.19867549668845
 20
625.7502968112506
 30
0.0
 11
-60.19867549668874
 21
625.7502968112506
 31
0.0
  0
LINE
  5
16D
330
1F
100
AcDbEntity
  8
0-0
  6
Continuous
 62
   120
370
     5
100
AcDbLine
 10
-60.19867549668874
 20
658.1693493093279
 30
0.0
 11
-60.19867549668874
 21
651.75029681125
 31
0.0
  0
LINE
  5
16E
330
1F
100
AcDbEntity
  8
0-0
  6
Continuous
 62
   120
370
     5
100
AcDbLine
 10
-65.19867549668845
 20
651.75029681125
 30
0.0
 11
-60.19867549668874
 21
651.75029681125
 31
0.0
  0
LINE
  5
16F
330
1F
100
AcDbEntity
  8
0-0
  6
Continuous
 62
   120
370
     5
100
AcDbLine
 10
-60.19867549668874
 20
684.1693493093281
 30
0.0
 11
-60.19867549668874
 21
677.7502968112502
 31
0.0
  0
LINE
  5
170
330
1F
100
AcDbEntity
  8
0-0
  6
Continuous
 62
   120
370
     5
100
AcDbLine
 10
-65.19867549668845
 20
677.7502968112502
 30
0.0
 11
-60.19867549668874
 21
677.7502968112502
 31
0.0
  0
LINE
  5
171
330
1F
100
AcDbEntity
  8
0-0
  6
Continuous
 62
   120
370
     5
100
AcDbLine
 10
-60.19867549668874
 20
710.1693493093284
 30
0.0
 11
-60.19867549668874
 21
703.7502968112505
 31
0.0
  0
LINE
  5
172
330
1F
100
AcDbEntity
  8
0-0
  6
Continuous
 62
   120
370
     5
100
AcDbLine
 10
-65.19867549668845
 20
703.7502968112505
 30
0.0
 11
-60.19867549668874
 21
703.7502968112505
 31
0.0
  0
LINE
  5
173
330
1F
100
AcDbEntity
  8
0-0
  6
Continuous
 62
   120
370
     5
100
AcDbLine
 10
-60.19867549668874
 20
736.1693493093286
 30
0.0
 11
-60.19867549668874
 21
729.7502968112507
 31
0.0
  0
LINE
  5
174
330
1F
100
AcDbEntity
  8
0-0
  6
Continuous
 62
   120
370
     5
100
AcDbLine
 10
-65.19867549668845
 20
729.7502968112507
 30
0.0
 11
-60.19867549668874
 21
729.7502968112507
 31
0.0
  0
LINE
  5
175
330
1F
100
AcDbEntity
  8
0-0
  6
Continuous
 62
   120
370
     5
100
AcDbLine
 10
-60.19867549668874
 20
762.1693493093288
 30
0.0
 11
-60.19867549668874
 21
755.7502968112509
 31
0.0
  0
LINE
  5
176
330
1F
100
AcDbEntity
  8
0-0
  6
Continuous
 62
   120
370
     5
100
AcDbLine
 10
-65.19867549668845
 20
755.7502968112509
 30
0.0
 11
-60.19867549668874
 21
755.7502968112509
 31
0.0
  0
LINE
  5
177
330
1F
100
AcDbEntity
  8
0-0
  6
Continuous
 62
   120
370
     5
100
AcDbLine
 10
-60.19867549668874
 20
788.169349309329
 30
0.0
 11
-60.19867549668874
 21
781.7502968112511
 31
0.0
  0
LINE
  5
178
330
1F
100
AcDbEntity
  8
0-0
  6
Continuous
 62
   120
370
     5
100
AcDbLine
 10
-65.19867549668845
 20
781.7502968112511
 30
0.0
 11
-60.19867549668874
 21
781.7502968112511
 31
0.0
  0
LINE
  5
179
330
1F
100
AcDbEntity
  8
0-0
  6
Continuous
 62
   120
370
     5
100
AcDbLine
 10
-60.19867549668874
 20
814.1693493093284
 30
0.0
 11
-60.19867549668874
 21
807.7502968112514
 31
0.0
  0
LINE
  5
17A
330
1F
100
AcDbEntity
  8
0-0
  6
Continuous
 62
   120
370
     5
100
AcDbLine
 10
-65.19867549668845
 20
807.7502968112514
 30
0.0
 11
-60.19867549668874
 21
807.7502968112514
 31
0.0
  0
LINE
  5
17B
330
1F
100
AcDbEntity
  8
0-0
  6
Continuous
 62
   120
370
     5
100
AcDbLine
 10
-60.19867549668874
 20
840.1693493093286
 30
0.0
 11
-60.19867549668874
 21
833.7502968112516
 31
0.0
  0
LINE
  5
17C
330
1F
100
AcDbEntity
  8
0-0
  6
Continuous
 62
   120
370
     5
100
AcDbLine
 10
-65.19867549668845
 20
833.7502968112516
 30
0.0
 11
-60.19867549668874
 21
833.7502968112516
 31
0.0
  0
LINE
  5
17D
330
1F
100
AcDbEntity
  8
0-0
  6
Continuous
 62
   120
370
     5
100
AcDbLine
 10
-60.19867549668874
 20
866.1693493093288
 30
0.0
 11
-60.19867549668874
 21
859.7502968112509
 31
0.0
  0
LINE
  5
17E
330
1F
100
AcDbEntity
  8
0-0
  6
Continuous
 62
   120
370
     5
100
AcDbLine
 10
-65.19867549668845
 20
859.7502968112509
 30
0.0
 11
-60.19867549668874
 21
859.7502968112509
 31
0.0
  0
LINE
  5
17F
330
1F
100
AcDbEntity
  8
0-0
  6
Continuous
 62
   120
370
     5
100
AcDbLine
 10
-60.19867549668874
 20
892.169349309329
 30
0.0
 11
-60.19867549668874
 21
885.7502968112511
 31
0.0
  0
LINE
  5
180
330
1F
100
AcDbEntity
  8
0-0
  6
Continuous
 62
   120
370
     5
100
AcDbLine
 10
-65.19867549668845
 20
885.7502968112511
 30
0.0
 11
-60.19867549668874
 21
885.7502968112511
 31
0.0
  0
LINE
  5
181
330
1F
100
AcDbEntity
  8
0-0
  6
Continuous
 62
   120
370
     5
100
AcDbLine
 10
157.8013245033108
 20
-778.249703188754
 30
0.0
 11
162.8013245033114
 21
-778.249703188754
 31
0.0
  0
LINE
  5
182
330
1F
100
AcDbEntity
  8
0-0
  6
Continuous
 62
   120
370
     5
100
AcDbLine
 10
157.8013245033108
 20
-771.830650690677
 30
0.0
 11
157.8013245033108
 21
-778.249703188754
 31
0.0
  0
LINE
  5
183
330
1F
100
AcDbEntity
  8
0-0
  6
Continuous
 62
   120
370
     5
100
AcDbLine
 10
157.8013245033108
 20
-752.2497031887547
 30
0.0
 11
162.8013245033114
 21
-752.2497031887547
 31
0.0
  0
LINE
  5
184
330
1F
100
AcDbEntity
  8
0-0
  6
Continuous
 62
   120
370
     5
100
AcDbLine
 10
157.8013245033108
 20
-745.8306506906767
 30
0.0
 11
157.8013245033108
 21
-752.2497031887547
 31
0.0
  0
LINE
  5
185
330
1F
100
AcDbEntity
  8
0-0
  6
Continuous
 62
   120
370
     5
100
AcDbLine
 10
157.8013245033108
 20
-726.2497031887544
 30
0.0
 11
162.8013245033114
 21
-726.2497031887544
 31
0.0
  0
LINE
  5
186
330
1F
100
AcDbEntity
  8
0-0
  6
Continuous
 62
   120
370
     5
100
AcDbLine
 10
157.8013245033108
 20
-719.8306506906765
 30
0.0
 11
157.8013245033108
 21
-726.2497031887544
 31
0.0
  0
LINE
  5
187
330
1F
100
AcDbEntity
  8
0-0
  6
Continuous
 62
   120
370
     5
100
AcDbLine
 10
157.8013245033108
 20
-700.2497031887542
 30
0.0
 11
162.8013245033114
 21
-700.2497031887542
 31
0.0
  0
LINE
  5
188
330
1F
100
AcDbEntity
  8
0-0
  6
Continuous
 62
   120
370
     5
100
AcDbLine
 10
157.8013245033108
 20
-693.8306506906763
 30
0.0
 11
157.8013245033108
 21
-700.2497031887542
 31
0.0
  0
LINE
  5
189
330
1F
100
AcDbEntity
  8
0-0
  6
Continuous
 62
   120
370
     5
100
AcDbLine
 10
157.8013245033108
 20
-674.249703188754
 30
0.0
 11
162.8013245033114
 21
-674.249703188754
 31
0.0
  0
LINE
  5
18A
330
1F
100
AcDbEntity
  8
0-0
  6
Continuous
 62
   120
370
     5
100
AcDbLine
 10
157.8013245033108
 20
-667.8306506906761
 30
0.0
 11
157.8013245033108
 21
-674.249703188754
 31
0.0
  0
LINE
  5
18B
330
1F
100
AcDbEntity
  8
0-0
  6
Continuous
 62
   120
370
     5
100
AcDbLine
 10
157.8013245033108
 20
-648.2497031887538
 30
0.0
 11
162.8013245033114
 21
-648.2497031887538
 31
0.0
  0
LINE
  5
18C
330
1F
100
AcDbEntity
  8
0-0
  6
Continuous
 62
   120
370
     5
100
AcDbLine
 10
157.8013245033108
 20
-641.8306506906766
 30
0.0
 11
157.8013245033108
 21
-648.2497031887538
 31
0.0
  0
LINE
  5
18D
330
1F
100
AcDbEntity
  8
0-0
  6
Continuous
 62
   120
370
     5
100
AcDbLine
 10
157.8013245033108
 20
-622.2497031887543
 30
0.0
 11
162.8013245033114
 21
-622.2497031887543
 31
0.0
  0
LINE
  5
18E
330
1F
100
AcDbEntity
  8
0-0
  6
Continuous
 62
   120
370
     5
100
AcDbLine
 10
157.8013245033108
 20
-615.8306506906764
 30
0.0
 11
157.8013245033108
 21
-622.2497031887543
 31
0.0
  0
LINE
  5
18F
330
1F
100
AcDbEntity
  8
0-0
  6
Continuous
 62
   120
370
     5
100
AcDbLine
 10
157.8013245033108
 20
-596.2497031887541
 30
0.0
 11
162.8013245033114
 21
-596.2497031887541
 31
0.0
  0
LINE
  5
190
330
1F
100
AcDbEntity
  8
0-0
  6
Continuous
 62
   120
370
     5
100
AcDbLine
 10
157.8013245033108
 20
-589.8306506906762
 30
0.0
 11
157.8013245033108
 21
-596.2497031887541
 31
0.0
  0
LINE
  5
191
330
1F
100
AcDbEntity
  8
0-0
  6
Continuous
 62
   120
370
     5
100
AcDbLine
 10
157.8013245033108
 20
-570.2497031887539
 30
0.0
 11
162.8013245033114
 21
-570.2497031887539
 31
0.0
  0
LINE
  5
192
330
1F
100
AcDbEntity
  8
0-0
  6
Continuous
 62
   120
370
     5
100
AcDbLine
 10
157.8013245033108
 20
-563.830650690676
 30
0.0
 11
157.8013245033108
 21
-570.2497031887539
 31
0.0
  0
LINE
  5
193
330
1F
100
AcDbEntity
  8
0-0
  6
Continuous
 62
   120
370
     5
100
AcDbLine
 10
157.8013245033108
 20
-544.2497031887536
 30
0.0
 11
162.8013245033114
 21
-544.2497031887536
 31
0.0
  0
LINE
  5
194
330
1F
100
AcDbEntity
  8
0-0
  6
Continuous
 62
   120
370
     5
100
AcDbLine
 10
157.8013245033108
 20
-537.8306506906757
 30
0.0
 11
157.8013245033108
 21
-544.2497031887536
 31
0.0
  0
LINE
  5
195
330
1F
100
AcDbEntity
  8
0-0
  6
Continuous
 62
   120
370
     5
100
AcDbLine
 10
157.8013245033108
 20
-518.2497031887534
 30
0.0
 11
162.8013245033114
 21
-518.2497031887534
 31
0.0
  0
LINE
  5
196
330
1F
100
AcDbEntity
  8
0-0
  6
Continuous
 62
   120
370
     5
100
AcDbLine
 10
157.8013245033108
 20
-511.8306506906755
 30
0.0
 11
157.8013245033108
 21
-518.2497031887534
 31
0.0
  0
LINE
  5
197
330
1F
100
AcDbEntity
  8
0-0
  6
Continuous
 62
   120
370
     5
100
AcDbLine
 10
157.8013245033108
 20
-492.2497031887532
 30
0.0
 11
162.8013245033114
 21
-492.2497031887532
 31
0.0
  0
LINE
  5
198
330
1F
100
AcDbEntity
  8
0-0
  6
Continuous
 62
   120
370
     5
100
AcDbLine
 10
157.8013245033108
 20
-485.8306506906753
 30
0.0
 11
157.8013245033108
 21
-492.2497031887532
 31
0.0
  0
LINE
  5
199
330
1F
100
AcDbEntity
  8
0-0
  6
Continuous
 62
   120
370
     5
100
AcDbLine
 10
157.8013245033108
 20
-466.249703188753
 30
0.0
 11
162.8013245033114
 21
-466.249703188753
 31
0.0
  0
LINE
  5
19A
330
1F
100
AcDbEntity
  8
0-0
  6
Continuous
 62
   120
370
     5
100
AcDbLine
 10
157.8013245033108
 20
-459.830650690675
 30
0.0
 11
157.8013245033108
 21
-466.249703188753
 31
0.0
  0
LINE
  5
19B
330
1F
100
AcDbEntity
  8
0-0
  6
Continuous
 62
   120
370
     5
100
AcDbLine
 10
157.8013245033108
 20
-440.2497031887527
 30
0.0
 11
162.8013245033114
 21
-440.2497031887527
 31
0.0
  0
LINE
  5
19C
330
1F
100
AcDbEntity
  8
0-0
  6
Continuous
 62
   120
370
     5
100
AcDbLine
 10
157.8013245033108
 20
-433.8306506906757
 30
0.0
 11
157.8013245033108
 21
-440.2497031887527
 31
0.0
  0
LINE
  5
19D
330
1F
100
AcDbEntity
  8
0-0
  6
Continuous
 62
   120
370
     5
100
AcDbLine
 10
157.8013245033108
 20
-414.2497031887525
 30
0.0
 11
162.8013245033114
 21
-414.2497031887525
 31
0.0
  0
LINE
  5
19E
330
1F
100
AcDbEntity
  8
0-0
  6
Continuous
 62
   120
370
     5
100
AcDbLine
 10
157.8013245033108
 20
-407.8306506906763
 30
0.0
 11
157.8013245033108
 21
-414.2497031887525
 31
0.0
  0
LINE
  5
19F
330
1F
100
AcDbEntity
  8
0-0
  6
Continuous
 62
   120
370
     5
100
AcDbLine
 10
157.8013245033108
 20
-388.2497031887532
 30
0.0
 11
162.8013245033114
 21
-388.2497031887532
 31
0.0
  0
LINE
  5
1A0
330
1F
100
AcDbEntity
  8
0-0
  6
Continuous
 62
   120
370
     5
100
AcDbLine
 10
157.8013245033108
 20
-381.8306506906753
 30
0.0
 11
157.8013245033108
 21
-388.2497031887532
 31
0.0
  0
LINE
  5
1A1
330
1F
100
AcDbEntity
  8
0-0
  6
Continuous
 62
   120
370
     5
100
AcDbLine
 10
157.8013245033108
 20
-362.249703188753
 30
0.0
 11
162.8013245033114
 21
-362.249703188753
 31
0.0
  0
LINE
  5
1A2
330
1F
100
AcDbEntity
  8
0-0
  6
Continuous
 62
   120
370
     5
100
AcDbLine
 10
157.8013245033108
 20
-355.830650690675
 30
0.0
 11
157.8013245033108
 21
-362.249703188753
 31
0.0
  0
LINE
  5
1A3
330
1F
100
AcDbEntity
  8
0-0
  6
Continuous
 62
   120
370
     5
100
AcDbLine
 10
157.8013245033108
 20
-336.2497031887527
 30
0.0
 11
162.8013245033114
 21
-336.2497031887527
 31
0.0
  0
LINE
  5
1A4
330
1F
100
AcDbEntity
  8
0-0
  6
Continuous
 62
   120
370
     5
100
AcDbLine
 10
157.8013245033108
 20
-329.8306506906748
 30
0.0
 11
157.8013245033108
 21
-336.2497031887527
 31
0.0
  0
LINE
  5
1A5
330
1F
100
AcDbEntity
  8
0-0
  6
Continuous
 62
   120
370
     5
100
AcDbLine
 10
157.8013245033108
 20
-310.2497031887525
 30
0.0
 11
162.8013245033114
 21
-310.2497031887525
 31
0.0
  0
LINE
  5
1A6
330
1F
100
AcDbEntity
  8
0-0
  6
Continuous
 62
   120
370
     5
100
AcDbLine
 10
157.8013245033108
 20
-303.8306506906754
 30
0.0
 11
157.8013245033108
 21
-310.2497031887525
 31
0.0
  0
LINE
  5
1A7
330
1F
100
AcDbEntity
  8
0-0
  6
Continuous
 62
   120
370
     5
100
AcDbLine
 10
157.8013245033108
 20
-284.2497031887523
 30
0.0
 11
162.8013245033114
 21
-284.2497031887523
 31
0.0
  0
LINE
  5
1A8
330
1F
100
AcDbEntity
  8
0-0
  6
Continuous
 62
   120
370
     5
100
AcDbLine
 10
157.8013245033108
 20
-277.8306506906752
 30
0.0
 11
157.8013245033108
 21
-284.2497031887523
 31
0.0
  0
LINE
  5
1A9
330
1F
100
AcDbEntity
  8
0-0
  6
Continuous
 62
   120
370
     5
100
AcDbLine
 10
157.8013245033108
 20
-258.2497031887528
 30
0.0
 11
162.8013245033114
 21
-258.2497031887528
 31
0.0
  0
LINE
  5
1AA
330
1F
100
AcDbEntity
  8
0-0
  6
Continuous
 62
   120
370
     5
100
AcDbLine
 10
157.8013245033108
 20
-251.830650690675
 30
0.0
 11
157.8013245033108
 21
-258.2497031887528
 31
0.0
  0
LINE
  5
1AB
330
1F
100
AcDbEntity
  8
0-0
  6
Continuous
 62
   120
370
     5
100
AcDbLine
 10
157.8013245033108
 20
-232.2497031887526
 30
0.0
 11
162.8013245033114
 21
-232.2497031887526
 31
0.0
  0
LINE
  5
1AC
330
1F
100
AcDbEntity
  8
0-0
  6
Continuous
 62
   120
370
     5
100
AcDbLine
 10
157.8013245033108
 20
-225.8306506906747
 30
0.0
 11
157.8013245033108
 21
-232.2497031887526
 31
0.0
  0
LINE
  5
1AD
330
1F
100
AcDbEntity
  8
0-0
  6
Continuous
 62
   120
370
     5
100
AcDbLine
 10
157.8013245033108
 20
-206.2497031887524
 30
0.0
 11
162.8013245033114
 21
-206.2497031887524
 31
0.0
  0
LINE
  5
1AE
330
1F
100
AcDbEntity
  8
0-0
  6
Continuous
 62
   120
370
     5
100
AcDbLine
 10
157.8013245033108
 20
-199.8306506906745
 30
0.0
 11
157.8013245033108
 21
-206.2497031887524
 31
0.0
  0
LINE
  5
1AF
330
1F
100
AcDbEntity
  8
0-0
  6
Continuous
 62
   120
370
     5
100
AcDbLine
 10
157.8013245033108
 20
-180.2497031887522
 30
0.0
 11
162.8013245033114
 21
-180.2497031887522
 31
0.0
  0
LINE
  5
1B0
330
1F
100
AcDbEntity
  8
0-0
  6
Continuous
 62
   120
370
     5
100
AcDbLine
 10
157.8013245033108
 20
-173.8306506906751
 30
0.0
 11
157.8013245033108
 21
-180.2497031887522
 31
0.0
  0
LINE
  5
1B1
330
1F
100
AcDbEntity
  8
0-0
  6
Continuous
 62
   120
370
     5
100
AcDbLine
 10
157.8013245033108
 20
-154.249703188752
 30
0.0
 11
162.8013245033114
 21
-154.249703188752
 31
0.0
  0
LINE
  5
1B2
330
1F
100
AcDbEntity
  8
0-0
  6
Continuous
 62
   120
370
     5
100
AcDbLine
 10
157.8013245033108
 20
-147.8306506906749
 30
0.0
 11
157.8013245033108
 21
-154.249703188752
 31
0.0
  0
LINE
  5
1B3
330
1F
100
AcDbEntity
  8
0-0
  6
Continuous
 62
   120
370
     5
100
AcDbLine
 10
157.8013245033108
 20
-128.2497031887517
 30
0.0
 11
162.8013245033114
 21
-128.2497031887517
 31
0.0
  0
LINE
  5
1B4
330
1F
100
AcDbEntity
  8
0-0
  6
Continuous
 62
   120
370
     5
100
AcDbLine
 10
157.8013245033108
 20
-121.8306506906747
 30
0.0
 11
157.8013245033108
 21
-128.2497031887517
 31
0.0
  0
LINE
  5
1B5
330
1F
100
AcDbEntity
  8
0-0
  6
Continuous
 62
   120
370
     5
100
AcDbLine
 10
157.8013245033108
 20
-102.2497031887524
 30
0.0
 11
162.8013245033114
 21
-102.2497031887524
 31
0.0
  0
LINE
  5
1B6
330
1F
100
AcDbEntity
  8
0-0
  6
Continuous
 62
   120
370
     5
100
AcDbLine
 10
157.8013245033108
 20
-95.83065069067445
 30
0.0
 11
157.8013245033108
 21
-102.2497031887524
 31
0.0
  0
LINE
  5
1B7
330
1F
100
AcDbEntity
  8
0-0
  6
Continuous
 62
   120
370
     5
100
AcDbLine
 10
157.8013245033108
 20
-76.24970318875214
 30
0.0
 11
162.8013245033114
 21
-76.24970318875214
 31
0.0
  0
LINE
  5
1B8
330
1F
100
AcDbEntity
  8
0-0
  6
Continuous
 62
   120
370
     5
100
AcDbLine
 10
157.8013245033108
 20
-69.83065069067422
 30
0.0
 11
157.8013245033108
 21
-76.24970318875214
 31
0.0
  0
LINE
  5
1B9
330
1F
100
AcDbEntity
  8
0-0
  6
Continuous
 62
   120
370
     5
100
AcDbLine
 10
157.8013245033108
 20
-50.24970318875191
 30
0.0
 11
162.8013245033114
 21
-50.24970318875191
 31
0.0
  0
LINE
  5
1BA
330
1F
100
AcDbEntity
  8
0-0
  6
Continuous
 62
   120
370
     5
100
AcDbLine
 10
157.8013245033108
 20
-43.83065069067484
 30
0.0
 11
157.8013245033108
 21
-50.24970318875191
 31
0.0
  0
LINE
  5
1BB
330
1F
100
AcDbEntity
  8
0-0
  6
Continuous
 62
   120
370
     5
100
AcDbLine
 10
157.8013245033108
 20
-24.24970318875168
 30
0.0
 11
162.8013245033114
 21
-24.24970318875168
 31
0.0
  0
LINE
  5
1BC
330
1F
100
AcDbEntity
  8
0-0
  6
Continuous
 62
   120
370
     5
100
AcDbLine
 10
157.8013245033108
 20
-17.83065069067462
 30
0.0
 11
157.8013245033108
 21
-24.24970318875168
 31
0.0
  0
LINE
  5
1BD
330
1F
100
AcDbEntity
  8
0-0
  6
Continuous
 62
   120
370
     5
100
AcDbLine
 10
157.8013245033108
 20
1.750296811247694
 30
0.0
 11
162.8013245033114
 21
1.750296811247694
 31
0.0
  0
LINE
  5
1BE
330
1F
100
AcDbEntity
  8
0-0
  6
Continuous
 62
   120
370
     5
100
AcDbLine
 10
157.8013245033108
 20
8.16934930932561
 30
0.0
 11
157.8013245033108
 21
1.750296811247694
 31
0.0
  0
LINE
  5
1BF
330
1F
100
AcDbEntity
  8
0-0
  6
Continuous
 62
   120
370
     5
100
AcDbLine
 10
157.8013245033108
 20
27.75029681124792
 30
0.0
 11
162.8013245033114
 21
27.75029681124792
 31
0.0
  0
LINE
  5
1C0
330
1F
100
AcDbEntity
  8
0-0
  6
Continuous
 62
   120
370
     5
100
AcDbLine
 10
157.8013245033108
 20
34.16934930932584
 30
0.0
 11
157.8013245033108
 21
27.75029681124792
 31
0.0
  0
LINE
  5
1C1
330
1F
100
AcDbEntity
  8
0-0
  6
Continuous
 62
   120
370
     5
100
AcDbLine
 10
157.8013245033108
 20
53.75029681124815
 30
0.0
 11
162.8013245033114
 21
53.75029681124815
 31
0.0
  0
LINE
  5
1C2
330
1F
100
AcDbEntity
  8
0-0
  6
Continuous
 62
   120
370
     5
100
AcDbLine
 10
157.8013245033108
 20
60.16934930932607
 30
0.0
 11
157.8013245033108
 21
53.75029681124815
 31
0.0
  0
LINE
  5
1C3
330
1F
100
AcDbEntity
  8
0-0
  6
Continuous
 62
   120
370
     5
100
AcDbLine
 10
157.8013245033108
 20
79.75029681124838
 30
0.0
 11
162.8013245033114
 21
79.75029681124838
 31
0.0
  0
LINE
  5
1C4
330
1F
100
AcDbEntity
  8
0-0
  6
Continuous
 62
   120
370
     5
100
AcDbLine
 10
157.8013245033108
 20
86.1693493093263
 30
0.0
 11
157.8013245033108
 21
79.75029681124838
 31
0.0
  0
LINE
  5
1C5
330
1F
100
AcDbEntity
  8
0-0
  6
Continuous
 62
   120
370
     5
100
AcDbLine
 10
157.8013245033108
 20
105.7502968112486
 30
0.0
 11
162.8013245033114
 21
105.7502968112486
 31
0.0
  0
LINE
  5
1C6
330
1F
100
AcDbEntity
  8
0-0
  6
Continuous
 62
   120
370
     5
100
AcDbLine
 10
157.8013245033108
 20
112.1693493093265
 30
0.0
 11
157.8013245033108
 21
105.7502968112486
 31
0.0
  0
LINE
  5
1C7
330
1F
100
AcDbEntity
  8
0-0
  6
Continuous
 62
   120
370
     5
100
AcDbLine
 10
157.8013245033108
 20
131.7502968112488
 30
0.0
 11
162.8013245033114
 21
131.7502968112488
 31
0.0
  0
LINE
  5
1C8
330
1F
100
AcDbEntity
  8
0-0
  6
Continuous
 62
   120
370
     5
100
AcDbLine
 10
157.8013245033108
 20
138.1693493093267
 30
0.0
 11
157.8013245033108
 21
131.7502968112488
 31
0.0
  0
LINE
  5
1C9
330
1F
100
AcDbEntity
  8
0-0
  6
Continuous
 62
   120
370
     5
100
AcDbLine
 10
157.8013245033108
 20
157.7502968112491
 30
0.0
 11
162.8013245033114
 21
157.7502968112491
 31
0.0
  0
LINE
  5
1CA
330
1F
100
AcDbEntity
  8
0-0
  6
Continuous
 62
   120
370
     5
100
AcDbLine
 10
157.8013245033108
 20
164.169349309327
 30
0.0
 11
157.8013245033108
 21
157.7502968112491
 31
0.0
  0
LINE
  5
1CB
330
1F
100
AcDbEntity
  8
0-0
  6
Continuous
 62
   120
370
     5
100
AcDbLine
 10
157.8013245033108
 20
183.7502968112493
 30
0.0
 11
162.8013245033114
 21
183.7502968112493
 31
0.0
  0
LINE
  5
1CC
330
1F
100
AcDbEntity
  8
0-0
  6
Continuous
 62
   120
370
     5
100
AcDbLine
 10
157.8013245033108
 20
190.1693493093263
 30
0.0
 11
157.8013245033108
 21
183.7502968112493
 31
0.0
  0
LINE
  5
1CD
330
1F
100
AcDbEntity
  8
0-0
  6
Continuous
 62
   120
370
     5
100
AcDbLine
 10
157.8013245033108
 20
209.7502968112495
 30
0.0
 11
162.8013245033114
 21
209.7502968112495
 31
0.0
  0
LINE
  5
1CE
330
1F
100
AcDbEntity
  8
0-0
  6
Continuous
 62
   120
370
     5
100
AcDbLine
 10
157.8013245033108
 20
216.1693493093266
 30
0.0
 11
157.8013245033108
 21
209.7502968112495
 31
0.0
  0
LINE
  5
1CF
330
1F
100
AcDbEntity
  8
0-0
  6
Continuous
 62
   120
370
     5
100
AcDbLine
 10
157.8013245033108
 20
235.7502968112489
 30
0.0
 11
162.8013245033114
 21
235.7502968112489
 31
0.0
  0
LINE
  5
1D0
330
1F
100
AcDbEntity
  8
0-0
  6
Continuous
 62
   120
370
     5
100
AcDbLine
 10
157.8013245033108
 20
242.1693493093268
 30
0.0
 11
157.8013245033108
 21
235.7502968112489
 31
0.0
  0
LINE
  5
1D1
330
1F
100
AcDbEntity
  8
0-0
  6
Continuous
 62
   120
370
     5
100
AcDbLine
 10
157.8013245033108
 20
261.7502968112491
 30
0.0
 11
162.8013245033114
 21
261.7502968112491
 31
0.0
  0
LINE
  5
1D2
330
1F
100
AcDbEntity
  8
0-0
  6
Continuous
 62
   120
370
     5
100
AcDbLine
 10
157.8013245033108
 20
268.169349309327
 30
0.0
 11
157.8013245033108
 21
261.7502968112491
 31
0.0
  0
LINE
  5
1D3
330
1F
100
AcDbEntity
  8
0-0
  6
Continuous
 62
   120
370
     5
100
AcDbLine
 10
157.8013245033108
 20
287.7502968112493
 30
0.0
 11
162.8013245033114
 21
287.7502968112493
 31
0.0
  0
LINE
  5
1D4
330
1F
100
AcDbEntity
  8
0-0
  6
Continuous
 62
   120
370
     5
100
AcDbLine
 10
157.8013245033108
 20
294.1693493093264
 30
0.0
 11
157.8013245033108
 21
287.7502968112493
 31
0.0
  0
LINE
  5
1D5
330
1F
100
AcDbEntity
  8
0-0
  6
Continuous
 62
   120
370
     5
100
AcDbLine
 10
157.8013245033108
 20
313.7502968112495
 30
0.0
 11
162.8013245033114
 21
313.7502968112495
 31
0.0
  0
LINE
  5
1D6
330
1F
100
AcDbEntity
  8
0-0
  6
Continuous
 62
   120
370
     5
100
AcDbLine
 10
157.8013245033108
 20
320.1693493093267
 30
0.0
 11
157.8013245033108
 21
313.7502968112495
 31
0.0
  0
LINE
  5
1D7
330
1F
100
AcDbEntity
  8
0-0
  6
Continuous
 62
   120
370
     5
100
AcDbLine
 10
157.8013245033108
 20
339.750296811249
 30
0.0
 11
162.8013245033114
 21
339.750296811249
 31
0.0
  0
LINE
  5
1D8
330
1F
100
AcDbEntity
  8
0-0
  6
Continuous
 62
   120
370
     5
100
AcDbLine
 10
157.8013245033108
 20
346.1693493093269
 30
0.0
 11
157.8013245033108
 21
339.750296811249
 31
0.0
  0
LINE
  5
1D9
330
1F
100
AcDbEntity
  8
0-0
  6
Continuous
 62
   120
370
     5
100
AcDbLine
 10
157.8013245033108
 20
365.7502968112492
 30
0.0
 11
162.8013245033114
 21
365.7502968112492
 31
0.0
  0
LINE
  5
1DA
330
1F
100
AcDbEntity
  8
0-0
  6
Continuous
 62
   120
370
     5
100
AcDbLine
 10
157.8013245033108
 20
372.1693493093271
 30
0.0
 11
157.8013245033108
 21
365.7502968112492
 31
0.0
  0
LINE
  5
1DB
330
1F
100
AcDbEntity
  8
0-0
  6
Continuous
 62
   120
370
     5
100
AcDbLine
 10
157.8013245033108
 20
391.7502968112494
 30
0.0
 11
162.8013245033114
 21
391.7502968112494
 31
0.0
  0
LINE
  5
1DC
330
1F
100
AcDbEntity
  8
0-0
  6
Continuous
 62
   120
370
     5
100
AcDbLine
 10
157.8013245033108
 20
398.1693493093273
 30
0.0
 11
157.8013245033108
 21
391.7502968112494
 31
0.0
  0
LINE
  5
1DD
330
1F
100
AcDbEntity
  8
0-0
  6
Continuous
 62
   120
370
     5
100
AcDbLine
 10
157.8013245033108
 20
417.7502968112497
 30
0.0
 11
162.8013245033114
 21
417.7502968112497
 31
0.0
  0
LINE
  5
1DE
330
1F
100
AcDbEntity
  8
0-0
  6
Continuous
 62
   120
370
     5
100
AcDbLine
 10
157.8013245033108
 20
424.1693493093267
 30
0.0
 11
157.8013245033108
 21
417.7502968112497
 31
0.0
  0
LINE
  5
1DF
330
1F
100
AcDbEntity
  8
0-0
  6
Continuous
 62
   120
370
     5
100
AcDbLine
 10
157.8013245033108
 20
443.7502968112499
 30
0.0
 11
162.8013245033114
 21
443.7502968112499
 31
0.0
  0
LINE
  5
1E0
330
1F
100
AcDbEntity
  8
0-0
  6
Continuous
 62
   120
370
     5
100
AcDbLine
 10
157.8013245033108
 20
450.1693493093269
 30
0.0
 11
157.8013245033108
 21
443.7502968112499
 31
0.0
  0
LINE
  5
1E1
330
1F
100
AcDbEntity
  8
0-0
  6
Continuous
 62
   120
370
     5
100
AcDbLine
 10
157.8013245033108
 20
469.7502968112492
 30
0.0
 11
162.8013245033114
 21
469.7502968112492
 31
0.0
  0
LINE
  5
1E2
330
1F
100
AcDbEntity
  8
0-0
  6
Continuous
 62
   120
370
     5
100
AcDbLine
 10
157.8013245033108
 20
476.1693493093271
 30
0.0
 11
157.8013245033108
 21
469.7502968112492
 31
0.0
  0
LINE
  5
1E3
330
1F
100
AcDbEntity
  8
0-0
  6
Continuous
 62
   120
370
     5
100
AcDbLine
 10
157.8013245033108
 20
495.7502968112494
 30
0.0
 11
162.8013245033114
 21
495.7502968112494
 31
0.0
  0
LINE
  5
1E4
330
1F
100
AcDbEntity
  8
0-0
  6
Continuous
 62
   120
370
     5
100
AcDbLine
 10
157.8013245033108
 20
502.1693493093273
 30
0.0
 11
157.8013245033108
 21
495.7502968112494
 31
0.0
  0
LINE
  5
1E5
330
1F
100
AcDbEntity
  8
0-0
  6
Continuous
 62
   120
370
     5
100
AcDbLine
 10
157.8013245033108
 20
521.7502968112497
 30
0.0
 11
162.8013245033114
 21
521.7502968112497
 31
0.0
  0
LINE
  5
1E6
330
1F
100
AcDbEntity
  8
0-0
  6
Continuous
 62
   120
370
     5
100
AcDbLine
 10
157.8013245033108
 20
528.1693493093276
 30
0.0
 11
157.8013245033108
 21
521.7502968112497
 31
0.0
  0
LINE
  5
1E7
330
1F
100
AcDbEntity
  8
0-0
  6
Continuous
 62
   120
370
     5
100
AcDbLine
 10
157.8013245033108
 20
547.7502968112499
 30
0.0
 11
162.8013245033114
 21
547.7502968112499
 31
0.0
  0
LINE
  5
1E8
330
1F
100
AcDbEntity
  8
0-0
  6
Continuous
 62
   120
370
     5
100
AcDbLine
 10
157.8013245033108
 20
554.1693493093278
 30
0.0
 11
157.8013245033108
 21
547.7502968112499
 31
0.0
  0
LINE
  5
1E9
330
1F
100
AcDbEntity
  8
0-0
  6
Continuous
 62
   120
370
     5
100
AcDbLine
 10
157.8013245033108
 20
573.7502968112501
 30
0.0
 11
162.8013245033114
 21
573.7502968112501
 31
0.0
  0
LINE
  5
1EA
330
1F
100
AcDbEntity
  8
0-0
  6
Continuous
 62
   120
370
     5
100
AcDbLine
 10
157.8013245033108
 20
580.169349309328
 30
0.0
 11
157.8013245033108
 21
573.7502968112501
 31
0.0
  0
LINE
  5
1EB
330
1F
100
AcDbEntity
  8
0-0
  6
Continuous
 62
   120
370
     5
100
AcDbLine
 10
157.8013245033108
 20
599.7502968112503
 30
0.0
 11
162.8013245033114
 21
599.7502968112503
 31
0.0
  0
LINE
  5
1EC
330
1F
100
AcDbEntity
  8
0-0
  6
Continuous
 62
   120
370
     5
100
AcDbLine
 10
157.8013245033108
 20
606.1693493093275
 30
0.0
 11
157.8013245033108
 21
599.7502968112503
 31
0.0
  0
LINE
  5
1ED
330
1F
100
AcDbEntity
  8
0-0
  6
Continuous
 62
   120
370
     5
100
AcDbLine
 10
157.8013245033108
 20
625.7502968112506
 30
0.0
 11
162.8013245033114
 21
625.7502968112506
 31
0.0
  0
LINE
  5
1EE
330
1F
100
AcDbEntity
  8
0-0
  6
Continuous
 62
   120
370
     5
100
AcDbLine
 10
157.8013245033108
 20
632.1693493093277
 30
0.0
 11
157.8013245033108
 21
625.7502968112506
 31
0.0
  0
LINE
  5
1EF
330
1F
100
AcDbEntity
  8
0-0
  6
Continuous
 62
   120
370
     5
100
AcDbLine
 10
157.8013245033108
 20
651.75029681125
 30
0.0
 11
162.8013245033114
 21
651.75029681125
 31
0.0
  0
LINE
  5
1F0
330
1F
100
AcDbEntity
  8
0-0
  6
Continuous
 62
   120
370
     5
100
AcDbLine
 10
157.8013245033108
 20
658.1693493093279
 30
0.0
 11
157.8013245033108
 21
651.75029681125
 31
0.0
  0
LINE
  5
1F1
330
1F
100
AcDbEntity
  8
0-0
  6
Continuous
 62
   120
370
     5
100
AcDbLine
 10
157.8013245033108
 20
677.7502968112502
 30
0.0
 11
162.8013245033114
 21
677.7502968112502
 31
0.0
  0
LINE
  5
1F2
330
1F
100
AcDbEntity
  8
0-0
  6
Continuous
 62
   120
370
     5
100
AcDbLine
 10
157.8013245033108
 20
684.1693493093281
 30
0.0
 11
157.8013245033108
 21
677.7502968112502
 31
0.0
  0
LINE
  5
1F3
330
1F
100
AcDbEntity
  8
0-0
  6
Continuous
 62
   120
370
     5
100
AcDbLine
 10
157.8013245033108
 20
703.7502968112505
 30
0.0
 11
162.8013245033114
 21
703.7502968112505
 31
0.0
  0
LINE
  5
1F4
330
1F
100
AcDbEntity
  8
0-0
  6
Continuous
 62
   120
370
     5
100
AcDbLine
 10
157.8013245033108
 20
710.1693493093284
 30
0.0
 11
157.8013245033108
 21
703.7502968112505
 31
0.0
  0
LINE
  5
1F5
330
1F
100
AcDbEntity
  8
0-0
  6
Continuous
 62
   120
370
     5
100
AcDbLine
 10
157.8013245033108
 20
729.7502968112507
 30
0.0
 11
162.8013245033114
 21
729.7502968112507
 31
0.0
  0
LINE
  5
1F6
330
1F
100
AcDbEntity
  8
0-0
  6
Continuous
 62
   120
370
     5
100
AcDbLine
 10
157.8013245033108
 20
736.1693493093286
 30
0.0
 11
157.8013245033108
 21
729.7502968112507
 31
0.0
  0
LINE
  5
1F7
330
1F
100
AcDbEntity
  8
0-0
  6
Continuous
 62
   120
370
     5
100
AcDbLine
 10
157.8013245033108
 20
755.7502968112509
 30
0.0
 11
162.8013245033114
 21
755.7502968112509
 31
0.0
  0
LINE
  5
1F8
330
1F
100
AcDbEntity
  8
0-0
  6
Continuous
 62
   120
370
     5
100
AcDbLine
 10
157.8013245033108
 20
762.1693493093288
 30
0.0
 11
157.8013245033108
 21
755.7502968112509
 31
0.0
  0
LINE
  5
1F9
330
1F
100
AcDbEntity
  8
0-0
  6
Continuous
 62
   120
370
     5
100
AcDbLine
 10
157.8013245033108
 20
781.7502968112511
 30
0.0
 11
162.8013245033114
 21
781.7502968112511
 31
0.0
  0
LINE
  5
1FA
330
1F
100
AcDbEntity
  8
0-0
  6
Continuous
 62
   120
370
     5
100
AcDbLine
 10
157.8013245033108
 20
788.169349309329
 30
0.0
 11
157.8013245033108
 21
781.7502968112511
 31
0.0
  0
LINE
  5
1FB
330
1F
100
AcDbEntity
  8
0-0
  6
Continuous
 62
   120
370
     5
100
AcDbLine
 10
157.8013245033108
 20
807.7502968112514
 30
0.0
 11
162.8013245033114
 21
807.7502968112514
 31
0.0
  0
LINE
  5
1FC
330
1F
100
AcDbEntity
  8
0-0
  6
Continuous
 62
   120
370
     5
100
AcDbLine
 10
157.8013245033108
 20
814.1693493093284
 30
0.0
 11
157.8013245033108
 21
807.7502968112514
 31
0.0
  0
LINE
  5
1FD
330
1F
100
AcDbEntity
  8
0-0
  6
Continuous
 62
   120
370
     5
100
AcDbLine
 10
157.8013245033108
 20
833.7502968112516
 30
0.0
 11
162.8013245033114
 21
833.7502968112516
 31
0.0
  0
LINE
  5
1FE
330
1F
100
AcDbEntity
  8
0-0
  6
Continuous
 62
   120
370
     5
100
AcDbLine
 10
157.8013245033108
 20
840.1693493093286
 30
0.0
 11
157.8013245033108
 21
833.7502968112516
 31
0.0
  0
LINE
  5
1FF
330
1F
100
AcDbEntity
  8
0-0
  6
Continuous
 62
   120
370
     5
100
AcDbLine
 10
157.8013245033108
 20
859.7502968112509
 30
0.0
 11
162.8013245033114
 21
859.7502968112509
 31
0.0
  0
LINE
  5
200
330
1F
100
AcDbEntity
  8
0-0
  6
Continuous
 62
   120
370
     5
100
AcDbLine
 10
157.8013245033108
 20
866.1693493093288
 30
0.0
 11
157.8013245033108
 21
859.7502968112509
 31
0.0
  0
LINE
  5
201
330
1F
100
AcDbEntity
  8
0-0
  6
Continuous
 62
   120
370
     5
100
AcDbLine
 10
157.8013245033108
 20
885.7502968112511
 30
0.0
 11
162.8013245033114
 21
885.7502968112511
 31
0.0
  0
LINE
  5
202
330
1F
100
AcDbEntity
  8
0-0
  6
Continuous
 62
   120
370
     5
100
AcDbLine
 10
157.8013245033108
 20
892.169349309329
 30
0.0
 11
157.8013245033108
 21
885.7502968112511
 31
0.0
  0
LINE
  5
203
330
1F
100
AcDbEntity
  8
0-0
  6
Continuous
 62
     7
370
     9
100
AcDbLine
 10
-65.19867549668845
 20
912.1693493093237
 30
0.0
 11
162.8013245033114
 21
912.1693493093237
 31
0.0
  0
LINE
  5
204
330
1F
100
AcDbEntity
  8
0-0
  6
Continuous
 62
     7
370
     9
100
AcDbLine
 10
-65.19867549668845
 20
-797.8306506906763
 30
0.0
 11
162.8013245033114
 21
-797.8306506906763
 31
0.0
  0
LINE
  5
205
330
1F
100
AcDbEntity
  8
0-0
  6
Continuous
 62
     7
370
     9
100
AcDbLine
 10
-65.19867549668845
 20
-947.8306506906763
 30
0.0
 11
-65.19867549668845
 21
1035.169349309323
 31
0.0
  0
LINE
  5
206
330
1F
100
AcDbEntity
  8
0-0
  6
Continuous
 62
     7
370
     9
100
AcDbLine
 10
162.8013245033114
 20
-947.8306506906763
 30
0.0
 11
162.8013245033114
 21
1035.169349309323
 31
0.0
  0
ENDSEC
  0
SECTION
  2
OBJECTS
  0
DICTIONARY
  5
C
330
0
100
AcDbDictionary
281
     1
  3
ACAD_GROUP
350
D
  3
ACAD_LAYOUT
350
1A
  3
ACAD_MATERIAL
350
3B
  3
ACAD_MLEADERSTYLE
350
208
  3
ACAD_MLINESTYLE
350
17
  3
ACAD_PLOTSETTINGS
350
19
  3
ACAD_PLOTSTYLENAME
350
E
  3
ACAD_TABLESTYLE
350
207
  3
ACAD_VISUALSTYLE
350
2A
  0
DICTIONARY
  5
D
102
{ACAD_REACTORS
330
C
102
}
330
C
100
AcDbDictionary
281
     1
  0
DICTIONARY
  5
1A
102
{ACAD_REACTORS
330
C
102
}
330
C
100
AcDbDictionary
281
     1
  3
Layout1
350
1E
  3
Layout2
350
26
  3
Model
350
22
  0
DICTIONARY
  5
3B
102
{ACAD_REACTORS
330
C
102
}
330
C
100
AcDbDictionary
281
     1
  3
ByBlock
350
3D
  3
ByLayer
350
3C
  3
Global
350
3E
  0
DICTIONARY
  5
208
102
{ACAD_REACTORS
330
C
102
}
330
C
100
AcDbDictionary
281
     1
  0
DICTIONARY
  5
17
102
{ACAD_REACTORS
330
C
102
}
330
C
100
AcDbDictionary
281
     1
  3
Standard
350
18
  0
DICTIONARY
  5
19
102
{ACAD_REACTORS
330
C
102
}
330
C
100
AcDbDictionary
281
     1
  0
ACDBDICTIONARYWDFLT
  5
E
102
{ACAD_REACTORS
330
C
102
}
330
C
100
AcDbDictionary
281
     1
  3
Normal
350
F
100
AcDbDictionaryWithDefault
340
F
  0
DICTIONARY
  5
207
102
{ACAD_REACTORS
330
C
102
}
330
C
100
AcDbDictionary
281
     1
  0
DICTIONARY
  5
2A
102
{ACAD_REACTORS
330
C
102
}
330
C
100
AcDbDictionary
281
     1
  3
2dWireframe
350
2F
  3
3D Hidden
350
31
  3
3dWireframe
350
30
  3
Basic
350
32
  3
Brighten
350
36
  3
ColorChange
350
3A
  3
Conceptual
350
34
  3
Dim
350
35
  3
Facepattern
350
39
  3
Flat
350
2B
  3
FlatWithEdges
350
2C
  3
Gouraud
350
2D
  3
GouraudWithEdges
350
2E
  3
Linepattern
350
38
  3
Realistic
350
33
  3
Thicken
350
37
  0
LAYOUT
  5
1E
102
{ACAD_REACTORS
330
1A
102
}
330
1A
100
AcDbPlotSettings
  1

  2
none_device
  4

  6

 40
0.0
 41
0.0
 42
0.0
 43
0.0
 44
0.0
 45
0.0
 46
0.0
 47
0.0
 48
0.0
 49
0.0
140
0.0
141
0.0
142
1.0
143
1.0
 70
   688
 72
     0
 73
     0
 74
     5
  7

 75
    16
 76
     0
 77
     5
 78
   300
147
1.0
148
0.0
149
0.0
100
AcDbLayout
  1
Layout1
 70
     1
 71
     1
 10
0.0
 20
0.0
 11
420.0
 21
297.0
 12
0.0
 22
0.0
 32
0.0
 14
1.000000000000000E+20
 24
1.000000000000000E+20
 34
1.000000000000000E+20
 15
-1.000000000000000E+20
 25
-1.000000000000000E+20
 35
-1.000000000000000E+20
146
0.0
 13
0.0
 23
0.0
 33
0.0
 16
1.0
 26
0.0
 36
0.0
 17
0.0
 27
1.0
 37
0.0
 76
     0
330
1B
  0
LAYOUT
  5
26
102
{ACAD_REACTORS
330
1A
102
}
330
1A
100
AcDbPlotSettings
  1

  2
none_device
  4

  6

 40
0.0
 41
0.0
 42
0.0
 43
0.0
 44
0.0
 45
0.0
 46
0.0
 47
0.0
 48
0.0
 49
0.0
140
0.0
141
0.0
142
1.0
143
1.0
 70
   688
 72
     0
 73
     0
 74
     5
  7

 75
    16
 76
     0
 77
     5
 78
   300
147
1.0
148
0.0
149
0.0
100
AcDbLayout
  1
Layout2
 70
     1
 71
     2
 10
0.0
 20
0.0
 11
0.0
 21
0.0
 12
0.0
 22
0.0
 32
0.0
 14
0.0
 24
0.0
 34
0.0
 15
0.0
 25
0.0
 35
0.0
146
0.0
 13
0.0
 23
0.0
 33
0.0
 16
1.0
 26
0.0
 36
0.0
 17
0.0
 27
1.0
 37
0.0
 76
     0
330
23
  0
LAYOUT
  5
22
102
{ACAD_REACTORS
330
1A
102
}
330
1A
100
AcDbPlotSettings
  1

  2
none_device
  4

  6

 40
0.0
 41
0.0
 42
0.0
 43
0.0
 44
0.0
 45
0.0
 46
0.0
 47
0.0
 48
0.0
 49
0.0
140
0.0
141
0.0
142
1.0
143
1.0
 70
  1712
 72
     0
 73
     0
 74
     0
  7

 75
     0
 76
     0
 77
     5
 78
   300
147
1.0
148
0.0
149
0.0
100
AcDbLayout
  1
Model
 70
     1
 71
     0
 10
-4455.0
 20
-3150.0
 11
4455.0
 21
3150.0
 12
0.0
 22
0.0
 32
0.0
 14
-4455.0
 24
-3150.0
 34
0.0
 15
4455.0
 25
3150.0
 35
0.0
146
0.0
 13
0.0
 23
0.0
 33
0.0
 16
1.0
 26
0.0
 36
0.0
 17
0.0
 27
1.0
 37
0.0
 76
     0
330
1F
331
29
  0
MATERIAL
  5
3D
102
{ACAD_REACTORS
330
3B
102
}
330
3B
100
AcDbMaterial
  1
ByBlock
 72
     1
 94
      127
  0
MATERIAL
  5
3C
102
{ACAD_REACTORS
330
3B
102
}
330
3B
100
AcDbMaterial
  1
ByLayer
 72
     1
 94
      127
  0
MATERIAL
  5
3E
102
{ACAD_REACTORS
330
3B
102
}
330
3B
100
AcDbMaterial
  1
Global
 72
     1
 94
      127
  0
MLINESTYLE
  5
18
102
{ACAD_REACTORS
330
17
102
}
330
17
100
AcDbMlineStyle
  2
Standard
 70
     0
  3

 62
   256
 51
90.0
 52
90.0
 71
     2
 49
0.5
 62
   256
  6
BYLAYER
 49
-0.5
 62
   256
  6
BYLAYER
  0
ACDBPLACEHOLDER
  5
F
102
{ACAD_REACTORS
330
E
102
}
330
E
  0
VISUALSTYLE
  5
2F
102
{ACAD_REACTORS
330
2A
102
}
330
2A
100
AcDbVisualStyle
  2
2dWireframe
 70
     4
177
     2
291
     0
 71
     0
176
     1
 72
     2
176
     1
 73
     0
176
     1
 90
        0
176
     1
 40
-0.6
176
     1
 41
-30.0
176
     1
 62
     5
 63
     7
421
 16777215
176
     1
 74
     1
176
     1
 91
        4
176
     1
 64
     7
176
     1
 65
   257
176
     1
 75
     1
176
     1
175
     1
176
     1
 42
1.0
176
     1
 92
        0
176
     1
 66
   257
176
     1
 43
1.0
176
     1
 76
     1
176
     1
 77
     6
176
     1
 78
     2
176
     1
 67
     7
176
     1
 79
     5
176
     1
170
     0
176
     1
171
     0
176
     1
290
     0
176
     1
 93
        1
176
     1
 44
0.0
176
     1
173
     0
176
     1
  0
VISUALSTYLE
  5
31
102
{ACAD_REACTORS
330
2A
102
}
330
2A
100
AcDbVisualStyle
  2
3D Hidden
 70
     6
177
     2
291
     0
 71
     1
176
     1
 72
     2
176
     1
 73
     2
176
     1
 90
        0
176
     1
 40
-0.6
176
     1
 41
-30.0
176
     1
 62
     5
 63
     7
421
 16777215
176
     1
 74
     2
176
     1
 91
        2
176
     1
 64
     7
176
     1
 65
   257
176
     1
 75
     2
176
     1
175
     1
176
     1
 42
40.0
176
     1
 92
        0
176
     1
 66
   257
176
     1
 43
1.0
176
     1
 76
     1
176
     1
 77
     6
176
     1
 78
     2
176
     1
 67
     7
176
     1
 79
     3
176
     1
170
     0
176
     1
171
     0
176
     1
290
     0
176
     1
 93
        1
176
     1
 44
0.0
176
     1
173
     0
176
     1
  0
VISUALSTYLE
  5
30
102
{ACAD_REACTORS
330
2A
102
}
330
2A
100
AcDbVisualStyle
  2
3dWireframe
 70
     5
177
     2
291
     0
 71
     0
176
     1
 72
     2
176
     1
 73
     0
176
     1
 90
        0
176
     1
 40
-0.6
176
     1
 41
-30.0
176
     1
 62
     5
 63
     7
421
 16777215
176
     1
 74
     1
176
     1
 91
        4
176
     1
 64
     7
176
     1
 65
   257
176
     1
 75
     1
176
     1
175
     1
176
     1
 42
1.0
176
     1
 92
        0
176
     1
 66
   257
176
     1
 43
1.0
176
     1
 76
     1
176
     1
 77
     6
176
     1
 78
     2
176
     1
 67
     7
176
     1
 79
     5
176
     1
170
     0
176
     1
171
     0
176
     1
290
     0
176
     1
 93
        1
176
     1
 44
0.0
176
     1
173
     0
176
     1
  0
VISUALSTYLE
  5
32
102
{ACAD_REACTORS
330
2A
102
}
330
2A
100
AcDbVisualStyle
  2
Basic
 70
     7
177
     2
291
     1
 71
     1
176
     1
 72
     0
176
     1
 73
     1
176
     1
 90
        0
176
     1
 40
-0.6
176
     1
 41
-30.0
176
     1
 62
     5
 63
     7
421
 16777215
176
     1
 74
     0
176
     1
 91
        4
176
     1
 64
     7
176
     1
 65
   257
176
     1
 75
     1
176
     1
175
     1
176
     1
 42
1.0
176
     1
 92
        8
176
     1
 66
     7
176
     1
 43
1.0
176
     1
 76
     1
176
     1
 77
     6
176
     1
 78
     2
176
     1
 67
     7
176
     1
 79
     5
176
     1
170
     0
176
     1
171
     0
176
     1
290
     0
176
     1
 93
        1
176
     1
 44
0.0
176
     1
173
     0
176
     1
  0
VISUALSTYLE
  5
36
102
{ACAD_REACTORS
330
2A
102
}
330
2A
100
AcDbVisualStyle
  2
Brighten
 70
    12
177
     2
291
     1
 71
     2
176
     1
 72
     2
176
     1
 73
     0
176
     1
 90
        0
176
     1
 40
-0.6
176
     1
 41
-30.0
176
     1
 62
     5
 63
     7
421
 16777215
176
     1
 74
     1
176
     1
 91
        4
176
     1
 64
     7
176
     1
 65
   257
176
     1
 75
     1
176
     1
175
     1
176
     1
 42
1.0
176
     1
 92
        8
176
     1
 66
     7
176
     1
 43
1.0
176
     1
 76
     1
176
     1
 77
     6
176
     1
 78
     2
176
     1
 67
     7
176
     1
 79
     5
176
     1
170
     0
176
     1
171
     0
176
     1
290
     0
176
     1
 93
        1
176
     1
 44
50.0
176
     1
173
     0
176
     1
  0
VISUALSTYLE
  5
3A
102
{ACAD_REACTORS
330
2A
102
}
330
2A
100
AcDbVisualStyle
  2
ColorChange
 70
    16
177
     2
291
     1
 71
     2
176
     1
 72
     2
176
     1
 73
     3
176
     1
 90
        0
176
     1
 40
-0.6
176
     1
 41
-30.0
176
     1
 62
     5
 63
     8
421
  8421504
176
     1
 74
     1
176
     1
 91
        4
176
     1
 64
     7
176
     1
 65
   257
176
     1
 75
     1
176
     1
175
     1
176
     1
 42
1.0
176
     1
 92
        8
176
     1
 66
     8
424
  8421504
176
     1
 43
1.0
176
     1
 76
     1
176
     1
 77
     6
176
     1
 78
     2
176
     1
 67
     7
176
     1
 79
     5
176
     1
170
     0
176
     1
171
     0
176
     1
290
     0
176
     1
 93
        1
176
     1
 44
0.0
176
     1
173
     0
176
     1
  0
VISUALSTYLE
  5
34
102
{ACAD_REACTORS
330
2A
102
}
330
2A
100
AcDbVisualStyle
  2
Conceptual
 70
     9
177
     2
291
     0
 71
     3
176
     1
 72
     2
176
     1
 73
     0
176
     1
 90
        0
176
     1
 40
-0.6
176
     1
 41
-30.0
176
     1
 62
     5
 63
     7
421
 16777215
176
     1
 74
     2
176
     1
 91
        2
176
     1
 64
     7
176
     1
 65
   257
176
     1
 75
     1
176
     1
175
     1
176
     1
 42
40.0
176
     1
 92
        8
176
     1
 66
     7
176
     1
 43
1.0
176
     1
 76
     1
176
     1
 77
     6
176
     1
 78
     2
176
     1
 67
     7
176
     1
 79
     3
176
     1
170
     0
176
     1
171
     0
176
     1
290
     0
176
     1
 93
        1
176
     1
 44
0.0
176
     1
173
     0
176
     1
  0
VISUALSTYLE
  5
35
102
{ACAD_REACTORS
330
2A
102
}
330
2A
100
AcDbVisualStyle
  2
Dim
 70
    11
177
     2
291
     1
 71
     2
176
     1
 72
     2
176
     1
 73
     0
176
     1
 90
        0
176
     1
 40
-0.6
176
     1
 41
-30.0
176
     1
 62
     5
 63
     7
421
 16777215
176
     1
 74
     1
176
     1
 91
        4
176
     1
 64
     7
176
     1
 65
   257
176
     1
 75
     1
176
     1
175
     1
176
     1
 42
1.0
176
     1
 92
        8
176
     1
 66
     7
176
     1
 43
1.0
176
     1
 76
     1
176
     1
 77
     6
176
     1
 78
     2
176
     1
 67
     7
176
     1
 79
     5
176
     1
170
     0
176
     1
171
     0
176
     1
290
     0
176
     1
 93
        1
176
     1
 44
-50.0
176
     1
173
     0
176
     1
  0
VISUALSTYLE
  5
39
102
{ACAD_REACTORS
330
2A
102
}
330
2A
100
AcDbVisualStyle
  2
Facepattern
 70
    15
177
     2
291
     1
 71
     2
176
     1
 72
     2
176
     1
 73
     0
176
     1
 90
        0
176
     1
 40
-0.6
176
     1
 41
-30.0
176
     1
 62
     5
 63
     7
421
 16777215
176
     1
 74
     1
176
     1
 91
        4
176
     1
 64
     7
176
     1
 65
   257
176
     1
 75
     1
176
     1
175
     1
176
     1
 42
1.0
176
     1
 92
        8
176
     1
 66
     7
176
     1
 43
1.0
176
     1
 76
     1
176
     1
 77
     6
176
     1
 78
     2
176
     1
 67
     7
176
     1
 79
     5
176
     1
170
     0
176
     1
171
     0
176
     1
290
     0
176
     1
 93
        1
176
     1
 44
0.0
176
     1
173
     0
176
     1
  0
VISUALSTYLE
  5
2B
102
{ACAD_REACTORS
330
2A
102
}
330
2A
100
AcDbVisualStyle
  2
Flat
 70
     0
177
     2
291
     1
 71
     2
176
     1
 72
     1
176
     1
 73
     1
176
     1
 90
        2
176
     1
 40
-0.6
176
     1
 41
30.0
176
     1
 62
     5
 63
     7
421
 16777215
176
     1
 74
     0
176
     1
 91
        4
176
     1
 64
     7
176
     1
 65
   257
176
     1
 75
     1
176
     1
175
     1
176
     1
 42
1.0
176
     1
 92
        8
176
     1
 66
     7
176
     1
 43
1.0
176
     1
 76
     1
176
     1
 77
     6
176
     1
 78
     2
176
     1
 67
     7
176
     1
 79
     5
176
     1
170
     0
176
     1
171
     0
176
     1
290
     0
176
     1
 93
       13
176
     1
 44
0.0
176
     1
173
     0
176
     1
  0
VISUALSTYLE
  5
2C
102
{ACAD_REACTORS
330
2A
102
}
330
2A
100
AcDbVisualStyle
  2
FlatWithEdges
 70
     1
177
     2
291
     1
 71
     2
176
     1
 72
     1
176
     1
 73
     1
176
     1
 90
        2
176
     1
 40
-0.6
176
     1
 41
30.0
176
     1
 62
     5
 63
     7
421
 16777215
176
     1
 74
     1
176
     1
 91
        4
176
     1
 64
     7
176
     1
 65
   257
176
     1
 75
     1
176
     1
175
     1
176
     1
 42
1.0
176
     1
 92
        0
176
     1
 66
   257
176
     1
 43
1.0
176
     1
 76
     1
176
     1
 77
     6
176
     1
 78
     2
176
     1
 67
     7
176
     1
 79
     5
176
     1
170
     0
176
     1
171
     0
176
     1
290
     0
176
     1
 93
       13
176
     1
 44
0.0
176
     1
173
     0
176
     1
  0
VISUALSTYLE
  5
2D
102
{ACAD_REACTORS
330
2A
102
}
330
2A
100
AcDbVisualStyle
  2
Gouraud
 70
     2
177
     2
291
     1
 71
     2
176
     1
 72
     2
176
     1
 73
     1
176
     1
 90
        2
176
     1
 40
-0.6
176
     1
 41
30.0
176
     1
 62
     5
 63
     7
421
 16777215
176
     1
 74
     0
176
     1
 91
        4
176
     1
 64
     7
176
     1
 65
   257
176
     1
 75
     1
176
     1
175
     1
176
     1
 42
1.0
176
     1
 92
        0
176
     1
 66
     7
176
     1
 43
1.0
176
     1
 76
     1
176
     1
 77
     6
176
     1
 78
     2
176
     1
 67
     7
176
     1
 79
     5
176
     1
170
     0
176
     1
171
     0
176
     1
290
     0
176
     1
 93
       13
176
     1
 44
0.0
176
     1
173
     0
176
     1
  0
VISUALSTYLE
  5
2E
102
{ACAD_REACTORS
330
2A
102
}
330
2A
100
AcDbVisualStyle
  2
GouraudWithEdges
 70
     3
177
     2
291
     1
 71
     2
176
     1
 72
     2
176
     1
 73
     1
176
     1
 90
        2
176
     1
 40
-0.6
176
     1
 41
30.0
176
     1
 62
     5
 63
     7
421
 16777215
176
     1
 74
     1
176
     1
 91
        4
176
     1
 64
     7
176
     1
 65
   257
176
     1
 75
     1
176
     1
175
     1
176
     1
 42
1.0
176
     1
 92
        0
176
     1
 66
   257
176
     1
 43
1.0
176
     1
 76
     1
176
     1
 77
     6
176
     1
 78
     2
176
     1
 67
     7
176
     1
 79
     5
176
     1
170
     0
176
     1
171
     0
176
     1
290
     0
176
     1
 93
       13
176
     1
 44
0.0
176
     1
173
     0
176
     1
  0
VISUALSTYLE
  5
38
102
{ACAD_REACTORS
330
2A
102
}
330
2A
100
AcDbVisualStyle
  2
Linepattern
 70
    14
177
     2
291
     1
 71
     2
176
     1
 72
     2
176
     1
 73
     0
176
     1
 90
        0
176
     1
 40
-0.6
176
     1
 41
-30.0
176
     1
 62
     5
 63
     7
421
 16777215
176
     1
 74
     1
176
     1
 91
        4
176
     1
 64
     7
176
     1
 65
   257
176
     1
 75
     7
176
     1
175
     7
176
     1
 42
1.0
176
     1
 92
        8
176
     1
 66
     7
176
     1
 43
1.0
176
     1
 76
     1
176
     1
 77
     6
176
     1
 78
     2
176
     1
 67
     7
176
     1
 79
     5
176
     1
170
     0
176
     1
171
     0
176
     1
290
     0
176
     1
 93
        1
176
     1
 44
0.0
176
     1
173
     0
176
     1
  0
VISUALSTYLE
  5
33
102
{ACAD_REACTORS
330
2A
102
}
330
2A
100
AcDbVisualStyle
  2
Realistic
 70
     8
177
     2
291
     0
 71
     2
176
     1
 72
     2
176
     1
 73
     0
176
     1
 90
        0
176
     1
 40
-0.6
176
     1
 41
-30.0
176
     1
 62
     5
 63
     7
421
 16777215
176
     1
 74
     1
176
     1
 91
        0
176
     1
 64
     7
176
     1
 65
   257
176
     1
 75
     1
176
     1
175
     1
176
     1
 42
1.0
176
     1
 92
        8
176
     1
 66
     8
424
  7895160
176
     1
 43
1.0
176
     1
 76
     1
176
     1
 77
     6
176
     1
 78
     2
176
     1
 67
     7
176
     1
 79
     5
176
     1
170
     0
176
     1
171
     0
176
     1
290
     0
176
     1
 93
       13
176
     1
 44
0.0
176
     1
173
     0
176
     1
  0
VISUALSTYLE
  5
37
102
{ACAD_REACTORS
330
2A
102
}
330
2A
100
AcDbVisualStyle
  2
Thicken
 70
    13
177
     2
291
     1
 71
     2
176
     1
 72
     2
176
     1
 73
     0
176
     1
 90
        0
176
     1
 40
-0.6
176
     1
 41
-30.0
176
     1
 62
     5
 63
     7
421
 16777215
176
     1
 74
     1
176
     1
 91
        4
176
     1
 64
     7
176
     1
 65
   257
176
     1
 75
     1
176
     1
175
     1
176
     1
 42
1.0
176
     1
 92
       12
176
     1
 66
     7
176
     1
 43
1.0
176
     1
 76
     1
176
     1
 77
     6
176
     1
 78
     2
176
     1
 67
     7
176
     1
 79
     5
176
     1
170
     0
176
     1
171
     0
176
     1
290
     0
176
     1
 93
        1
176
     1
 44
0.0
176
     1
173
     0
176
     1
  0
ENDSEC
  0
EOF
