  0
SECTION
  2
HEADER
  9
$ACADVER
  1
AC1024
  9
$ACADMAINTVER
 70
     6
  9
$DWGCODEPAGE
  3
ANSI_932
  9
$INSBASE
 10
0.0
 20
0.0
 30
0.0
  9
$EXTMIN
 10
-4455.0
 20
-3150.0
 30
0.0
  9
$EXTMAX
 10
4455.0
 20
3150.0
 30
0.0
  9
$LIMMIN
 10
-4455.0
 20
-3150.0
  9
$LIMMAX
 10
4455.0
 20
3150.0
  9
$ORTHOMODE
 70
     0
  9
$REGENMODE
 70
     1
  9
$FILLMODE
 70
     1
  9
$QTEXTMODE
 70
     0
  9
$MIRRTEXT
 70
     1
  9
$LTSCALE
 40
30.0
  9
$ATTMODE
 70
     1
  9
$TEXTSIZE
 40
2.5
  9
$TRACEWID
 40
1.0
  9
$TEXTSTYLE
  7
Standard
  9
$CLAYER
  8
0
  9
$CELTYPE
  6
ByLayer
  9
$CECOLOR
 62
   256
  9
$CELTSCALE
 40
1.0
  9
$DISPSILH
 70
     0
  9
$DIMSCALE
 40
1.0
  9
$DIMASZ
 40
2.5
  9
$DIMEXO
 40
0.625
  9
$DIMDLI
 40
3.75
  9
$DIMRND
 40
0.0
  9
$DIMDLE
 40
0.0
  9
$DIMEXE
 40
1.25
  9
$DIMTP
 40
0.0
  9
$DIMTM
 40
0.0
  9
$DIMTXT
 40
2.5
  9
$DIMCEN
 40
2.5
  9
$DIMTSZ
 40
0.0
  9
$DIMTOL
 70
     0
  9
$DIMLIM
 70
     0
  9
$DIMTIH
 70
     0
  9
$DIMTOH
 70
     0
  9
$DIMSE1
 70
     0
  9
$DIMSE2
 70
     0
  9
$DIMTAD
 70
     1
  9
$DIMZIN
 70
     8
  9
$DIMBLK
  1

  9
$DIMASO
 70
     1
  9
$DIMSHO
 70
     1
  9
$DIMPOST
  1

  9
$DIMAPOST
  1

  9
$DIMALT
 70
     0
  9
$DIMALTD
 70
     3
  9
$DIMALTF
 40
0.03937007874016
  9
$DIMLFAC
 40
1.0
  9
$DIMTOFL
 70
     1
  9
$DIMTVP
 40
0.0
  9
$DIMTIX
 70
     0
  9
$DIMSOXD
 70
     0
  9
$DIMSAH
 70
     0
  9
$DIMBLK1
  1

  9
$DIMBLK2
  1

  9
$DIMSTYLE
  2
ISO-25
  9
$DIMCLRD
 70
     0
  9
$DIMCLRE
 70
     0
  9
$DIMCLRT
 70
     0
  9
$DIMTFAC
 40
1.0
  9
$DIMGAP
 40
0.625
  9
$DIMJUST
 70
     0
  9
$DIMSD1
 70
     0
  9
$DIMSD2
 70
     0
  9
$DIMTOLJ
 70
     0
  9
$DIMTZIN
 70
     8
  9
$DIMALTZ
 70
     0
  9
$DIMALTTZ
 70
     0
  9
$DIMUPT
 70
     0
  9
$DIMDEC
 70
     2
  9
$DIMTDEC
 70
     2
  9
$DIMALTU
 70
     2
  9
$DIMALTTD
 70
     3
  9
$DIMTXSTY
  7
Standard
  9
$DIMAUNIT
 70
     0
  9
$DIMADEC
 70
     0
  9
$DIMALTRND
 40
0.0
  9
$DIMAZIN
 70
     0
  9
$DIMDSEP
 70
    44
  9
$DIMATFIT
 70
     3
  9
$DIMFRAC
 70
     0
  9
$DIMLDRBLK
  1

  9
$DIMLUNIT
 70
     2
  9
$DIMLWD
 70
    -2
  9
$DIMLWE
 70
    -2
  9
$DIMTMOVE
 70
     0
  9
$DIMFXL
 40
1.0
  9
$DIMFXLON
 70
     0
  9
$DIMJOGANG
 40
0.7853981633974483
  9
$DIMTFILL
 70
     0
  9
$DIMTFILLCLR
 70
     0
  9
$DIMARCSYM
 70
     0
  9
$DIMLTYPE
  6

  9
$DIMLTEX1
  6

  9
$DIMLTEX2
  6

  9
$DIMTXTDIRECTION
 70
     0
  9
$LUNITS
 70
     2
  9
$LUPREC
 70
     4
  9
$SKETCHINC
 40
1.0
  9
$FILLETRAD
 40
10.0
  9
$AUNITS
 70
     0
  9
$AUPREC
 70
     0
  9
$MENU
  1
.
  9
$ELEVATION
 40
0.0
  9
$PELEVATION
 40
0.0
  9
$THICKNESS
 40
0.0
  9
$LIMCHECK
 70
     0
  9
$CHAMFERA
 40
10.0
  9
$CHAMFERB
 40
10.0
  9
$CHAMFERC
 40
20.0
  9
$CHAMFERD
 40
0.0
  9
$SKPOLY
 70
     0
  9
$TDCREATE
 40
2457996.734498657
  9
$TDUCREATE
 40
2457996.359498657
  9
$TDUPDATE
 40
2457996.734498669
  9
$TDUUPDATE
 40
2457996.359498669
  9
$TDINDWG
 40
0.0000000116
  9
$TDUSRTIMER
 40
0.0000000116
  9
$USRTIMER
 70
     1
  9
$ANGBASE
 50
0.0
  9
$ANGDIR
 70
     0
  9
$PDMODE
 70
     0
  9
$PDSIZE
 40
0.0
  9
$PLINEWID
 40
0.0
  9
$SPLFRAME
 70
     0
  9
$SPLINETYPE
 70
     6
  9
$SPLINESEGS
 70
     8
  9
$HANDSEED
  5
2AD
  9
$SURFTAB1
 70
     6
  9
$SURFTAB2
 70
     6
  9
$SURFTYPE
 70
     6
  9
$SURFU
 70
     6
  9
$SURFV
 70
     6
  9
$UCSBASE
  2

  9
$UCSNAME
  2

  9
$UCSORG
 10
0.0
 20
0.0
 30
0.0
  9
$UCSXDIR
 10
1.0
 20
0.0
 30
0.0
  9
$UCSYDIR
 10
0.0
 20
1.0
 30
0.0
  9
$UCSORTHOREF
  2

  9
$UCSORTHOVIEW
 70
     0
  9
$UCSORGTOP
 10
0.0
 20
0.0
 30
0.0
  9
$UCSORGBOTTOM
 10
0.0
 20
0.0
 30
0.0
  9
$UCSORGLEFT
 10
0.0
 20
0.0
 30
0.0
  9
$UCSORGRIGHT
 10
0.0
 20
0.0
 30
0.0
  9
$UCSORGFRONT
 10
0.0
 20
0.0
 30
0.0
  9
$UCSORGBACK
 10
0.0
 20
0.0
 30
0.0
  9
$PUCSBASE
  2

  9
$PUCSNAME
  2

  9
$PUCSORG
 10
0.0
 20
0.0
 30
0.0
  9
$PUCSXDIR
 10
1.0
 20
0.0
 30
0.0
  9
$PUCSYDIR
 10
0.0
 20
1.0
 30
0.0
  9
$PUCSORTHOREF
  2

  9
$PUCSORTHOVIEW
 70
     0
  9
$PUCSORGTOP
 10
0.0
 20
0.0
 30
0.0
  9
$PUCSORGBOTTOM
 10
0.0
 20
0.0
 30
0.0
  9
$PUCSORGLEFT
 10
0.0
 20
0.0
 30
0.0
  9
$PUCSORGRIGHT
 10
0.0
 20
0.0
 30
0.0
  9
$PUCSORGFRONT
 10
0.0
 20
0.0
 30
0.0
  9
$PUCSORGBACK
 10
0.0
 20
0.0
 30
0.0
  9
$USERI1
 70
     0
  9
$USERI2
 70
     0
  9
$USERI3
 70
     0
  9
$USERI4
 70
     0
  9
$USERI5
 70
     0
  9
$USERR1
 40
0.0
  9
$USERR2
 40
0.0
  9
$USERR3
 40
0.0
  9
$USERR4
 40
0.0
  9
$USERR5
 40
0.0
  9
$WORLDVIEW
 70
     1
  9
$SHADEDGE
 70
     3
  9
$SHADEDIF
 70
    70
  9
$TILEMODE
 70
     1
  9
$MAXACTVP
 70
    64
  9
$PINSBASE
 10
0.0
 20
0.0
 30
0.0
  9
$PLIMCHECK
 70
     0
  9
$PEXTMIN
 10
1.000000000000000E+20
 20
1.000000000000000E+20
 30
1.000000000000000E+20
  9
$PEXTMAX
 10
-1.000000000000000E+20
 20
-1.000000000000000E+20
 30
-1.000000000000000E+20
  9
$PLIMMIN
 10
0.0
 20
0.0
  9
$PLIMMAX
 10
420.0
 20
297.0
  9
$UNITMODE
 70
     0
  9
$VISRETAIN
 70
     1
  9
$PLINEGEN
 70
     0
  9
$PSLTSCALE
 70
     1
  9
$TREEDEPTH
 70
  3020
  9
$CMLSTYLE
  2
Standard
  9
$CMLJUST
 70
     0
  9
$CMLSCALE
 40
20.0
  9
$PROXYGRAPHICS
 70
     1
  9
$MEASUREMENT
 70
     1
  9
$CELWEIGHT
370
    -1
  9
$ENDCAPS
280
     0
  9
$JOINSTYLE
280
     0
  9
$LWDISPLAY
290
     0
  9
$INSUNITS
 70
     4
  9
$HYPERLINKBASE
  1

  9
$STYLESHEET
  1

  9
$XEDIT
290
     1
  9
$CEPSNTYPE
380
     0
  9
$PSTYLEMODE
290
     1
  9
$FINGERPRINTGUID
  2
{F7F2055E-62D5-4C81-99EA-955244713644}
  9
$VERSIONGUID
  2
{FAEB1C32-E019-11D5-929B-00C0DF256EC4}
  9
$EXTNAMES
290
     1
  9
$PSVPSCALE
 40
0.0
  9
$OLESTARTUP
290
     0
  9
$SORTENTS
280
   127
  9
$INDEXCTL
280
     0
  9
$HIDETEXT
280
     1
  9
$XCLIPFRAME
280
     2
  9
$HALOGAP
280
     0
  9
$OBSCOLOR
 70
   257
  9
$OBSLTYPE
280
     0
  9
$INTERSECTIONDISPLAY
280
     0
  9
$INTERSECTIONCOLOR
 70
   257
  9
$DIMASSOC
280
     2
  9
$PROJECTNAME
  1

  9
$CAMERADISPLAY
290
     0
  9
$LENSLENGTH
 40
50.0
  9
$CAMERAHEIGHT
 40
0.0
  9
$STEPSPERSEC
 40
2.0
  9
$STEPSIZE
 40
6.0
  9
$3DDWFPREC
 40
2.0
  9
$PSOLWIDTH
 40
5.0
  9
$PSOLHEIGHT
 40
80.0
  9
$LOFTANG1
 40
1.570796326794897
  9
$LOFTANG2
 40
1.570796326794897
  9
$LOFTMAG1
 40
0.0
  9
$LOFTMAG2
 40
0.0
  9
$LOFTPARAM
 70
     7
  9
$LOFTNORMALS
280
     1
  9
$LATITUDE
 40
37.795
  9
$LONGITUDE
 40
-122.394
  9
$NORTHDIRECTION
 40
0.0
  9
$TIMEZONE
 70
 -8000
  9
$LIGHTGLYPHDISPLAY
280
     1
  9
$TILEMODELIGHTSYNCH
280
     1
  9
$SOLIDHIST
280
     1
  9
$SHOWHIST
280
     1
  9
$DWFFRAME
280
     2
  9
$DGNFRAME
280
     2
  9
$REALWORLDSCALE
290
     1
  9
$INTERFERECOLOR
 62
   256
  9
$CSHADOW
280
     0
  9
$SHADOWPLANELOCATION
 40
0.0
  0
ENDSEC
  0
SECTION
  2
CLASSES
  0
CLASS
  1
ACDBDICTIONARYWDFLT
  2
AcDbDictionaryWithDefault
  3
ObjectDBX Classes
 90
        0
 91
        4
280
     0
281
     0
  0
CLASS
  1
VISUALSTYLE
  2
AcDbVisualStyle
  3
ObjectDBX Classes
 90
     4095
 91
        4
280
     0
281
     0
  0
CLASS
  1
MATERIAL
  2
AcDbMaterial
  3
ObjectDBX Classes
 90
     1153
 91
        4
280
     0
281
     0
  0
ENDSEC
  0
SECTION
  2
TABLES
  0
TABLE
  2
VPORT
  5
8
330
0
100
AcDbSymbolTable
 70
     1
  0
VPORT
  5
29
330
8
100
AcDbSymbolTableRecord
100
AcDbViewportTableRecord
  2
*Active
 70
     0
 10
0.0
 20
0.0
 11
1.0
 21
1.0
 12
0.0
 22
0.0
 13
0.0
 23
0.0
 14
10.0
 24
10.0
 15
10.0
 25
10.0
 16
0.0
 26
0.0
 36
1.0
 17
0.0
 27
0.0
 37
0.0
 40
6930.000000000001
 41
1.414285714285714
 42
50.0
 43
0.0
 44
0.0
 50
0.0
 51
0.0
 71
     0
 72
 10000
 73
     1
 74
     3
 75
     0
 76
     0
 77
     0
 78
     0
281
     0
 65
     1
110
0.0
120
0.0
130
0.0
111
1.0
121
0.0
131
0.0
112
0.0
122
1.0
132
0.0
 79
     0
146
0.0
 60
     3
 61
     5
292
     1
282
     1
141
0.0
142
0.0
 63
   250
  0
ENDTAB
  0
TABLE
  2
LTYPE
  5
5
330
0
100
AcDbSymbolTable
 70
     2
  0
LTYPE
  5
14
330
5
100
AcDbSymbolTableRecord
100
AcDbLinetypeTableRecord
  2
ByBlock
 70
     0
  3

 72
    65
 73
     0
 40
0.0
  0
LTYPE
  5
15
330
5
100
AcDbSymbolTableRecord
100
AcDbLinetypeTableRecord
  2
ByLayer
 70
     0
  3

 72
    65
 73
     0
 40
0.0
  0
LTYPE
  5
16
330
5
100
AcDbSymbolTableRecord
100
AcDbLinetypeTableRecord
  2
Continuous
 70
     0
  3
Solid line
 72
    65
 73
     0
 40
0.0
  0
LTYPE
  5
3F
330
5
100
AcDbSymbolTableRecord
100
AcDbLinetypeTableRecord
  2
JWW_DASHED1
 70
     0
  3
-  --  --  --  --  --  --  --  -
 72
    65
 73
     2
 40
1.693333333333333
 49
0.8466666666666667
 74
     0
 49
-0.8466666666666667
 74
     0
  0
ENDTAB
  0
TABLE
  2
LAYER
  5
2
330
0
100
AcDbSymbolTable
 70
     3
  0
LAYER
  5
10
330
2
100
AcDbSymbolTableRecord
100
AcDbLayerTableRecord
  2
0
 70
     0
 62
     7
  6
Continuous
370
    -3
390
F
347
3E
  0
LAYER
  5
40
330
2
100
AcDbSymbolTableRecord
100
AcDbLayerTableRecord
  2
0-0
 70
     0
 62
     7
  6
Continuous
370
    -3
390
F
347
3E
  0
LAYER
  5
41
330
2
100
AcDbSymbolTableRecord
100
AcDbLayerTableRecord
  2
寸法
 70
     0
 62
     7
  6
Continuous
370
    -3
390
F
347
3E
  0
ENDTAB
  0
TABLE
  2
STYLE
  5
3
330
0
100
AcDbSymbolTable
 70
     1
  0
STYLE
  5
11
330
3
100
AcDbSymbolTableRecord
100
AcDbTextStyleTableRecord
  2
Standard
 70
     0
 40
0.0
 41
1.0
 50
0.0
 71
     0
 42
2.5
  3
txt
  4

  0
ENDTAB
  0
TABLE
  2
VIEW
  5
6
330
0
100
AcDbSymbolTable
 70
     0
  0
ENDTAB
  0
TABLE
  2
UCS
  5
7
330
0
100
AcDbSymbolTable
 70
     0
  0
ENDTAB
  0
TABLE
  2
APPID
  5
9
330
0
100
AcDbSymbolTable
 70
     1
  0
APPID
  5
12
330
9
100
AcDbSymbolTableRecord
100
AcDbRegAppTableRecord
  2
ACAD
 70
     0
  0
ENDTAB
  0
TABLE
  2
DIMSTYLE
  5
A
330
0
100
AcDbSymbolTable
 70
     1
100
AcDbDimStyleTable
  0
DIMSTYLE
105
27
330
A
100
AcDbSymbolTableRecord
100
AcDbDimStyleTableRecord
  2
ISO-25
 70
     0
 41
2.5
 42
0.625
 43
3.75
 44
1.25
 73
     0
 74
     0
 77
     1
 78
     8
140
2.5
141
2.5
143
0.03937007874016
147
0.625
171
     3
172
     1
178
     0
271
     2
272
     2
274
     3
278
    44
283
     0
284
     8
340
11
  0
ENDTAB
  0
TABLE
  2
BLOCK_RECORD
  5
1
330
0
100
AcDbSymbolTable
 70
     1
  0
BLOCK_RECORD
  5
1F
330
1
100
AcDbSymbolTableRecord
100
AcDbBlockTableRecord
  2
*Model_Space
340
22
 70
     0
280
     1
281
     0
  0
BLOCK_RECORD
  5
1B
330
1
100
AcDbSymbolTableRecord
100
AcDbBlockTableRecord
  2
*Paper_Space
340
1E
 70
     0
280
     1
281
     0
  0
BLOCK_RECORD
  5
23
330
1
100
AcDbSymbolTableRecord
100
AcDbBlockTableRecord
  2
*Paper_Space0
340
26
 70
     0
280
     1
281
     0
  0
ENDTAB
  0
ENDSEC
  0
SECTION
  2
BLOCKS
  0
BLOCK
  5
20
330
1F
100
AcDbEntity
  8
0
100
AcDbBlockBegin
  2
*Model_Space
 70
     0
 10
0.0
 20
0.0
 30
0.0
  3
*Model_Space
  1

  0
ENDBLK
  5
21
330
1F
100
AcDbEntity
  8
0
100
AcDbBlockEnd
  0
BLOCK
  5
1C
330
1B
100
AcDbEntity
 67
     1
  8
0
100
AcDbBlockBegin
  2
*Paper_Space
 70
     0
 10
0.0
 20
0.0
 30
0.0
  3
*Paper_Space
  1

  0
ENDBLK
  5
1D
330
1B
100
AcDbEntity
 67
     1
  8
0
100
AcDbBlockEnd
  0
BLOCK
  5
24
330
23
100
AcDbEntity
  8
0
100
AcDbBlockBegin
  2
*Paper_Space0
 70
     0
 10
0.0
 20
0.0
 30
0.0
  3
*Paper_Space0
  1

  0
ENDBLK
  5
25
330
23
100
AcDbEntity
  8
0
100
AcDbBlockEnd
  0
ENDSEC
  0
SECTION
  2
ENTITIES
  0
ARC
  5
42
330
1F
100
AcDbEntity
  8
0-0
  6
Continuous
 62
    92
370
    13
100
AcDbCircle
 10
409.4311497745022
 20
57.51660266030697
 30
0.0
 40
1.5
100
AcDbArc
 50
0.0
 51
90.0
  0
LINE
  5
43
330
1F
100
AcDbEntity
  8
0-0
  6
Continuous
 62
    92
370
    13
100
AcDbLine
 10
370.4311497745027
 20
59.01660266030731
 30
0.0
 11
409.4311497745022
 21
59.01660266030731
 31
0.0
  0
ARC
  5
44
330
1F
100
AcDbEntity
  8
0-0
  6
Continuous
 62
    92
370
    13
100
AcDbCircle
 10
370.4311497745027
 20
57.51660266030697
 30
0.0
 40
1.5
100
AcDbArc
 50
89.99999999999999
 51
180.0
  0
LINE
  5
45
330
1F
100
AcDbEntity
  8
0-0
  6
Continuous
 62
    92
370
    13
100
AcDbLine
 10
368.9311497745023
 20
-61.48339733969223
 30
0.0
 11
368.9311497745023
 21
57.51660266030697
 31
0.0
  0
ARC
  5
46
330
1F
100
AcDbEntity
  8
0-0
  6
Continuous
 62
    92
370
    13
100
AcDbCircle
 10
370.4311497745027
 20
-61.48339733969223
 30
0.0
 40
1.5
100
AcDbArc
 50
180.0
 51
270.0
  0
LINE
  5
47
330
1F
100
AcDbEntity
  8
0-0
  6
Continuous
 62
    92
370
    13
100
AcDbLine
 10
409.4311497745022
 20
-62.98339733969428
 30
0.0
 11
370.4311497745027
 21
-62.98339733969428
 31
0.0
  0
LINE
  5
48
330
1F
100
AcDbEntity
  8
0-0
  6
Continuous
 62
    92
370
    13
100
AcDbLine
 10
410.9311497745016
 20
-61.48339733969223
 30
0.0
 11
410.9311497745016
 21
57.51660266030697
 31
0.0
  0
ARC
  5
49
330
1F
100
AcDbEntity
  8
0-0
  6
Continuous
 62
    92
370
    13
100
AcDbCircle
 10
409.4311497745022
 20
-61.48339733969223
 30
0.0
 40
1.5
100
AcDbArc
 50
270.0
 51
0.0
  0
ARC
  5
4A
330
1F
100
AcDbEntity
  8
0-0
  6
Continuous
 62
     7
370
     9
100
AcDbCircle
 10
389.931149774502
 20
-31.58339733969214
 30
0.0
 40
15.0
100
AcDbArc
 50
180.0
 51
0.0
  0
ARC
  5
4B
330
1F
100
AcDbEntity
  8
0-0
  6
Continuous
 62
     7
370
     9
100
AcDbCircle
 10
389.931149774502
 20
27.61660266030518
 30
0.0
 40
15.0
100
AcDbArc
 50
0.0
 51
180.0
  0
LINE
  5
4C
330
1F
100
AcDbEntity
  8
0-0
  6
Continuous
 62
     7
370
     9
100
AcDbLine
 10
374.931149774502
 20
-31.58339733969214
 30
0.0
 11
374.931149774502
 21
27.61660266030518
 31
0.0
  0
LINE
  5
4D
330
1F
100
AcDbEntity
  8
0-0
  6
Continuous
 62
     7
370
     9
100
AcDbLine
 10
404.931149774502
 20
27.61660266030518
 30
0.0
 11
404.931149774502
 21
-31.58339733969214
 31
0.0
  0
LINE
  5
4E
330
1F
100
AcDbEntity
  8
0-0
  6
Continuous
 62
    92
370
    13
100
AcDbLine
 10
-1176.068850225499
 20
-979.4833973396929
 30
0.0
 11
467.9311497745018
 21
-979.4833973396929
 31
0.0
  0
LINE
  5
4F
330
1F
100
AcDbEntity
  8
0-0
  6
Continuous
 62
    92
370
    13
100
AcDbLine
 10
-1146.068850225499
 20
-964.4833973396929
 30
0.0
 11
437.9311497745018
 21
-964.4833973396929
 31
0.0
  0
LINE
  5
50
330
1F
100
AcDbEntity
  8
0-0
  6
JWW_DASHED1
 62
   120
370
     5
100
AcDbLine
 10
437.9311497745018
 20
-959.4833973396924
 30
0.0
 11
440.9311497745016
 21
-959.4833973396924
 31
0.0
  0
LINE
  5
51
330
1F
100
AcDbEntity
  8
0-0
  6
JWW_DASHED1
 62
   120
370
     5
100
AcDbLine
 10
440.9311497745016
 20
-959.4833973396924
 30
0.0
 11
440.9311497745016
 21
1023.516602660307
 31
0.0
  0
LINE
  5
52
330
1F
100
AcDbEntity
  8
0-0
  6
JWW_DASHED1
 62
   120
370
     5
100
AcDbLine
 10
437.9311497745018
 20
1023.516602660307
 30
0.0
 11
440.9311497745016
 21
1023.516602660307
 31
0.0
  0
LINE
  5
53
330
1F
100
AcDbEntity
  8
0-0
  6
JWW_DASHED1
 62
   120
370
     5
100
AcDbLine
 10
-369.0688502254984
 20
-964.4833973396929
 30
0.0
 11
-369.0688502254984
 21
1037.516602660308
 31
0.0
  0
LINE
  5
54
330
1F
100
AcDbEntity
  8
0-0
  6
JWW_DASHED1
 62
   120
370
     5
100
AcDbLine
 10
-339.0688502254984
 20
-964.4833973396929
 30
0.0
 11
-339.0688502254984
 21
1037.516602660308
 31
0.0
  0
LINE
  5
55
330
1F
100
AcDbEntity
  8
0-0
  6
JWW_DASHED1
 62
   120
370
     5
100
AcDbLine
 10
-369.0688502254984
 20
1023.516602660307
 30
0.0
 11
-369.0688502254984
 21
1019.516602660307
 31
0.0
  0
LINE
  5
56
330
1F
100
AcDbEntity
  8
0-0
  6
Continuous
 62
    92
370
    13
100
AcDbLine
 10
-369.0688502254984
 20
1023.516602660307
 30
0.0
 11
-369.0688502254984
 21
-959.4833973396924
 31
0.0
  0
LINE
  5
57
330
1F
100
AcDbEntity
  8
0-0
  6
Continuous
 62
    92
370
    13
100
AcDbLine
 10
437.9311497745018
 20
1023.516602660307
 30
0.0
 11
-369.0688502254984
 21
1023.516602660307
 31
0.0
  0
LINE
  5
58
330
1F
100
AcDbEntity
  8
0-0
  6
Continuous
 62
    92
370
    13
100
AcDbLine
 10
437.9311497745018
 20
-959.4833973396924
 30
0.0
 11
-369.0688502254984
 21
-959.4833973396924
 31
0.0
  0
LINE
  5
59
330
1F
100
AcDbEntity
  8
0-0
  6
Continuous
 62
    92
370
    13
100
AcDbLine
 10
-1176.068850225499
 20
-979.4833973396929
 30
0.0
 11
-1176.068850225499
 21
1067.516602660308
 31
0.0
  0
LINE
  5
5A
330
1F
100
AcDbEntity
  8
0-0
  6
Continuous
 62
    92
370
    13
100
AcDbLine
 10
-1146.068850225499
 20
-979.4833973396929
 30
0.0
 11
-1146.068850225499
 21
1037.516602660308
 31
0.0
  0
LINE
  5
5B
330
1F
100
AcDbEntity
  8
0-0
  6
Continuous
 62
    92
370
    13
100
AcDbLine
 10
467.9311497745018
 20
-979.4833973396929
 30
0.0
 11
467.9311497745018
 21
1067.516602660308
 31
0.0
  0
LINE
  5
5C
330
1F
100
AcDbEntity
  8
0-0
  6
Continuous
 62
    92
370
    13
100
AcDbLine
 10
437.9311497745018
 20
-979.4833973396929
 30
0.0
 11
437.9311497745018
 21
1037.516602660308
 31
0.0
  0
LINE
  5
5D
330
1F
100
AcDbEntity
  8
0-0
  6
Continuous
 62
    92
370
    13
100
AcDbLine
 10
-1146.068850225499
 20
1037.516602660308
 30
0.0
 11
437.9311497745018
 21
1037.516602660308
 31
0.0
  0
LINE
  5
5E
330
1F
100
AcDbEntity
  8
0-0
  6
Continuous
 62
    92
370
    13
100
AcDbLine
 10
-1176.068850225499
 20
1067.516602660308
 30
0.0
 11
467.9311497745018
 21
1067.516602660308
 31
0.0
  0
LINE
  5
5F
330
1F
100
AcDbEntity
  8
0-0
  6
Continuous
 62
    92
370
    13
100
AcDbLine
 10
-259.0688502254995
 20
-809.4833973396926
 30
0.0
 11
330.9311497745011
 21
-809.4833973396926
 31
0.0
  0
LINE
  5
60
330
1F
100
AcDbEntity
  8
0-0
  6
JWW_DASHED1
 62
   120
370
     5
100
AcDbLine
 10
328.0376311562957
 20
-809.4833973396795
 30
0.0
 11
330.9311497744891
 21
-806.5898787214858
 31
0.0
  0
LINE
  5
61
330
1F
100
AcDbEntity
  8
0-0
  6
JWW_DASHED1
 62
   120
370
     5
100
AcDbLine
 10
320.9665633444188
 20
-809.4833973396898
 30
0.0
 11
330.9311497744994
 21
-799.5188109096089
 31
0.0
  0
LINE
  5
62
330
1F
100
AcDbEntity
  8
0-0
  6
JWW_DASHED1
 62
   120
370
     5
100
AcDbLine
 10
313.8954955325419
 20
-809.4833973396987
 30
0.0
 11
330.9311497745079
 21
-792.4477430977328
 31
0.0
  0
LINE
  5
63
330
1F
100
AcDbEntity
  8
0-0
  6
JWW_DASHED1
 62
   120
370
     5
100
AcDbLine
 10
306.8244277206957
 20
-809.4833973396787
 30
0.0
 11
330.9311497744874
 21
-785.3766752858874
 31
0.0
  0
LINE
  5
64
330
1F
100
AcDbEntity
  8
0-0
  6
JWW_DASHED1
 62
   120
370
     5
100
AcDbLine
 10
299.7533599088188
 20
-809.483397339689
 30
0.0
 11
330.9311497744977
 21
-778.3056074740109
 31
0.0
  0
LINE
  5
65
330
1F
100
AcDbEntity
  8
0-0
  6
JWW_DASHED1
 62
   120
370
     5
100
AcDbLine
 10
292.6822920969419
 20
-809.4833973396992
 30
0.0
 11
330.9311497745062
 21
-771.2345396621345
 31
0.0
  0
LINE
  5
66
330
1F
100
AcDbEntity
  8
0-0
  6
JWW_DASHED1
 62
   120
370
     5
100
AcDbLine
 10
285.6112242850684
 20
-809.4833973397065
 30
0.0
 11
330.9311497745164
 21
-764.163471850258
 31
0.0
  0
LINE
  5
67
330
1F
100
AcDbEntity
  8
0-0
  6
JWW_DASHED1
 62
   120
370
     5
100
AcDbLine
 10
278.5401564732205
 20
-809.4833973396877
 30
0.0
 11
330.931149774496
 21
-757.0924040384126
 31
0.0
  0
LINE
  5
68
330
1F
100
AcDbEntity
  8
0-0
  6
JWW_DASHED1
 62
   120
370
     5
100
AcDbLine
 10
271.4690886613436
 20
-809.4833973396983
 30
0.0
 11
330.9311497745045
 21
-750.0213362265359
 31
0.0
  0
LINE
  5
69
330
1F
100
AcDbEntity
  8
0-0
  6
JWW_DASHED1
 62
   120
370
     5
100
AcDbLine
 10
264.3980208494701
 20
-809.4833973397043
 30
0.0
 11
330.9311497745147
 21
-742.9502684146597
 31
0.0
  0
LINE
  5
6A
330
1F
100
AcDbEntity
  8
0-0
  6
JWW_DASHED1
 62
   120
370
     5
100
AcDbLine
 10
257.3269530376205
 20
-809.483397339687
 30
0.0
 11
330.9311497744943
 21
-735.8792006028143
 31
0.0
  0
LINE
  5
6B
330
1F
100
AcDbEntity
  8
0-0
  6
JWW_DASHED1
 62
   120
370
     5
100
AcDbLine
 10
250.2558852257436
 20
-809.4833973396973
 30
0.0
 11
330.9311497745045
 21
-728.8081327909374
 31
0.0
  0
LINE
  5
6C
330
1F
100
AcDbEntity
  8
0-0
  6
JWW_DASHED1
 62
   120
370
     5
100
AcDbLine
 10
243.1848174138735
 20
-809.4833973397017
 30
0.0
 11
330.931149774513
 21
-721.7370649790619
 31
0.0
  0
LINE
  5
6D
330
1F
100
AcDbEntity
  8
0-0
  6
JWW_DASHED1
 62
   120
370
     5
100
AcDbLine
 10
236.1137496020222
 20
-809.483397339686
 30
0.0
 11
330.9311497744926
 21
-714.665997167216
 31
0.0
  0
LINE
  5
6E
330
1F
100
AcDbEntity
  8
0-0
  6
JWW_DASHED1
 62
   120
370
     5
100
AcDbLine
 10
229.0426817901453
 20
-809.4833973396962
 30
0.0
 11
330.9311497745011
 21
-707.5949293553393
 31
0.0
  0
LINE
  5
6F
330
1F
100
AcDbEntity
  8
0-0
  6
JWW_DASHED1
 62
   120
370
     5
100
AcDbLine
 10
221.9716139782752
 20
-809.4833973396996
 30
0.0
 11
330.9311497745113
 21
-700.5238615434635
 31
0.0
  0
LINE
  5
70
330
1F
100
AcDbEntity
  8
0-0
  6
JWW_DASHED1
 62
   120
370
     5
100
AcDbLine
 10
214.9005461664222
 20
-809.4833973396851
 30
0.0
 11
330.9311497744908
 21
-693.4527937316177
 31
0.0
  0
LINE
  5
71
330
1F
100
AcDbEntity
  8
0-0
  6
JWW_DASHED1
 62
   120
370
     5
100
AcDbLine
 10
207.8294783545453
 20
-809.4833973396953
 30
0.0
 11
330.9311497745011
 21
-686.3817259197408
 31
0.0
  0
LINE
  5
72
330
1F
100
AcDbEntity
  8
0-0
  6
JWW_DASHED1
 62
   120
370
     5
100
AcDbLine
 10
200.7584105426769
 20
-809.4833973396975
 30
0.0
 11
330.9311497745096
 21
-679.3106581078656
 31
0.0
  0
LINE
  5
73
330
1F
100
AcDbEntity
  8
0-0
  6
JWW_DASHED1
 62
   120
370
     5
100
AcDbLine
 10
193.6873427308239
 20
-809.4833973396842
 30
0.0
 11
330.9311497744891
 21
-672.2395902960194
 31
0.0
  0
LINE
  5
74
330
1F
100
AcDbEntity
  8
0-0
  6
JWW_DASHED1
 62
   120
370
     5
100
AcDbLine
 10
186.616274918947
 20
-809.4833973396944
 30
0.0
 11
330.9311497744977
 21
-665.1685224841427
 31
0.0
  0
LINE
  5
75
330
1F
100
AcDbEntity
  8
0-0
  6
JWW_DASHED1
 62
   120
370
     5
100
AcDbLine
 10
179.5452071070786
 20
-809.4833973396951
 30
0.0
 11
330.9311497745062
 21
-658.0974546722675
 31
0.0
  0
LINE
  5
76
330
1F
100
AcDbEntity
  8
0-0
  6
JWW_DASHED1
 62
   120
370
     5
100
AcDbLine
 10
172.4741392952034
 20
-809.4833973397048
 30
0.0
 11
330.9311497745164
 21
-651.0263868603909
 31
0.0
  0
LINE
  5
77
330
1F
100
AcDbEntity
  8
0-0
  6
JWW_DASHED1
 62
   120
370
     5
100
AcDbLine
 10
165.403071483347
 20
-809.4833973396936
 30
0.0
 11
330.931149774496
 21
-643.9553190485447
 31
0.0
  0
LINE
  5
78
330
1F
100
AcDbEntity
  8
0-0
  6
JWW_DASHED1
 62
   120
370
     5
100
AcDbLine
 10
158.3320036714701
 20
-809.4833973397039
 30
0.0
 11
330.9311497745045
 21
-636.8842512366695
 31
0.0
  0
LINE
  5
79
330
1F
100
AcDbEntity
  8
0-0
  6
JWW_DASHED1
 62
   120
370
     5
100
AcDbLine
 10
151.2609358596051
 20
-809.4833973397026
 30
0.0
 11
330.9311497745147
 21
-629.813183424793
 31
0.0
  0
LINE
  5
7A
330
1F
100
AcDbEntity
  8
0-0
  6
JWW_DASHED1
 62
   120
370
     5
100
AcDbLine
 10
144.1898680477487
 20
-809.4833973396926
 30
0.0
 11
330.9311497744943
 21
-622.7421156129461
 31
0.0
  0
LINE
  5
7B
330
1F
100
AcDbEntity
  8
0-0
  6
JWW_DASHED1
 62
   120
370
     5
100
AcDbLine
 10
137.1188002358718
 20
-809.4833973397028
 30
0.0
 11
330.9311497745045
 21
-615.6710478010694
 31
0.0
  0
LINE
  5
7C
330
1F
100
AcDbEntity
  8
0-0
  6
JWW_DASHED1
 62
   120
370
     5
100
AcDbLine
 10
130.0477324240068
 20
-809.4833973397004
 30
0.0
 11
330.931149774513
 21
-608.5999799891947
 31
0.0
  0
LINE
  5
7D
330
1F
100
AcDbEntity
  8
0-0
  6
JWW_DASHED1
 62
   120
370
     5
100
AcDbLine
 10
122.9766646121487
 20
-809.4833973396917
 30
0.0
 11
330.9311497744926
 21
-601.528912177348
 31
0.0
  0
LINE
  5
7E
330
1F
100
AcDbEntity
  8
0-0
  6
JWW_DASHED1
 62
   120
370
     5
100
AcDbLine
 10
115.9055968002718
 20
-809.4833973397019
 30
0.0
 11
330.9311497745028
 21
-594.4578443654711
 31
0.0
  0
LINE
  5
7F
330
1F
100
AcDbEntity
  8
0-0
  6
JWW_DASHED1
 62
   120
370
     5
100
AcDbLine
 10
108.8345289884102
 20
-809.483397339698
 30
0.0
 11
330.9311497745113
 21
-587.3867765535966
 31
0.0
  0
LINE
  5
80
330
1F
100
AcDbEntity
  8
0-0
  6
JWW_DASHED1
 62
   120
370
     5
100
AcDbLine
 10
101.7634611765504
 20
-809.4833973396909
 30
0.0
 11
330.9311497744908
 21
-580.3157087417497
 31
0.0
  0
LINE
  5
81
330
1F
100
AcDbEntity
  8
0-0
  6
JWW_DASHED1
 62
   120
370
     5
100
AcDbLine
 10
94.69239336467346
 20
-809.4833973397011
 30
0.0
 11
330.9311497745011
 21
-573.2446409298728
 31
0.0
  0
LINE
  5
82
330
1F
100
AcDbEntity
  8
0-0
  6
JWW_DASHED1
 62
   120
370
     5
100
AcDbLine
 10
87.62132555281191
 20
-809.4833973396958
 30
0.0
 11
330.9311497745096
 21
-566.1735731179986
 31
0.0
  0
LINE
  5
83
330
1F
100
AcDbEntity
  8
0-0
  6
JWW_DASHED1
 62
   120
370
     5
100
AcDbLine
 10
80.93114977449822
 20
-809.1025053061423
 30
0.0
 11
330.9311497744891
 21
-559.1025053061514
 31
0.0
  0
LINE
  5
84
330
1F
100
AcDbEntity
  8
0-0
  6
JWW_DASHED1
 62
   120
370
     5
100
AcDbLine
 10
80.93114977450846
 20
-802.0314374942659
 30
0.0
 11
330.9311497744994
 21
-552.0314374942745
 31
0.0
  0
LINE
  5
85
330
1F
100
AcDbEntity
  8
0-0
  6
JWW_DASHED1
 62
   120
370
     5
100
AcDbLine
 10
80.93114977450334
 20
-794.9603696824051
 30
0.0
 11
330.9311497745079
 21
-544.9603696824006
 31
0.0
  0
LINE
  5
86
330
1F
100
AcDbEntity
  8
0-0
  6
JWW_DASHED1
 62
   120
370
     5
100
AcDbLine
 10
80.93114977449652
 20
-787.8893018705443
 30
0.0
 11
330.9311497744874
 21
-537.8893018705531
 31
0.0
  0
LINE
  5
87
330
1F
100
AcDbEntity
  8
0-0
  6
JWW_DASHED1
 62
   120
370
     5
100
AcDbLine
 10
80.93114977450675
 20
-780.8182340586676
 30
0.0
 11
330.9311497744977
 21
-530.8182340586762
 31
0.0
  0
LINE
  5
88
330
1F
100
AcDbEntity
  8
0-0
  6
JWW_DASHED1
 62
   120
370
     5
100
AcDbLine
 10
80.93114977451187
 20
-773.7471662468499
 30
0.0
 11
330.9311497745045
 21
-523.7471662468586
 31
0.0
  0
LINE
  5
89
330
1F
100
AcDbEntity
  8
0-0
  6
JWW_DASHED1
 62
   120
370
     5
100
AcDbLine
 10
80.93114977450675
 20
-766.6760984349894
 30
0.0
 11
330.9311497745113
 21
-516.6760984349846
 31
0.0
  0
LINE
  5
8A
330
1F
100
AcDbEntity
  8
0-0
  6
JWW_DASHED1
 62
   120
370
     5
100
AcDbLine
 10
80.93114977449993
 20
-759.6050306231283
 30
0.0
 11
330.9311497744926
 21
-509.6050306231368
 31
0.0
  0
LINE
  5
8B
330
1F
100
AcDbEntity
  8
0-0
  6
JWW_DASHED1
 62
   120
370
     5
100
AcDbLine
 10
80.93114977451016
 20
-752.5339628112516
 30
0.0
 11
330.9311497745011
 21
-502.5339628112603
 31
0.0
  0
LINE
  5
8C
330
1F
100
AcDbEntity
  8
0-0
  6
JWW_DASHED1
 62
   120
370
     5
100
AcDbLine
 10
80.93114977450334
 20
-745.4628949993913
 30
0.0
 11
330.9311497745096
 21
-495.4628949993866
 31
0.0
  0
LINE
  5
8D
330
1F
100
AcDbEntity
  8
0-0
  6
JWW_DASHED1
 62
   120
370
     5
100
AcDbLine
 10
80.93114977449822
 20
-738.39182718753
 30
0.0
 11
330.9311497744908
 21
-488.3918271875387
 31
0.0
  0
LINE
  5
8E
330
1F
100
AcDbEntity
  8
0-0
  6
JWW_DASHED1
 62
   120
370
     5
100
AcDbLine
 10
80.93114977450846
 20
-731.3207593756533
 30
0.0
 11
330.9311497745011
 21
-481.320759375662
 31
0.0
  0
LINE
  5
8F
330
1F
100
AcDbEntity
  8
0-0
  6
JWW_DASHED1
 62
   120
370
     5
100
AcDbLine
 10
80.93114977450163
 20
-724.2496915637932
 30
0.0
 11
330.9311497745079
 21
-474.2496915637885
 31
0.0
  0
LINE
  5
90
330
1F
100
AcDbEntity
  8
0-0
  6
JWW_DASHED1
 62
   120
370
     5
100
AcDbLine
 10
-11.37362381326859
 20
-809.4833973396968
 30
0.0
 11
-9.068850225494955
 21
-807.1786237519234
 31
0.0
  0
LINE
  5
91
330
1F
100
AcDbEntity
  8
0-0
  6
JWW_DASHED1
 62
   120
370
     5
100
AcDbLine
 10
80.93114977449652
 20
-717.1786237519317
 30
0.0
 11
330.9311497744891
 21
-467.1786237519406
 31
0.0
  0
LINE
  5
92
330
1F
100
AcDbEntity
  8
0-0
  6
JWW_DASHED1
 62
   120
370
     5
100
AcDbLine
 10
-18.44469162512844
 20
-809.4833973396909
 30
0.0
 11
-9.068850225500071
 21
-800.1075559400625
 31
0.0
  0
LINE
  5
93
330
1F
100
AcDbEntity
  8
0-0
  6
JWW_DASHED1
 62
   120
370
     5
100
AcDbLine
 10
80.93114977450675
 20
-710.107555940055
 30
0.0
 11
330.9311497744994
 21
-460.1075559400637
 31
0.0
  0
LINE
  5
94
330
1F
100
AcDbEntity
  8
0-0
  6
JWW_DASHED1
 62
   120
370
     5
100
AcDbLine
 10
-25.51575943700534
 20
-809.4833973397007
 30
0.0
 11
-9.06885022548984
 21
-793.0364881281859
 31
0.0
  0
LINE
  5
95
330
1F
100
AcDbEntity
  8
0-0
  6
JWW_DASHED1
 62
   120
370
     5
100
AcDbLine
 10
80.93114977449993
 20
-703.0364881281952
 30
0.0
 11
330.9311497745045
 21
-453.0364881281902
 31
0.0
  0
LINE
  5
96
330
1F
100
AcDbEntity
  8
0-0
  6
JWW_DASHED1
 62
   120
370
     5
100
AcDbLine
 10
-32.58682724888054
 20
-809.483397339709
 30
0.0
 11
-9.068850225479608
 21
-785.9654203163093
 31
0.0
  0
LINE
  5
97
330
1F
100
AcDbEntity
  8
0-0
  6
JWW_DASHED1
 62
   120
370
     5
100
AcDbLine
 10
80.93114977451016
 20
-695.9654203163187
 30
0.0
 11
330.9311497745147
 21
-445.9654203163137
 31
0.0
  0
LINE
  5
98
330
1F
100
AcDbEntity
  8
0-0
  6
JWW_DASHED1
 62
   120
370
     5
100
AcDbLine
 10
-39.65789506072674
 20
-809.4833973396885
 30
0.0
 11
-9.068850225501777
 21
-778.8943525044642
 31
0.0
  0
LINE
  5
99
330
1F
100
AcDbEntity
  8
0-0
  6
JWW_DASHED1
 62
   120
370
     5
100
AcDbLine
 10
80.93114977450504
 20
-688.8943525044567
 30
0.0
 11
330.9311497744977
 21
-438.8943525044654
 31
0.0
  0
LINE
  5
9A
330
1F
100
AcDbEntity
  8
0-0
  6
JWW_DASHED1
 62
   120
370
     5
100
AcDbLine
 10
-46.72896287260194
 20
-809.4833973396983
 30
0.0
 11
-9.068850225491545
 21
-771.8232846925875
 31
0.0
  0
LINE
  5
9B
330
1F
100
AcDbEntity
  8
0-0
  6
JWW_DASHED1
 62
   120
370
     5
100
AcDbLine
 10
80.93114977451528
 20
-681.82328469258
 30
0.0
 11
330.9311497745062
 21
-431.8232846925889
 31
0.0
  0
LINE
  5
9C
330
1F
100
AcDbEntity
  8
0-0
  6
JWW_DASHED1
 62
   120
370
     5
100
AcDbLine
 10
-53.80003068447714
 20
-809.4833973397053
 30
0.0
 11
-9.068850225483018
 21
-764.7522168807114
 31
0.0
  0
LINE
  5
9D
330
1F
100
AcDbEntity
  8
0-0
  6
JWW_DASHED1
 62
   120
370
     5
100
AcDbLine
 10
80.93114977450846
 20
-674.7522168807204
 30
0.0
 11
330.931149774513
 21
-424.7522168807159
 31
0.0
  0
LINE
  5
9E
330
1F
100
AcDbEntity
  8
0-0
  6
JWW_DASHED1
 62
   120
370
     5
100
AcDbLine
 10
-60.87109849632505
 20
-809.4833973396863
 30
0.0
 11
-9.068850225503482
 21
-757.6811490688659
 31
0.0
  0
LINE
  5
9F
330
1F
100
AcDbEntity
  8
0-0
  6
JWW_DASHED1
 62
   120
370
     5
100
AcDbLine
 10
80.93114977450334
 20
-667.6811490688584
 30
0.0
 11
330.9311497744943
 21
-417.6811490688671
 31
0.0
  0
LINE
  5
A0
330
1F
100
AcDbEntity
  8
0-0
  6
JWW_DASHED1
 62
   120
370
     5
100
AcDbLine
 10
-67.94216630820024
 20
-809.4833973396962
 30
0.0
 11
-9.06885022549325
 21
-750.6100812569894
 31
0.0
  0
LINE
  5
A1
330
1F
100
AcDbEntity
  8
0-0
  6
JWW_DASHED1
 62
   120
370
     5
100
AcDbLine
 10
80.93114977451357
 20
-660.610081256982
 30
0.0
 11
330.9311497745045
 21
-410.6100812569906
 31
0.0
  0
LINE
  5
A2
330
1F
100
AcDbEntity
  8
0-0
  6
JWW_DASHED1
 62
   120
370
     5
100
AcDbLine
 10
-75.01323412007714
 20
-809.483397339706
 30
0.0
 11
-9.068850225484724
 21
-743.5390134451134
 31
0.0
  0
LINE
  5
A3
330
1F
100
AcDbEntity
  8
0-0
  6
JWW_DASHED1
 62
   120
370
     5
100
AcDbLine
 10
80.93114977450675
 20
-653.5390134451225
 30
0.0
 11
330.9311497745113
 21
-403.5390134451176
 31
0.0
  0
LINE
  5
A4
330
1F
100
AcDbEntity
  8
0-0
  6
JWW_DASHED1
 62
   120
370
     5
100
AcDbLine
 10
-82.08430193192164
 20
-809.4833973396842
 30
0.0
 11
-9.068850225505187
 21
-736.4679456332676
 31
0.0
  0
LINE
  5
A5
330
1F
100
AcDbEntity
  8
0-0
  6
JWW_DASHED1
 62
   120
370
     5
100
AcDbLine
 10
80.93114977450163
 20
-646.4679456332601
 30
0.0
 11
330.9311497744943
 21
-396.4679456332688
 31
0.0
  0
LINE
  5
A6
330
1F
100
AcDbEntity
  8
0-0
  6
JWW_DASHED1
 62
   120
370
     5
100
AcDbLine
 10
-89.15536974379854
 20
-809.4833973396939
 30
0.0
 11
-9.068850225494955
 21
-729.3968778213911
 31
0.0
  0
LINE
  5
A7
330
1F
100
AcDbEntity
  8
0-0
  6
JWW_DASHED1
 62
   120
370
     5
100
AcDbLine
 10
80.93114977451187
 20
-639.3968778213837
 30
0.0
 11
330.9311497745045
 21
-389.3968778213919
 31
0.0
  0
LINE
  5
A8
330
1F
100
AcDbEntity
  8
0-0
  6
JWW_DASHED1
 62
   120
370
     5
100
AcDbLine
 10
-96.22643755567545
 20
-809.4833973397036
 30
0.0
 11
-9.068850225486429
 21
-722.3258100095151
 31
0.0
  0
LINE
  5
A9
330
1F
100
AcDbEntity
  8
0-0
  6
JWW_DASHED1
 62
   120
370
     5
100
AcDbLine
 10
80.93114977450504
 20
-632.3258100095243
 30
0.0
 11
330.9311497745096
 21
-382.3258100095197
 31
0.0
  0
LINE
  5
AA
330
1F
100
AcDbEntity
  8
0-0
  6
JWW_DASHED1
 62
   120
370
     5
100
AcDbLine
 10
-103.2975053675199
 20
-809.4833973396817
 30
0.0
 11
-9.068850225506893
 21
-715.2547421976694
 31
0.0
  0
LINE
  5
AB
330
1F
100
AcDbEntity
  8
0-0
  6
JWW_DASHED1
 62
   120
370
     5
100
AcDbLine
 10
80.93114977449993
 20
-625.2547421976618
 30
0.0
 11
330.9311497744926
 21
-375.2547421976705
 31
0.0
  0
LINE
  5
AC
330
1F
100
AcDbEntity
  8
0-0
  6
JWW_DASHED1
 62
   120
370
     5
100
AcDbLine
 10
-110.3685731793968
 20
-809.4833973396917
 30
0.0
 11
-9.06885022549666
 21
-708.1836743857925
 31
0.0
  0
LINE
  5
AD
330
1F
100
AcDbEntity
  8
0-0
  6
JWW_DASHED1
 62
   120
370
     5
100
AcDbLine
 10
80.93114977451016
 20
-618.1836743857854
 30
0.0
 11
330.9311497745011
 21
-368.1836743857936
 31
0.0
  0
LINE
  5
AE
330
1F
100
AcDbEntity
  8
0-0
  6
JWW_DASHED1
 62
   120
370
     5
100
AcDbLine
 10
-117.439640991272
 20
-809.4833973397014
 30
0.0
 11
-9.068850225488134
 21
-701.1126065739172
 31
0.0
  0
LINE
  5
AF
330
1F
100
AcDbEntity
  8
0-0
  6
JWW_DASHED1
 62
   120
370
     5
100
AcDbLine
 10
80.93114977450334
 20
-611.1126065739263
 30
0.0
 11
330.9311497745079
 21
-361.1126065739214
 31
0.0
  0
LINE
  5
B0
330
1F
100
AcDbEntity
  8
0-0
  6
JWW_DASHED1
 62
   120
370
     5
100
AcDbLine
 10
-124.5107088031251
 20
-809.483397339688
 30
0.0
 11
-9.06885022549325
 21
-694.0415387620552
 31
0.0
  0
LINE
  5
B1
330
1F
100
AcDbEntity
  8
0-0
  6
JWW_DASHED1
 62
   120
370
     5
100
AcDbLine
 10
80.93114977449822
 20
-604.0415387620635
 30
0.0
 11
330.9311497744908
 21
-354.0415387620722
 31
0.0
  0
LINE
  5
B2
330
1F
100
AcDbEntity
  8
0-0
  6
JWW_DASHED1
 62
   120
370
     5
100
AcDbLine
 10
-131.5817766149934
 20
-809.4833973396894
 30
0.0
 11
-9.068850225498366
 21
-686.9704709501945
 31
0.0
  0
LINE
  5
B3
330
1F
100
AcDbEntity
  8
0-0
  6
JWW_DASHED1
 62
   120
370
     5
100
AcDbLine
 10
80.93114977450846
 20
-596.9704709501868
 30
0.0
 11
330.9311497744994
 21
-346.9704709501957
 31
0.0
  0
LINE
  5
B4
330
1F
100
AcDbEntity
  8
0-0
  6
JWW_DASHED1
 62
   120
370
     5
100
AcDbLine
 10
-138.6528444268703
 20
-809.4833973396992
 30
0.0
 11
-9.06885022548984
 21
-679.899403138319
 31
0.0
  0
LINE
  5
B5
330
1F
100
AcDbEntity
  8
0-0
  6
JWW_DASHED1
 62
   120
370
     5
100
AcDbLine
 10
80.93114977449993
 20
-589.8994031383282
 30
0.0
 11
330.9311497745062
 21
-339.8994031383235
 31
0.0
  0
LINE
  5
B6
330
1F
100
AcDbEntity
  8
0-0
  6
JWW_DASHED1
 62
   120
370
     5
100
AcDbLine
 10
-145.7239122387387
 20
-809.4833973397002
 30
0.0
 11
-9.068850225479608
 21
-672.8283353264424
 31
0.0
  0
LINE
  5
B7
330
1F
100
AcDbEntity
  8
0-0
  6
JWW_DASHED1
 62
   120
370
     5
100
AcDbLine
 10
80.93114977451016
 20
-582.8283353264516
 30
0.0
 11
330.9311497744994
 21
-332.8283353264628
 31
0.0
  0
LINE
  5
B8
330
1F
100
AcDbEntity
  8
0-0
  6
JWW_DASHED1
 62
   120
370
     5
100
AcDbLine
 10
-152.7949800505917
 20
-809.4833973396873
 30
0.0
 11
-9.068850225500071
 21
-665.7572675145962
 31
0.0
  0
LINE
  5
B9
330
1F
100
AcDbEntity
  8
0-0
  6
JWW_DASHED1
 62
   120
370
     5
100
AcDbLine
 10
80.93114977450675
 20
-575.7572675145888
 30
0.0
 11
330.9311497744977
 21
-325.7572675145974
 31
0.0
  0
LINE
  5
BA
330
1F
100
AcDbEntity
  8
0-0
  6
JWW_DASHED1
 62
   120
370
     5
100
AcDbLine
 10
-159.8660478624686
 20
-809.4833973396968
 30
0.0
 11
-9.068850225491545
 21
-658.6861997027208
 31
0.0
  0
LINE
  5
BB
330
1F
100
AcDbEntity
  8
0-0
  6
JWW_DASHED1
 62
   120
370
     5
100
AcDbLine
 10
80.93114977451528
 20
-568.6861997027144
 30
0.0
 11
330.9311497745045
 21
-318.6861997027252
 31
0.0
  0
LINE
  5
BC
330
1F
100
AcDbEntity
  8
0-0
  6
JWW_DASHED1
 62
   120
370
     5
100
AcDbLine
 10
-166.9371156743353
 20
-809.4833973396968
 30
0.0
 11
-9.068850225483018
 21
-651.6151318908443
 31
0.0
  0
LINE
  5
BD
330
1F
100
AcDbEntity
  8
0-0
  6
JWW_DASHED1
 62
   120
370
     5
100
AcDbLine
 10
80.93114977450846
 20
-561.6151318908533
 30
0.0
 11
330.931149774513
 21
-311.6151318908487
 31
0.0
  0
LINE
  5
BE
330
1F
100
AcDbEntity
  8
0-0
  6
JWW_DASHED1
 62
   120
370
     5
100
AcDbLine
 10
-174.0081834861883
 20
-809.4833973396849
 30
0.0
 11
-9.068850225501777
 21
-644.5440640789978
 31
0.0
  0
LINE
  5
BF
330
1F
100
AcDbEntity
  8
0-0
  6
JWW_DASHED1
 62
   120
370
     5
100
AcDbLine
 10
80.93114977450504
 20
-554.5440640789905
 30
0.0
 11
330.931149774496
 21
-304.5440640789991
 31
0.0
  0
LINE
  5
C0
330
1F
100
AcDbEntity
  8
0-0
  6
JWW_DASHED1
 62
   120
370
     5
100
AcDbLine
 10
-181.0792512980652
 20
-809.4833973396945
 30
0.0
 11
-9.068850225491545
 21
-637.4729962671212
 31
0.0
  0
LINE
  5
C1
330
1F
100
AcDbEntity
  8
0-0
  6
JWW_DASHED1
 62
   120
370
     5
100
AcDbLine
 10
80.93114977451528
 20
-547.4729962671136
 30
0.0
 11
330.9311497745062
 21
-297.4729962671227
 31
0.0
  0
LINE
  5
C2
330
1F
100
AcDbEntity
  8
0-0
  6
JWW_DASHED1
 62
   120
370
     5
100
AcDbLine
 10
-188.1503191099421
 20
-809.4833973397043
 30
0.0
 11
-9.068850225484724
 21
-630.4019284552462
 31
0.0
  0
LINE
  5
C3
330
1F
100
AcDbEntity
  8
0-0
  6
JWW_DASHED1
 62
   120
370
     5
100
AcDbLine
 10
80.93114977450675
 20
-540.4019284552554
 30
0.0
 11
330.9311497745113
 21
-290.4019284552504
 31
0.0
  0
LINE
  5
C4
330
1F
100
AcDbEntity
  8
0-0
  6
JWW_DASHED1
 62
   120
370
     5
100
AcDbLine
 10
-195.2213869217866
 20
-809.4833973396826
 30
0.0
 11
-9.068850225503482
 21
-623.3308606433995
 31
0.0
  0
LINE
  5
C5
330
1F
100
AcDbEntity
  8
0-0
  6
JWW_DASHED1
 62
   120
370
     5
100
AcDbLine
 10
80.93114977450334
 20
-533.3308606433922
 30
0.0
 11
330.9311497744943
 21
-283.3308606434008
 31
0.0
  0
LINE
  5
C6
330
1F
100
AcDbEntity
  8
0-0
  6
JWW_DASHED1
 62
   120
370
     5
100
AcDbLine
 10
-202.2924547336635
 20
-809.4833973396924
 30
0.0
 11
-9.06885022549325
 21
-616.2597928315229
 31
0.0
  0
LINE
  5
C7
330
1F
100
AcDbEntity
  8
0-0
  6
JWW_DASHED1
 62
   120
370
     5
100
AcDbLine
 10
80.93114977451357
 20
-526.2597928315155
 30
0.0
 11
330.9311497745045
 21
-276.2597928315244
 31
0.0
  0
LINE
  5
C8
330
1F
100
AcDbEntity
  8
0-0
  6
JWW_DASHED1
 62
   120
370
     5
100
AcDbLine
 10
-209.3635225455404
 20
-809.4833973397022
 30
0.0
 11
-9.068850225486429
 21
-609.1887250196481
 31
0.0
  0
LINE
  5
C9
330
1F
100
AcDbEntity
  8
0-0
  6
JWW_DASHED1
 62
   120
370
     5
100
AcDbLine
 10
80.93114977450504
 20
-519.1887250196573
 30
0.0
 11
330.9311497745096
 21
-269.1887250196526
 31
0.0
  0
LINE
  5
CA
330
1F
100
AcDbEntity
  8
0-0
  6
JWW_DASHED1
 62
   120
370
     5
100
AcDbLine
 10
-216.4345903573849
 20
-809.4833973396804
 30
0.0
 11
-9.068850225505187
 21
-602.1176572078011
 31
0.0
  0
LINE
  5
CB
330
1F
100
AcDbEntity
  8
0-0
  6
JWW_DASHED1
 62
   120
370
     5
100
AcDbLine
 10
80.93114977450163
 20
-512.1176572077939
 30
0.0
 11
330.9311497744926
 21
-262.1176572078025
 31
0.0
  0
LINE
  5
CC
330
1F
100
AcDbEntity
  8
0-0
  6
JWW_DASHED1
 62
   120
370
     5
100
AcDbLine
 10
-223.5056581692618
 20
-809.4833973396902
 30
0.0
 11
-9.068850225494955
 21
-595.0465893959246
 31
0.0
  0
LINE
  5
CD
330
1F
100
AcDbEntity
  8
0-0
  6
JWW_DASHED1
 62
   120
370
     5
100
AcDbLine
 10
80.93114977451187
 20
-505.0465893959171
 30
0.0
 11
330.9311497745028
 21
-255.046589395926
 31
0.0
  0
LINE
  5
CE
330
1F
100
AcDbEntity
  8
0-0
  6
JWW_DASHED1
 62
   120
370
     5
100
AcDbLine
 10
-230.576725981137
 20
-809.4833973397
 30
0.0
 11
-9.068850225488134
 21
-587.9755215840501
 31
0.0
  0
LINE
  5
CF
330
1F
100
AcDbEntity
  8
0-0
  6
JWW_DASHED1
 62
   120
370
     5
100
AcDbLine
 10
80.93114977450334
 20
-497.9755215840592
 30
0.0
 11
330.9311497745079
 21
-247.9755215840542
 31
0.0
  0
LINE
  5
D0
330
1F
100
AcDbEntity
  8
0-0
  6
JWW_DASHED1
 62
   120
370
     5
100
AcDbLine
 10
-237.6477937929832
 20
-809.4833973396795
 30
0.0
 11
-9.068850225491545
 21
-580.904453772187
 31
0.0
  0
LINE
  5
D1
330
1F
100
AcDbEntity
  8
0-0
  6
JWW_DASHED1
 62
   120
370
     5
100
AcDbLine
 10
80.93114977449993
 20
-490.9044537721956
 30
0.0
 11
330.9311497744908
 21
-240.9044537722042
 31
0.0
  0
LINE
  5
D2
330
1F
100
AcDbEntity
  8
0-0
  6
JWW_DASHED1
 62
   120
370
     5
100
AcDbLine
 10
-244.7188616048584
 20
-809.4833973396877
 30
0.0
 11
-9.06885022549666
 21
-573.8333859603263
 31
0.0
  0
LINE
  5
D3
330
1F
100
AcDbEntity
  8
0-0
  6
JWW_DASHED1
 62
   120
370
     5
100
AcDbLine
 10
80.93114977451016
 20
-483.8333859603188
 30
0.0
 11
330.9311497745011
 21
-233.8333859603277
 31
0.0
  0
LINE
  5
D4
330
1F
100
AcDbEntity
  8
0-0
  6
JWW_DASHED1
 62
   120
370
     5
100
AcDbLine
 10
-251.7899294166774
 20
-809.4833973396934
 30
0.0
 11
-9.068850225491545
 21
-566.7623181485087
 31
0.0
  0
LINE
  5
D5
330
1F
100
AcDbEntity
  8
0-0
  6
JWW_DASHED1
 62
   120
370
     5
100
AcDbLine
 10
80.93114977451528
 20
-476.762318148501
 30
0.0
 11
330.9311497745079
 21
-226.7623181485096
 31
0.0
  0
LINE
  5
D6
330
1F
100
AcDbEntity
  8
0-0
  6
JWW_DASHED1
 62
   120
370
     5
100
AcDbLine
 10
-258.8609972285525
 20
-809.4833973397031
 30
0.0
 11
-9.068850225484724
 21
-559.6912503366343
 31
0.0
  0
LINE
  5
D7
330
1F
100
AcDbEntity
  8
0-0
  6
JWW_DASHED1
 62
   120
370
     5
100
AcDbLine
 10
80.93114977450675
 20
-469.6912503366433
 30
0.0
 11
330.9311497745113
 21
-219.6912503366387
 31
0.0
  0
LINE
  5
D8
330
1F
100
AcDbEntity
  8
0-0
  6
JWW_DASHED1
 62
   120
370
     5
100
AcDbLine
 10
-259.0688502255114
 20
-802.6201825247939
 30
0.0
 11
-9.068850225503482
 21
-552.6201825247869
 31
0.0
  0
LINE
  5
D9
330
1F
100
AcDbEntity
  8
0-0
  6
JWW_DASHED1
 62
   120
370
     5
100
AcDbLine
 10
80.93114977450334
 20
-462.6201825247796
 30
0.0
 11
330.931149774496
 21
-212.6201825247882
 31
0.0
  0
LINE
  5
DA
330
1F
100
AcDbEntity
  8
0-0
  6
JWW_DASHED1
 62
   120
370
     5
100
AcDbLine
 10
-259.0688502255012
 20
-795.5491147129175
 30
0.0
 11
-9.06885022549325
 21
-545.5491147129103
 31
0.0
  0
LINE
  5
DB
330
1F
100
AcDbEntity
  8
0-0
  6
JWW_DASHED1
 62
   120
370
     5
100
AcDbLine
 10
80.93114977451357
 20
-455.5491147129031
 30
0.0
 11
330.9311497745045
 21
-205.5491147129113
 31
0.0
  0
LINE
  5
DC
330
1F
100
AcDbEntity
  8
0-0
  6
JWW_DASHED1
 62
   120
370
     5
100
AcDbLine
 10
-259.068850225491
 20
-788.478046901041
 30
0.0
 11
-9.068850225486429
 21
-538.478046901036
 31
0.0
  0
LINE
  5
DD
330
1F
100
AcDbEntity
  8
0-0
  6
JWW_DASHED1
 62
   120
370
     5
100
AcDbLine
 10
80.93114977450504
 20
-448.4780469010454
 30
0.0
 11
330.9311497745096
 21
-198.4780469010404
 31
0.0
  0
LINE
  5
DE
330
1F
100
AcDbEntity
  8
0-0
  6
JWW_DASHED1
 62
   120
370
     5
100
AcDbLine
 10
-259.0688502255114
 20
-781.4069790891956
 30
0.0
 11
-9.068850225505187
 21
-531.4069790891886
 31
0.0
  0
LINE
  5
DF
330
1F
100
AcDbEntity
  8
0-0
  6
JWW_DASHED1
 62
   120
370
     5
100
AcDbLine
 10
80.93114977450163
 20
-441.4069790891808
 30
0.0
 11
330.9311497744943
 21
-191.4069790891899
 31
0.0
  0
LINE
  5
E0
330
1F
100
AcDbEntity
  8
0-0
  6
JWW_DASHED1
 62
   120
370
     5
100
AcDbLine
 10
-259.0688502255029
 20
-774.3359112773192
 30
0.0
 11
-9.068850225494955
 21
-524.3359112773121
 31
0.0
  0
LINE
  5
E1
330
1F
100
AcDbEntity
  8
0-0
  6
JWW_DASHED1
 62
   120
370
     5
100
AcDbLine
 10
80.93114977451187
 20
-434.3359112773048
 30
0.0
 11
330.9311497745045
 21
-184.335911277313
 31
0.0
  0
LINE
  5
E2
330
1F
100
AcDbEntity
  8
0-0
  6
JWW_DASHED1
 62
   120
370
     5
100
AcDbLine
 10
-259.0688502254927
 20
-767.2648434654429
 30
0.0
 11
-9.068850225488134
 21
-517.2648434654382
 31
0.0
  0
LINE
  5
E3
330
1F
100
AcDbEntity
  8
0-0
  6
JWW_DASHED1
 62
   120
370
     5
100
AcDbLine
 10
80.93114977450334
 20
-427.2648434654471
 30
0.0
 11
330.9311497745079
 21
-177.2648434654425
 31
0.0
  0
LINE
  5
E4
330
1F
100
AcDbEntity
  8
0-0
  6
JWW_DASHED1
 62
   120
370
     5
100
AcDbLine
 10
-259.0688502255148
 20
-760.1937756535973
 30
0.0
 11
-9.068850225491545
 21
-510.1937756535744
 31
0.0
  0
LINE
  5
E5
330
1F
100
AcDbEntity
  8
0-0
  6
JWW_DASHED1
 62
   120
370
     5
100
AcDbLine
 10
80.93114977449993
 20
-420.1937756535825
 30
0.0
 11
330.9311497744926
 21
-170.1937756535916
 31
0.0
  0
LINE
  5
E6
330
1F
100
AcDbEntity
  8
0-0
  6
JWW_DASHED1
 62
   120
370
     5
100
AcDbLine
 10
-259.0688502255046
 20
-753.1227078417209
 30
0.0
 11
-9.06885022549666
 21
-503.1227078417137
 31
0.0
  0
LINE
  5
E7
330
1F
100
AcDbEntity
  8
0-0
  6
JWW_DASHED1
 62
   120
370
     5
100
AcDbLine
 10
80.93114977451016
 20
-413.1227078417065
 30
0.0
 11
330.9311497745028
 21
-163.1227078417147
 31
0.0
  0
LINE
  5
E8
330
1F
100
AcDbEntity
  8
0-0
  6
JWW_DASHED1
 62
   120
370
     5
100
AcDbLine
 10
-259.0688502254944
 20
-746.0516400298447
 30
0.0
 11
-9.06885022548984
 21
-496.0516400298399
 31
0.0
  0
LINE
  5
E9
330
1F
100
AcDbEntity
  8
0-0
  6
JWW_DASHED1
 62
   120
370
     5
100
AcDbLine
 10
80.93114977450163
 20
-406.0516400298492
 30
0.0
 11
330.9311497745062
 21
-156.0516400298442
 31
0.0
  0
LINE
  5
EA
330
1F
100
AcDbEntity
  8
0-0
  6
JWW_DASHED1
 62
   120
370
     5
100
AcDbLine
 10
-259.0688502255148
 20
-738.9805722179992
 30
0.0
 11
-9.06885022549325
 21
-488.9805722179761
 31
0.0
  0
LINE
  5
EB
330
1F
100
AcDbEntity
  8
0-0
  6
JWW_DASHED1
 62
   120
370
     5
100
AcDbLine
 10
80.93114977449822
 20
-398.9805722179842
 30
0.0
 11
330.9311497744908
 21
-148.9805722179933
 31
0.0
  0
LINE
  5
EC
330
1F
100
AcDbEntity
  8
0-0
  6
JWW_DASHED1
 62
   120
370
     5
100
AcDbLine
 10
-259.0688502255063
 20
-731.9095044061226
 30
0.0
 11
-9.068850225498366
 21
-481.9095044061154
 31
0.0
  0
LINE
  5
ED
330
1F
100
AcDbEntity
  8
0-0
  6
JWW_DASHED1
 62
   120
370
     5
100
AcDbLine
 10
80.93114977450846
 20
-391.9095044061082
 30
0.0
 11
330.9311497745011
 21
-141.9095044061164
 31
0.0
  0
LINE
  5
EE
330
1F
100
AcDbEntity
  8
0-0
  6
JWW_DASHED1
 62
   120
370
     5
100
AcDbLine
 10
-259.0688502254961
 20
-724.8384365942466
 30
0.0
 11
-9.068850225491545
 21
-474.838436594242
 31
0.0
  0
LINE
  5
EF
330
1F
100
AcDbEntity
  8
0-0
  6
JWW_DASHED1
 62
   120
370
     5
100
AcDbLine
 10
80.93114977449822
 20
-384.8384365942513
 30
0.0
 11
330.9311497745045
 21
-134.8384365942464
 31
0.0
  0
LINE
  5
F0
330
1F
100
AcDbEntity
  8
0-0
  6
JWW_DASHED1
 62
   120
370
     5
100
AcDbLine
 10
-259.0688502255029
 20
-717.7673687823858
 30
0.0
 11
-9.068850225481313
 21
-467.7673687823655
 31
0.0
  0
LINE
  5
F1
330
1F
100
AcDbEntity
  8
0-0
  6
JWW_DASHED1
 62
   120
370
     5
100
AcDbLine
 10
80.93114977450846
 20
-377.7673687823744
 30
0.0
 11
330.931149774513
 21
-127.7673687823699
 31
0.0
  0
LINE
  5
F2
330
1F
100
AcDbEntity
  8
0-0
  6
JWW_DASHED1
 62
   120
370
     5
100
AcDbLine
 10
-259.068850225508
 20
-710.6963009705242
 30
0.0
 11
-9.068850225500071
 21
-460.6963009705167
 31
0.0
  0
LINE
  5
F3
330
1F
100
AcDbEntity
  8
0-0
  6
JWW_DASHED1
 62
   120
370
     5
100
AcDbLine
 10
80.93114977450675
 20
-370.6963009705099
 30
0.0
 11
330.9311497744994
 21
-120.6963009705181
 31
0.0
  0
LINE
  5
F4
330
1F
100
AcDbEntity
  8
0-0
  6
JWW_DASHED1
 62
   120
370
     5
100
AcDbLine
 10
-259.0688502254978
 20
-703.6252331586476
 30
0.0
 11
-9.06885022548984
 21
-453.6252331586406
 31
0.0
  0
LINE
  5
F5
330
1F
100
AcDbEntity
  8
0-0
  6
JWW_DASHED1
 62
   120
370
     5
100
AcDbLine
 10
80.93114977451698
 20
-363.625233158633
 30
0.0
 11
330.9311497745079
 21
-113.6252331586417
 31
0.0
  0
LINE
  5
F6
330
1F
100
AcDbEntity
  8
0-0
  6
JWW_DASHED1
 62
   120
370
     5
100
AcDbLine
 10
-259.0688502255046
 20
-696.5541653467877
 30
0.0
 11
-9.068850225483018
 21
-446.5541653467671
 31
0.0
  0
LINE
  5
F7
330
1F
100
AcDbEntity
  8
0-0
  6
JWW_DASHED1
 62
   120
370
     5
100
AcDbLine
 10
80.93114977450675
 20
-356.5541653467766
 30
0.0
 11
330.9311497745113
 21
-106.5541653467716
 31
0.0
  0
LINE
  5
F8
330
1F
100
AcDbEntity
  8
0-0
  6
JWW_DASHED1
 62
   120
370
     5
100
AcDbLine
 10
-259.0688502255097
 20
-689.483097534926
 30
0.0
 11
-9.068850225501777
 21
-439.4830975349188
 31
0.0
  0
LINE
  5
F9
330
1F
100
AcDbEntity
  8
0-0
  6
JWW_DASHED1
 62
   120
370
     5
100
AcDbLine
 10
80.93114977450504
 20
-349.4830975349116
 30
0.0
 11
330.931149774496
 21
-99.48309753492026
 31
0.0
  0
LINE
  5
FA
330
1F
100
AcDbEntity
  8
0-0
  6
JWW_DASHED1
 62
   120
370
     5
100
AcDbLine
 10
-259.0688502254995
 20
-682.4120297230493
 30
0.0
 11
-9.068850225491545
 21
-432.4120297230423
 31
0.0
  0
LINE
  5
FB
330
1F
100
AcDbEntity
  8
0-0
  6
JWW_DASHED1
 62
   120
370
     5
100
AcDbLine
 10
80.93114977451528
 20
-342.4120297230347
 30
0.0
 11
330.9311497745062
 21
-92.41202972304336
 31
0.0
  0
LINE
  5
FC
330
1F
100
AcDbEntity
  8
0-0
  6
JWW_DASHED1
 62
   120
370
     5
100
AcDbLine
 10
-259.068850225491
 20
-675.3409619111738
 30
0.0
 11
-9.068850225486429
 21
-425.3409619111693
 31
0.0
  0
LINE
  5
FD
330
1F
100
AcDbEntity
  8
0-0
  6
JWW_DASHED1
 62
   120
370
     5
100
AcDbLine
 10
80.93114977450504
 20
-335.3409619111783
 30
0.0
 11
330.9311497745096
 21
-85.34096191117328
 31
0.0
  0
LINE
  5
FE
330
1F
100
AcDbEntity
  8
0-0
  6
JWW_DASHED1
 62
   120
370
     5
100
AcDbLine
 10
-259.0688502255114
 20
-668.2698940993276
 30
0.0
 11
-9.068850225503482
 21
-418.2698940993201
 31
0.0
  0
LINE
  5
FF
330
1F
100
AcDbEntity
  8
0-0
  6
JWW_DASHED1
 62
   120
370
     5
100
AcDbLine
 10
80.93114977450334
 20
-328.2698940993133
 30
0.0
 11
330.931149774496
 21
-78.26989409932153
 31
0.0
  0
LINE
  5
100
330
1F
100
AcDbEntity
  8
0-0
  6
JWW_DASHED1
 62
   120
370
     5
100
AcDbLine
 10
-259.0688502255012
 20
-661.198826287451
 30
0.0
 11
-9.06885022549325
 21
-411.198826287444
 31
0.0
  0
LINE
  5
101
330
1F
100
AcDbEntity
  8
0-0
  6
JWW_DASHED1
 62
   120
370
     5
100
AcDbLine
 10
80.93114977451357
 20
-321.1988262874364
 30
0.0
 11
330.9311497745045
 21
-71.19882628744506
 31
0.0
  0
LINE
  5
102
330
1F
100
AcDbEntity
  8
0-0
  6
JWW_DASHED1
 62
   120
370
     5
100
AcDbLine
 10
-259.0688502254927
 20
-654.1277584755758
 30
0.0
 11
-9.068850225488134
 21
-404.127758475571
 31
0.0
  0
LINE
  5
103
330
1F
100
AcDbEntity
  8
0-0
  6
JWW_DASHED1
 62
   120
370
     5
100
AcDbLine
 10
80.93114977450334
 20
-314.12775847558
 30
0.0
 11
330.9311497745079
 21
-64.1277584755754
 31
0.0
  0
LINE
  5
104
330
1F
100
AcDbEntity
  8
0-0
  6
JWW_DASHED1
 62
   120
370
     5
100
AcDbLine
 10
-259.0688502255131
 20
-647.0566906637293
 30
0.0
 11
-9.068850225505187
 21
-397.0566906637222
 31
0.0
  0
LINE
  5
105
330
1F
100
AcDbEntity
  8
0-0
  6
JWW_DASHED1
 62
   120
370
     5
100
AcDbLine
 10
80.93114977450163
 20
-307.056690663715
 30
0.0
 11
330.9311497744926
 21
-57.05669066372366
 31
0.0
  0
LINE
  5
106
330
1F
100
AcDbEntity
  8
0-0
  6
JWW_DASHED1
 62
   120
370
     5
100
AcDbLine
 10
-259.0688502255029
 20
-639.9856228518527
 30
0.0
 11
-9.068850225494955
 21
-389.9856228518457
 31
0.0
  0
LINE
  5
107
330
1F
100
AcDbEntity
  8
0-0
  6
JWW_DASHED1
 62
   120
370
     5
100
AcDbLine
 10
80.93114977451187
 20
-299.9856228518381
 30
0.0
 11
330.9311497745028
 21
-49.98562285184676
 31
0.0
  0
LINE
  5
108
330
1F
100
AcDbEntity
  8
0-0
  6
JWW_DASHED1
 62
   120
370
     5
100
AcDbLine
 10
-259.0688502254944
 20
-632.9145550399777
 30
0.0
 11
-9.06885022548984
 21
-382.9145550399732
 31
0.0
  0
LINE
  5
109
330
1F
100
AcDbEntity
  8
0-0
  6
JWW_DASHED1
 62
   120
370
     5
100
AcDbLine
 10
80.93114977450163
 20
-292.9145550399821
 30
0.0
 11
330.9311497745062
 21
-42.9145550399771
 31
0.0
  0
LINE
  5
10A
330
1F
100
AcDbEntity
  8
0-0
  6
JWW_DASHED1
 62
   120
370
     5
100
AcDbLine
 10
-259.0688502255148
 20
-625.843487228131
 30
0.0
 11
-9.068850225491545
 21
-375.8434872281082
 31
0.0
  0
LINE
  5
10B
330
1F
100
AcDbEntity
  8
0-0
  6
JWW_DASHED1
 62
   120
370
     5
100
AcDbLine
 10
80.93114977449993
 20
-285.8434872281163
 30
0.0
 11
330.9311497744908
 21
-35.84348722812493
 31
0.0
  0
LINE
  5
10C
330
1F
100
AcDbEntity
  8
0-0
  6
JWW_DASHED1
 62
   120
370
     5
100
AcDbLine
 10
-259.0688502255046
 20
-618.7724194162544
 30
0.0
 11
-9.06885022549666
 21
-368.7724194162474
 31
0.0
  0
LINE
  5
10D
330
1F
100
AcDbEntity
  8
0-0
  6
JWW_DASHED1
 62
   120
370
     5
100
AcDbLine
 10
80.93114977451016
 20
-278.7724194162398
 30
0.0
 11
330.9311497745011
 21
-28.77241941624845
 31
0.0
  0
LINE
  5
10E
330
1F
100
AcDbEntity
  8
0-0
  6
JWW_DASHED1
 62
   120
370
     5
100
AcDbLine
 10
-259.0688502254961
 20
-611.7013516043796
 30
0.0
 11
-9.068850225491545
 21
-361.7013516043748
 31
0.0
  0
LINE
  5
10F
330
1F
100
AcDbEntity
  8
0-0
  6
JWW_DASHED1
 62
   120
370
     5
100
AcDbLine
 10
80.93114977449993
 20
-271.7013516043842
 30
0.0
 11
330.9311497745045
 21
-21.70135160437923
 31
0.0
  0
LINE
  5
110
330
1F
100
AcDbEntity
  8
0-0
  6
JWW_DASHED1
 62
   120
370
     5
100
AcDbLine
 10
-259.0688502255165
 20
-604.6302837925327
 30
0.0
 11
-9.06885022549325
 21
-354.6302837925099
 31
0.0
  0
LINE
  5
111
330
1F
100
AcDbEntity
  8
0-0
  6
JWW_DASHED1
 62
   120
370
     5
100
AcDbLine
 10
80.93114977449822
 20
-264.6302837925184
 30
0.0
 11
330.9311497744891
 21
-14.63028379252705
 31
0.0
  0
LINE
  5
112
330
1F
100
AcDbEntity
  8
0-0
  6
JWW_DASHED1
 62
   120
370
     5
100
AcDbLine
 10
-259.0688502255063
 20
-597.5592159806561
 30
0.0
 11
-9.068850225498366
 21
-347.5592159806491
 31
0.0
  0
LINE
  5
113
330
1F
100
AcDbEntity
  8
0-0
  6
JWW_DASHED1
 62
   120
370
     5
100
AcDbLine
 10
80.93114977450846
 20
-257.5592159806415
 30
0.0
 11
330.9311497744994
 21
-7.559215980650151
 31
0.0
  0
LINE
  5
114
330
1F
100
AcDbEntity
  8
0-0
  6
JWW_DASHED1
 62
   120
370
     5
100
AcDbLine
 10
-259.0688502254978
 20
-590.4881481687814
 30
0.0
 11
-9.06885022549325
 21
-340.4881481687765
 31
0.0
  0
LINE
  5
115
330
1F
100
AcDbEntity
  8
0-0
  6
JWW_DASHED1
 62
   120
370
     5
100
AcDbLine
 10
80.93114977451357
 20
-250.4881481687697
 30
0.0
 11
330.9311497745028
 21
-0.4881481687809242
 31
0.0
  0
LINE
  5
116
330
1F
100
AcDbEntity
  8
0-0
  6
JWW_DASHED1
 62
   120
370
     5
100
AcDbLine
 10
-259.0688502255046
 20
-583.4170803569208
 30
0.0
 11
-9.068850225483018
 21
-333.4170803569
 31
0.0
  0
LINE
  5
117
330
1F
100
AcDbEntity
  8
0-0
  6
JWW_DASHED1
 62
   120
370
     5
100
AcDbLine
 10
80.93114977450675
 20
-243.4170803569094
 30
0.0
 11
330.9311497745113
 21
6.582919643095551
 31
0.0
  0
LINE
  5
118
330
1F
100
AcDbEntity
  8
0-0
  6
JWW_DASHED1
 62
   120
370
     5
100
AcDbLine
 10
-259.068850225508
 20
-576.3460125450578
 30
0.0
 11
-9.068850225500071
 21
-326.3460125450508
 31
0.0
  0
LINE
  5
119
330
1F
100
AcDbEntity
  8
0-0
  6
JWW_DASHED1
 62
   120
370
     5
100
AcDbLine
 10
80.93114977450675
 20
-236.3460125450432
 30
0.0
 11
330.9311497744977
 21
13.65398745494772
 31
0.0
  0
LINE
  5
11A
330
1F
100
AcDbEntity
  8
0-0
  6
JWW_DASHED1
 62
   120
370
     5
100
AcDbLine
 10
-259.0688502254978
 20
-569.2749447331813
 30
0.0
 11
-9.06885022548984
 21
-319.2749447331739
 31
0.0
  0
LINE
  5
11B
330
1F
100
AcDbEntity
  8
0-0
  6
JWW_DASHED1
 62
   120
370
     5
100
AcDbLine
 10
80.93114977451698
 20
-229.2749447331663
 30
0.0
 11
330.9311497745079
 21
20.72505526682463
 31
0.0
  0
LINE
  5
11C
330
1F
100
AcDbEntity
  8
0-0
  6
JWW_DASHED1
 62
   120
370
     5
100
AcDbLine
 10
-259.0688502255063
 20
-562.2038769213225
 30
0.0
 11
-9.068850225484724
 21
-312.2038769213021
 31
0.0
  0
LINE
  5
11D
330
1F
100
AcDbEntity
  8
0-0
  6
JWW_DASHED1
 62
   120
370
     5
100
AcDbLine
 10
80.93114977450504
 20
-222.2038769213111
 30
0.0
 11
330.9311497745113
 21
27.79612307869385
 31
0.0
  0
LINE
  5
11E
330
1F
100
AcDbEntity
  8
0-0
  6
JWW_DASHED1
 62
   120
370
     5
100
AcDbLine
 10
-259.0688502255097
 20
-555.1328091094595
 30
0.0
 11
-9.068850225501777
 21
-305.1328091094525
 31
0.0
  0
LINE
  5
11F
330
1F
100
AcDbEntity
  8
0-0
  6
JWW_DASHED1
 62
   120
370
     5
100
AcDbLine
 10
80.93114977450504
 20
-215.1328091094449
 30
0.0
 11
330.931149774496
 21
34.86719089054645
 31
0.0
  0
LINE
  5
120
330
1F
100
AcDbEntity
  8
0-0
  6
JWW_DASHED1
 62
   120
370
     5
100
AcDbLine
 10
-259.0688502254995
 20
-548.0617412975828
 30
0.0
 11
-9.068850225491545
 21
-298.0617412975756
 31
0.0
  0
LINE
  5
121
330
1F
100
AcDbEntity
  8
0-0
  6
JWW_DASHED1
 62
   120
370
     5
100
AcDbLine
 10
80.93114977451528
 20
-208.0617412975684
 30
0.0
 11
330.9311497745062
 21
41.93825870242293
 31
0.0
  0
LINE
  5
122
330
1F
100
AcDbEntity
  8
0-0
  6
JWW_DASHED1
 62
   120
370
     5
100
AcDbLine
 10
-259.0688502254927
 20
-540.9906734857088
 30
0.0
 11
-9.068850225488134
 21
-290.9906734857043
 31
0.0
  0
LINE
  5
123
330
1F
100
AcDbEntity
  8
0-0
  6
JWW_DASHED1
 62
   120
370
     5
100
AcDbLine
 10
80.93114977450334
 20
-200.9906734857132
 30
0.0
 11
330.9311497745079
 21
49.00932651429173
 31
0.0
  0
LINE
  5
124
330
1F
100
AcDbEntity
  8
0-0
  6
JWW_DASHED1
 62
   120
370
     5
100
AcDbLine
 10
-259.0688502255114
 20
-533.9196056738612
 30
0.0
 11
-9.068850225503482
 21
-283.9196056738542
 31
0.0
  0
LINE
  5
125
330
1F
100
AcDbEntity
  8
0-0
  6
JWW_DASHED1
 62
   120
370
     5
100
AcDbLine
 10
80.93114977450334
 20
-193.9196056738466
 30
0.0
 11
330.9311497744943
 21
56.08039432614476
 31
0.0
  0
LINE
  5
126
330
1F
100
AcDbEntity
  8
0-0
  6
JWW_DASHED1
 62
   120
370
     5
100
AcDbLine
 10
-259.0688502255012
 20
-526.8485378619847
 30
0.0
 11
-9.068850225494955
 21
-276.8485378619773
 31
0.0
  0
LINE
  5
127
330
1F
100
AcDbEntity
  8
0-0
  6
JWW_DASHED1
 62
   120
370
     5
100
AcDbLine
 10
80.93114977451357
 20
-186.8485378619701
 30
0.0
 11
330.9311497745045
 21
63.15146213802123
 31
0.0
  0
LINE
  5
128
330
1F
100
AcDbEntity
  8
0-0
  6
JWW_DASHED1
 62
   120
370
     5
100
AcDbLine
 10
-259.0688502254944
 20
-519.7774700501105
 30
0.0
 11
-9.06885022548984
 21
-269.777470050106
 31
0.0
  0
LINE
  5
129
330
1F
100
AcDbEntity
  8
0-0
  6
JWW_DASHED1
 62
   120
370
     5
100
AcDbLine
 10
80.93114977450163
 20
-179.7774700501149
 30
0.0
 11
330.9311497745062
 21
70.22252994989003
 31
0.0
  0
LINE
  5
12A
330
1F
100
AcDbEntity
  8
0-0
  6
JWW_DASHED1
 62
   120
370
     5
100
AcDbLine
 10
-259.0688502255131
 20
-512.7064022382629
 30
0.0
 11
-9.068850225505187
 21
-262.7064022382559
 31
0.0
  0
LINE
  5
12B
330
1F
100
AcDbEntity
  8
0-0
  6
JWW_DASHED1
 62
   120
370
     5
100
AcDbLine
 10
80.93114977450163
 20
-172.7064022382483
 30
0.0
 11
330.9311497744926
 21
77.29359776174263
 31
0.0
  0
LINE
  5
12C
330
1F
100
AcDbEntity
  8
0-0
  6
JWW_DASHED1
 62
   120
370
     5
100
AcDbLine
 10
-259.0688502255029
 20
-505.6353344263864
 30
0.0
 11
-9.06885022549666
 21
-255.635334426379
 31
0.0
  0
LINE
  5
12D
330
1F
100
AcDbEntity
  8
0-0
  6
JWW_DASHED1
 62
   120
370
     5
100
AcDbLine
 10
80.93114977451187
 20
-165.6353344263714
 30
0.0
 11
330.9311497745028
 21
84.36466557361953
 31
0.0
  0
LINE
  5
12E
330
1F
100
AcDbEntity
  8
0-0
  6
JWW_DASHED1
 62
   120
370
     5
100
AcDbLine
 10
-259.0688502254961
 20
-498.5642666145125
 30
0.0
 11
-9.068850225491545
 21
-248.5642666145077
 31
0.0
  0
LINE
  5
12F
330
1F
100
AcDbEntity
  8
0-0
  6
JWW_DASHED1
 62
   120
370
     5
100
AcDbLine
 10
80.93114977449993
 20
-158.5642666145166
 30
0.0
 11
330.9311497745045
 21
91.43573338548791
 31
0.0
  0
LINE
  5
130
330
1F
100
AcDbEntity
  8
0-0
  6
JWW_DASHED1
 62
   120
370
     5
100
AcDbLine
 10
-259.0688502255148
 20
-491.4931988026648
 30
0.0
 11
-9.068850225491545
 21
-241.4931988026419
 31
0.0
  0
LINE
  5
131
330
1F
100
AcDbEntity
  8
0-0
  6
JWW_DASHED1
 62
   120
370
     5
100
AcDbLine
 10
80.93114977449993
 20
-151.49319880265
 30
0.0
 11
330.9311497744908
 21
98.50680119734093
 31
0.0
  0
LINE
  5
132
330
1F
100
AcDbEntity
  8
0-0
  6
JWW_DASHED1
 62
   120
370
     5
100
AcDbLine
 10
-259.0688502255046
 20
-484.422130990788
 30
0.0
 11
-9.068850225498366
 21
-234.4221309907812
 31
0.0
  0
LINE
  5
133
330
1F
100
AcDbEntity
  8
0-0
  6
JWW_DASHED1
 62
   120
370
     5
100
AcDbLine
 10
80.93114977451016
 20
-144.4221309907735
 30
0.0
 11
330.9311497745011
 21
105.5778690092178
 31
0.0
  0
LINE
  5
134
330
1F
100
AcDbEntity
  8
0-0
  6
JWW_DASHED1
 62
   120
370
     5
100
AcDbLine
 10
-259.0688502254978
 20
-477.3510631789144
 30
0.0
 11
-9.06885022549325
 21
-227.3510631789098
 31
0.0
  0
LINE
  5
135
330
1F
100
AcDbEntity
  8
0-0
  6
JWW_DASHED1
 62
   120
370
     5
100
AcDbLine
 10
80.93114977449822
 20
-137.3510631789188
 30
0.0
 11
330.9311497745028
 21
112.6489368210858
 31
0.0
  0
LINE
  5
136
330
1F
100
AcDbEntity
  8
0-0
  6
JWW_DASHED1
 62
   120
370
     5
100
AcDbLine
 10
-259.0688502255046
 20
-470.2799953670536
 30
0.0
 11
-9.068850225483018
 21
-220.2799953670329
 31
0.0
  0
LINE
  5
137
330
1F
100
AcDbEntity
  8
0-0
  6
JWW_DASHED1
 62
   120
370
     5
100
AcDbLine
 10
80.93114977450846
 20
-130.2799953670423
 30
0.0
 11
330.9311497744977
 21
119.7200046329469
 31
0.0
  0
LINE
  5
138
330
1F
100
AcDbEntity
  8
0-0
  6
JWW_DASHED1
 62
   120
370
     5
100
AcDbLine
 10
-259.0688502255063
 20
-463.20892755519
 30
0.0
 11
-9.068850225500071
 21
-213.2089275551829
 31
0.0
  0
LINE
  5
139
330
1F
100
AcDbEntity
  8
0-0
  6
JWW_DASHED1
 62
   120
370
     5
100
AcDbLine
 10
80.93114977450846
 20
-123.2089275551752
 30
0.0
 11
330.9311497744994
 21
126.7910724448161
 31
0.0
  0
LINE
  5
13A
330
1F
100
AcDbEntity
  8
0-0
  6
JWW_DASHED1
 62
   120
370
     5
100
AcDbLine
 10
-259.0688502254995
 20
-456.1378597433165
 30
0.0
 11
-9.068850225494955
 21
-206.1378597433115
 31
0.0
  0
LINE
  5
13B
330
1F
100
AcDbEntity
  8
0-0
  6
JWW_DASHED1
 62
   120
370
     5
100
AcDbLine
 10
80.93114977451187
 20
-116.1378597433051
 30
0.0
 11
330.9311497745011
 21
133.8621402566837
 31
0.0
  0
LINE
  5
13C
330
1F
100
AcDbEntity
  8
0-0
  6
JWW_DASHED1
 62
   120
370
     5
100
AcDbLine
 10
-259.0688502254927
 20
-449.0667919314694
 30
0.0
 11
-9.068850225486429
 21
-199.0667919314645
 31
0.0
  0
LINE
  5
13D
330
1F
100
AcDbEntity
  8
0-0
  6
JWW_DASHED1
 62
   120
370
     5
100
AcDbLine
 10
80.93114977450334
 20
-109.0667919314738
 30
0.0
 11
330.9311497745079
 21
140.9332080685316
 31
0.0
  0
LINE
  5
13E
330
1F
100
AcDbEntity
  8
0-0
  6
JWW_DASHED1
 62
   120
370
     5
100
AcDbLine
 10
-259.0688502255131
 20
-441.9957241196505
 30
0.0
 11
-9.068850225505187
 21
-191.995724119643
 31
0.0
  0
LINE
  5
13F
330
1F
100
AcDbEntity
  8
0-0
  6
JWW_DASHED1
 62
   120
370
     5
100
AcDbLine
 10
80.93114977450163
 20
-101.9957241196357
 30
0.0
 11
330.9311497744943
 21
148.0042758803556
 31
0.0
  0
LINE
  5
140
330
1F
100
AcDbEntity
  8
0-0
  6
JWW_DASHED1
 62
   120
370
     5
100
AcDbLine
 10
-259.0688502255029
 20
-434.9246563077736
 30
0.0
 11
-9.068850225494955
 21
-184.9246563077665
 31
0.0
  0
LINE
  5
141
330
1F
100
AcDbEntity
  8
0-0
  6
JWW_DASHED1
 62
   120
370
     5
100
AcDbLine
 10
80.93114977451187
 20
-94.92465630775925
 30
0.0
 11
330.9311497745028
 21
155.0753436922317
 31
0.0
  0
LINE
  5
142
330
1F
100
AcDbEntity
  8
0-0
  6
JWW_DASHED1
 62
   120
370
     5
100
AcDbLine
 10
-259.0688502254961
 20
-427.8535884959006
 30
0.0
 11
-9.068850225491545
 21
-177.853588495896
 31
0.0
  0
LINE
  5
143
330
1F
100
AcDbEntity
  8
0-0
  6
JWW_DASHED1
 62
   120
370
     5
100
AcDbLine
 10
80.93114977449993
 20
-87.85358849590452
 30
0.0
 11
330.9311497745045
 21
162.1464115041
 31
0.0
  0
LINE
  5
144
330
1F
100
AcDbEntity
  8
0-0
  6
JWW_DASHED1
 62
   120
370
     5
100
AcDbLine
 10
-259.0688502255148
 20
-420.7825206840522
 30
0.0
 11
-9.068850225491545
 21
-170.7825206840293
 31
0.0
  0
LINE
  5
145
330
1F
100
AcDbEntity
  8
0-0
  6
JWW_DASHED1
 62
   120
370
     5
100
AcDbLine
 10
80.93114977449993
 20
-80.78252068403742
 30
0.0
 11
330.9311497744926
 21
169.2174793159539
 31
0.0
  0
LINE
  5
146
330
1F
100
AcDbEntity
  8
0-0
  6
JWW_DASHED1
 62
   120
370
     5
100
AcDbLine
 10
-259.0688502255046
 20
-413.7114528721753
 30
0.0
 11
-9.06885022549666
 21
-163.7114528721682
 31
0.0
  0
LINE
  5
147
330
1F
100
AcDbEntity
  8
0-0
  6
JWW_DASHED1
 62
   120
370
     5
100
AcDbLine
 10
80.93114977451016
 20
-73.71145287216095
 30
0.0
 11
330.9311497745011
 21
176.2885471278304
 31
0.0
  0
LINE
  5
148
330
1F
100
AcDbEntity
  8
0-0
  6
JWW_DASHED1
 62
   120
370
     5
100
AcDbLine
 10
-259.0688502254978
 20
-406.6403850603027
 30
0.0
 11
-9.06885022549325
 21
-156.6403850602977
 31
0.0
  0
LINE
  5
149
330
1F
100
AcDbEntity
  8
0-0
  6
JWW_DASHED1
 62
   120
370
     5
100
AcDbLine
 10
80.93114977449822
 20
-66.64038506030707
 30
0.0
 11
330.9311497745028
 21
183.3596149396975
 31
0.0
  0
LINE
  5
14A
330
1F
100
AcDbEntity
  8
0-0
  6
JWW_DASHED1
 62
   120
370
     5
100
AcDbLine
 10
-259.0688502255046
 20
-399.569317248442
 30
0.0
 11
-9.068850225483018
 21
-149.5693172484212
 31
0.0
  0
LINE
  5
14B
330
1F
100
AcDbEntity
  8
0-0
  6
JWW_DASHED1
 62
   120
370
     5
100
AcDbLine
 10
80.93114977450675
 20
-59.56931724843017
 30
0.0
 11
330.931149774496
 21
190.430682751559
 31
0.0
  0
LINE
  5
14C
330
1F
100
AcDbEntity
  8
0-0
  6
JWW_DASHED1
 62
   120
370
     5
100
AcDbLine
 10
-259.0688502255063
 20
-392.498249436577
 30
0.0
 11
-9.068850225498366
 21
-142.4982494365703
 31
0.0
  0
LINE
  5
14D
330
1F
100
AcDbEntity
  8
0-0
  6
JWW_DASHED1
 62
   120
370
     5
100
AcDbLine
 10
80.93114977450846
 20
-52.49824943656265
 30
0.0
 11
330.9311497744994
 21
197.5017505634291
 31
0.0
  0
LINE
  5
14E
330
1F
100
AcDbEntity
  8
0-0
  6
JWW_DASHED1
 62
   120
370
     5
100
AcDbLine
 10
-259.0688502254995
 20
-385.4271816247044
 30
0.0
 11
-9.068850225494955
 21
-135.4271816246998
 31
0.0
  0
LINE
  5
14F
330
1F
100
AcDbEntity
  8
0-0
  6
JWW_DASHED1
 62
   120
370
     5
100
AcDbLine
 10
80.93114977451187
 20
-45.42718162469299
 30
0.0
 11
330.9311497745011
 21
204.5728183752958
 31
0.0
  0
LINE
  5
150
330
1F
100
AcDbEntity
  8
0-0
  6
JWW_DASHED1
 62
   120
370
     5
100
AcDbLine
 10
-259.0688502255063
 20
-378.3561138128437
 30
0.0
 11
-9.068850225484724
 21
-128.3561138128229
 31
0.0
  0
LINE
  5
151
330
1F
100
AcDbEntity
  8
0-0
  6
JWW_DASHED1
 62
   120
370
     5
100
AcDbLine
 10
80.93114977450504
 20
-38.35611381283229
 30
0.0
 11
330.9311497745113
 21
211.6438861871727
 31
0.0
  0
LINE
  5
152
330
1F
100
AcDbEntity
  8
0-0
  6
JWW_DASHED1
 62
   120
370
     5
100
AcDbLine
 10
-259.068850225508
 20
-371.2850460009787
 30
0.0
 11
-9.068850225500071
 21
-121.285046000972
 31
0.0
  0
LINE
  5
153
330
1F
100
AcDbEntity
  8
0-0
  6
JWW_DASHED1
 62
   120
370
     5
100
AcDbLine
 10
80.93114977450675
 20
-31.28504600096434
 30
0.0
 11
330.9311497744977
 21
218.714953999027
 31
0.0
  0
LINE
  5
154
330
1F
100
AcDbEntity
  8
0-0
  6
JWW_DASHED1
 62
   120
370
     5
100
AcDbLine
 10
-259.0688502254978
 20
-364.2139781891022
 30
0.0
 11
-9.06885022548984
 21
-114.2139781890951
 31
0.0
  0
LINE
  5
155
330
1F
100
AcDbEntity
  8
0-0
  6
JWW_DASHED1
 62
   120
370
     5
100
AcDbLine
 10
80.93114977451698
 20
-24.21397818908787
 30
0.0
 11
330.9311497745079
 21
225.7860218109035
 31
0.0
  0
LINE
  5
156
330
1F
100
AcDbEntity
  8
0-0
  6
JWW_DASHED1
 62
   120
370
     5
100
AcDbLine
 10
-259.068850225491
 20
-357.1429103772296
 30
0.0
 11
-9.068850225486429
 21
-107.142910377225
 31
0.0
  0
LINE
  5
157
330
1F
100
AcDbEntity
  8
0-0
  6
JWW_DASHED1
 62
   120
370
     5
100
AcDbLine
 10
80.93114977450334
 20
-17.14291037723399
 30
0.0
 11
330.9311497745079
 21
232.857089622771
 31
0.0
  0
LINE
  5
158
330
1F
100
AcDbEntity
  8
0-0
  6
JWW_DASHED1
 62
   120
370
     5
100
AcDbLine
 10
-259.0688502255097
 20
-350.0718425653804
 30
0.0
 11
-9.068850225501777
 21
-100.0718425653737
 31
0.0
  0
LINE
  5
159
330
1F
100
AcDbEntity
  8
0-0
  6
JWW_DASHED1
 62
   120
370
     5
100
AcDbLine
 10
80.93114977450504
 20
-10.07184256536604
 30
0.0
 11
330.931149774496
 21
239.9281574346257
 31
0.0
  0
LINE
  5
15A
330
1F
100
AcDbEntity
  8
0-0
  6
JWW_DASHED1
 62
   120
370
     5
100
AcDbLine
 10
-259.0688502254995
 20
-343.0007747535039
 30
0.0
 11
-9.06885022549325
 21
-93.00077475349681
 31
0.0
  0
LINE
  5
15B
330
1F
100
AcDbEntity
  8
0-0
  6
JWW_DASHED1
 62
   120
370
     5
100
AcDbLine
 10
80.93114977451528
 20
-3.000774753489566
 30
0.0
 11
330.9311497745062
 21
246.9992252465018
 31
0.0
  0
LINE
  5
15C
330
1F
100
AcDbEntity
  8
0-0
  6
JWW_DASHED1
 62
   120
370
     5
100
AcDbLine
 10
-259.0688502254944
 20
-335.9297069416317
 30
0.0
 11
-9.06885022548984
 21
-85.92970694162716
 31
0.0
  0
LINE
  5
15D
330
1F
100
AcDbEntity
  8
0-0
  6
JWW_DASHED1
 62
   120
370
     5
100
AcDbLine
 10
80.93114977450163
 20
4.070293058363887
 30
0.0
 11
330.9311497745062
 21
254.0702930583689
 31
0.0
  0
LINE
  5
15E
330
1F
100
AcDbEntity
  8
0-0
  6
JWW_DASHED1
 62
   120
370
     5
100
AcDbLine
 10
-259.0688502255114
 20
-328.8586391297821
 30
0.0
 11
-9.068850225503482
 21
-78.85863912977541
 31
0.0
  0
LINE
  5
15F
330
1F
100
AcDbEntity
  8
0-0
  6
JWW_DASHED1
 62
   120
370
     5
100
AcDbLine
 10
80.93114977450334
 20
11.14136087023226
 30
0.0
 11
330.9311497744943
 21
261.141360870224
 31
0.0
  0
LINE
  5
160
330
1F
100
AcDbEntity
  8
0-0
  6
JWW_DASHED1
 62
   120
370
     5
100
AcDbLine
 10
-259.0688502255012
 20
-321.7875713179056
 30
0.0
 11
-9.068850225494955
 21
-71.78757131789851
 31
0.0
  0
LINE
  5
161
330
1F
100
AcDbEntity
  8
0-0
  6
JWW_DASHED1
 62
   120
370
     5
100
AcDbLine
 10
80.93114977451357
 20
18.21242868210916
 30
0.0
 11
330.9311497745045
 21
268.2124286821
 31
0.0
  0
LINE
  5
162
330
1F
100
AcDbEntity
  8
0-0
  6
JWW_DASHED1
 62
   120
370
     5
100
AcDbLine
 10
-259.0688502254961
 20
-314.7165035060334
 30
0.0
 11
-9.068850225491545
 21
-64.71650350602886
 31
0.0
  0
LINE
  5
163
330
1F
100
AcDbEntity
  8
0-0
  6
JWW_DASHED1
 62
   120
370
     5
100
AcDbLine
 10
80.93114977449993
 20
25.28349649396219
 30
0.0
 11
330.9311497745045
 21
275.2834964939667
 31
0.0
  0
LINE
  5
164
330
1F
100
AcDbEntity
  8
0-0
  6
JWW_DASHED1
 62
   120
370
     5
100
AcDbLine
 10
-259.0688502255131
 20
-307.6454356941838
 30
0.0
 11
-9.06885022548984
 21
-57.64543569416134
 31
0.0
  0
LINE
  5
165
330
1F
100
AcDbEntity
  8
0-0
  6
JWW_DASHED1
 62
   120
370
     5
100
AcDbLine
 10
80.93114977450163
 20
32.35456430583056
 30
0.0
 11
330.9311497744926
 21
282.3545643058219
 31
0.0
  0
LINE
  5
166
330
1F
100
AcDbEntity
  8
0-0
  6
JWW_DASHED1
 62
   120
370
     5
100
AcDbLine
 10
-259.0688502255029
 20
-300.5743678823073
 30
0.0
 11
-9.068850225494955
 21
-50.57436788230021
 31
0.0
  0
LINE
  5
167
330
1F
100
AcDbEntity
  8
0-0
  6
JWW_DASHED1
 62
   120
370
     5
100
AcDbLine
 10
80.93114977451187
 20
39.42563211770747
 30
0.0
 11
330.9311497745028
 21
289.4256321176988
 31
0.0
  0
LINE
  5
168
330
1F
100
AcDbEntity
  8
0-0
  6
JWW_DASHED1
 62
   120
370
     5
100
AcDbLine
 10
-259.0688502254978
 20
-293.5033000704356
 30
0.0
 11
-9.06885022549325
 21
-43.50330007043056
 31
0.0
  0
LINE
  5
169
330
1F
100
AcDbEntity
  8
0-0
  6
JWW_DASHED1
 62
   120
370
     5
100
AcDbLine
 10
80.93114977449822
 20
46.49669992956007
 30
0.0
 11
330.9311497745028
 21
296.496699929565
 31
0.0
  0
LINE
  5
16A
330
1F
100
AcDbEntity
  8
0-0
  6
JWW_DASHED1
 62
   120
370
     5
100
AcDbLine
 10
-259.0688502255148
 20
-286.4322322585855
 30
0.0
 11
-9.068850225491545
 21
-36.43223225856303
 31
0.0
  0
LINE
  5
16B
330
1F
100
AcDbEntity
  8
0-0
  6
JWW_DASHED1
 62
   120
370
     5
100
AcDbLine
 10
80.93114977449993
 20
53.56776774142887
 30
0.0
 11
330.9311497744908
 21
303.5677677414197
 31
0.0
  0
LINE
  5
16C
330
1F
100
AcDbEntity
  8
0-0
  6
JWW_DASHED1
 62
   120
370
     5
100
AcDbLine
 10
-259.0688502255046
 20
-279.361164446709
 30
0.0
 11
-9.06885022549666
 21
-29.36116444670191
 31
0.0
  0
LINE
  5
16D
330
1F
100
AcDbEntity
  8
0-0
  6
JWW_DASHED1
 62
   120
370
     5
100
AcDbLine
 10
80.93114977451016
 20
60.63883555330534
 30
0.0
 11
330.9311497745011
 21
310.6388355532966
 31
0.0
  0
LINE
  5
16E
330
1F
100
AcDbEntity
  8
0-0
  6
JWW_DASHED1
 62
   120
370
     5
100
AcDbLine
 10
-259.0688502254995
 20
-272.2900966348373
 30
0.0
 11
-9.068850225494955
 21
-22.29009663483268
 31
0.0
  0
LINE
  5
16F
330
1F
100
AcDbEntity
  8
0-0
  6
JWW_DASHED1
 62
   120
370
     5
100
AcDbLine
 10
80.93114977449652
 20
67.70990336515837
 30
0.0
 11
330.9311497745011
 21
317.7099033651633
 31
0.0
  0
LINE
  5
170
330
1F
100
AcDbEntity
  8
0-0
  6
JWW_DASHED1
 62
   120
370
     5
100
AcDbLine
 10
-259.0688502255046
 20
-265.2190288229765
 30
0.0
 11
-9.068850225484724
 21
-15.2190288229562
 31
0.0
  0
LINE
  5
171
330
1F
100
AcDbEntity
  8
0-0
  6
JWW_DASHED1
 62
   120
370
     5
100
AcDbLine
 10
80.93114977450675
 20
74.78097117703484
 30
0.0
 11
330.9311497745113
 21
324.7809711770394
 31
0.0
  0
LINE
  5
172
330
1F
100
AcDbEntity
  8
0-0
  6
JWW_DASHED1
 62
   120
370
     5
100
AcDbLine
 10
-259.0688502255063
 20
-258.1479610111107
 30
0.0
 11
-9.068850225500071
 21
-8.147961011103604
 31
0.0
  0
LINE
  5
173
330
1F
100
AcDbEntity
  8
0-0
  6
JWW_DASHED1
 62
   120
370
     5
100
AcDbLine
 10
80.93114977450846
 20
81.85203898890364
 30
0.0
 11
330.9311497744994
 21
331.8520389888949
 31
0.0
  0
LINE
  5
174
330
1F
100
AcDbEntity
  8
0-0
  6
JWW_DASHED1
 62
   120
370
     5
100
AcDbLine
 10
-259.0688502254961
 20
-251.0768931992342
 30
0.0
 11
-9.06885022548984
 21
-1.076893199227129
 31
0.0
  0
LINE
  5
175
330
1F
100
AcDbEntity
  8
0-0
  6
JWW_DASHED1
 62
   120
370
     5
100
AcDbLine
 10
80.93114977451869
 20
88.92310680078054
 30
0.0
 11
330.9311497745096
 21
338.9231068007718
 31
0.0
  0
LINE
  5
176
330
1F
100
AcDbEntity
  8
0-0
  6
JWW_DASHED1
 62
   120
370
     5
100
AcDbLine
 10
-259.068850225508
 20
-244.0058253873782
 30
0.0
 11
-9.068850225486429
 21
5.994174612642098
 31
0.0
  0
LINE
  5
177
330
1F
100
AcDbEntity
  8
0-0
  6
JWW_DASHED1
 62
   120
370
     5
100
AcDbLine
 10
80.93114977450334
 20
95.99417461263272
 30
0.0
 11
330.9311497745079
 21
345.9941746126377
 31
0.0
  0
LINE
  5
178
330
1F
100
AcDbEntity
  8
0-0
  6
JWW_DASHED1
 62
   120
370
     5
100
AcDbLine
 10
-259.068850225508
 20
-236.9347575755124
 30
0.0
 11
-9.068850225500071
 21
13.0652424244947
 31
0.0
  0
LINE
  5
179
330
1F
100
AcDbEntity
  8
0-0
  6
JWW_DASHED1
 62
   120
370
     5
100
AcDbLine
 10
80.93114977450675
 20
103.0652424245024
 30
0.0
 11
330.9311497744977
 21
353.0652424244932
 31
0.0
  0
LINE
  5
17A
330
1F
100
AcDbEntity
  8
0-0
  6
JWW_DASHED1
 62
   120
370
     5
100
AcDbLine
 10
-259.0688502254978
 20
-229.8636897636355
 30
0.0
 11
-9.068850225491545
 21
20.1363102363716
 31
0.0
  0
LINE
  5
17B
330
1F
100
AcDbEntity
  8
0-0
  6
JWW_DASHED1
 62
   120
370
     5
100
AcDbLine
 10
80.93114977451698
 20
110.1363102363788
 30
0.0
 11
330.9311497745079
 21
360.1363102363702
 31
0.0
  0
LINE
  5
17C
330
1F
100
AcDbEntity
  8
0-0
  6
JWW_DASHED1
 62
   120
370
     5
100
AcDbLine
 10
-259.0688502254944
 20
-222.7926219517646
 30
0.0
 11
-9.068850225488134
 21
27.20737804823997
 31
0.0
  0
LINE
  5
17D
330
1F
100
AcDbEntity
  8
0-0
  6
JWW_DASHED1
 62
   120
370
     5
100
AcDbLine
 10
80.93114977450163
 20
117.207378048231
 30
0.0
 11
330.9311497745079
 21
367.207378048236
 31
0.0
  0
LINE
  5
17E
330
1F
100
AcDbEntity
  8
0-0
  6
JWW_DASHED1
 62
   120
370
     5
100
AcDbLine
 10
-259.0688502255097
 20
-215.7215541399141
 30
0.0
 11
-9.068850225501777
 21
34.278445860093
 31
0.0
  0
LINE
  5
17F
330
1F
100
AcDbEntity
  8
0-0
  6
JWW_DASHED1
 62
   120
370
     5
100
AcDbLine
 10
80.93114977450504
 20
124.2784458601002
 30
0.0
 11
330.931149774496
 21
374.2784458600916
 31
0.0
  0
LINE
  5
180
330
1F
100
AcDbEntity
  8
0-0
  6
JWW_DASHED1
 62
   120
370
     5
100
AcDbLine
 10
-259.0688502254995
 20
-208.6504863280376
 30
0.0
 11
-9.06885022549325
 21
41.3495136719699
 31
0.0
  0
LINE
  5
181
330
1F
100
AcDbEntity
  8
0-0
  6
JWW_DASHED1
 62
   120
370
     5
100
AcDbLine
 10
80.93114977451528
 20
131.3495136719771
 30
0.0
 11
330.9311497745062
 21
381.3495136719685
 31
0.0
  0
LINE
  5
182
330
1F
100
AcDbEntity
  8
0-0
  6
JWW_DASHED1
 62
   120
370
     5
100
AcDbLine
 10
-259.0688502254944
 20
-201.5794185161663
 30
0.0
 11
-9.06885022548984
 21
48.42058148383828
 31
0.0
  0
LINE
  5
183
330
1F
100
AcDbEntity
  8
0-0
  6
JWW_DASHED1
 62
   120
370
     5
100
AcDbLine
 10
80.93114977449993
 20
138.4205814838289
 30
0.0
 11
330.9311497745045
 21
388.4205814838339
 31
0.0
  0
LINE
  5
184
330
1F
100
AcDbEntity
  8
0-0
  6
JWW_DASHED1
 62
   120
370
     5
100
AcDbLine
 10
-259.0688502255114
 20
-194.5083507043158
 30
0.0
 11
-9.068850225503482
 21
55.4916492956913
 31
0.0
  0
LINE
  5
185
330
1F
100
AcDbEntity
  8
0-0
  6
JWW_DASHED1
 62
   120
370
     5
100
AcDbLine
 10
80.93114977450334
 20
145.4916492956986
 30
0.0
 11
330.9311497744943
 21
395.4916492956899
 31
0.0
  0
LINE
  5
186
330
1F
100
AcDbEntity
  8
0-0
  6
JWW_DASHED1
 62
   120
370
     5
100
AcDbLine
 10
-259.0688502255012
 20
-187.4372828924389
 30
0.0
 11
-9.068850225494955
 21
62.56271710756778
 31
0.0
  0
LINE
  5
187
330
1F
100
AcDbEntity
  8
0-0
  6
JWW_DASHED1
 62
   120
370
     5
100
AcDbLine
 10
80.93114977451357
 20
152.562717107575
 30
0.0
 11
330.9311497745045
 21
402.5627171075668
 31
0.0
  0
LINE
  5
188
330
1F
100
AcDbEntity
  8
0-0
  6
JWW_DASHED1
 62
   120
370
     5
100
AcDbLine
 10
-259.0688502254978
 20
-180.3662150805684
 30
0.0
 11
-9.06885022549325
 21
69.63378491943615
 31
0.0
  0
LINE
  5
189
330
1F
100
AcDbEntity
  8
0-0
  6
JWW_DASHED1
 62
   120
370
     5
100
AcDbLine
 10
80.93114977449822
 20
159.6337849194272
 30
0.0
 11
330.9311497745028
 21
409.6337849194322
 31
0.0
  0
LINE
  5
18A
330
1F
100
AcDbEntity
  8
0-0
  6
JWW_DASHED1
 62
   120
370
     5
100
AcDbLine
 10
-259.0688502255131
 20
-173.2951472687175
 30
0.0
 11
-9.06885022548984
 21
76.70485273130538
 31
0.0
  0
LINE
  5
18B
330
1F
100
AcDbEntity
  8
0-0
  6
JWW_DASHED1
 62
   120
370
     5
100
AcDbLine
 10
80.93114977450163
 20
166.7048527312969
 30
0.0
 11
330.9311497744926
 21
416.7048527312882
 31
0.0
  0
LINE
  5
18C
330
1F
100
AcDbEntity
  8
0-0
  6
JWW_DASHED1
 62
   120
370
     5
100
AcDbLine
 10
-259.0688502255029
 20
-166.2240794568406
 30
0.0
 11
-9.06885022549666
 21
83.77592054316608
 31
0.0
  0
LINE
  5
18D
330
1F
100
AcDbEntity
  8
0-0
  6
JWW_DASHED1
 62
   120
370
     5
100
AcDbLine
 10
80.93114977451187
 20
173.7759205431738
 30
0.0
 11
330.9311497745028
 21
423.7759205431651
 31
0.0
  0
LINE
  5
18E
330
1F
100
AcDbEntity
  8
0-0
  6
JWW_DASHED1
 62
   120
370
     5
100
AcDbLine
 10
-259.0688502254995
 20
-159.1530116449705
 30
0.0
 11
-9.068850225494955
 21
90.84698835503445
 31
0.0
  0
LINE
  5
18F
330
1F
100
AcDbEntity
  8
0-0
  6
JWW_DASHED1
 62
   120
370
     5
100
AcDbLine
 10
80.93114977449652
 20
180.8469883550251
 30
0.0
 11
330.9311497745011
 21
430.84698835503
 31
0.0
  0
LINE
  5
190
330
1F
100
AcDbEntity
  8
0-0
  6
JWW_DASHED1
 62
   120
370
     5
100
AcDbLine
 10
-259.0688502255046
 20
-152.0819438331094
 30
0.0
 11
-9.068850225484724
 21
97.91805616691093
 31
0.0
  0
LINE
  5
191
330
1F
100
AcDbEntity
  8
0-0
  6
JWW_DASHED1
 62
   120
370
     5
100
AcDbLine
 10
80.93114977450675
 20
187.918056166902
 30
0.0
 11
330.931149774496
 21
437.9180561668908
 31
0.0
  0
LINE
  5
192
330
1F
100
AcDbEntity
  8
0-0
  6
JWW_DASHED1
 62
   120
370
     5
100
AcDbLine
 10
-259.0688502255046
 20
-145.0108760212427
 30
0.0
 11
-9.068850225498366
 21
104.9891239787644
 31
0.0
  0
LINE
  5
193
330
1F
100
AcDbEntity
  8
0-0
  6
JWW_DASHED1
 62
   120
370
     5
100
AcDbLine
 10
80.93114977451016
 20
194.9891239787721
 30
0.0
 11
330.9311497745011
 21
444.9891239787634
 31
0.0
  0
LINE
  5
194
330
1F
100
AcDbEntity
  8
0-0
  6
JWW_DASHED1
 62
   120
370
     5
100
AcDbLine
 10
-259.0688502255012
 20
-137.9398082093722
 30
0.0
 11
-9.06885022549666
 21
112.0601917906323
 31
0.0
  0
LINE
  5
195
330
1F
100
AcDbEntity
  8
0-0
  6
JWW_DASHED1
 62
   120
370
     5
100
AcDbLine
 10
80.93114977451016
 20
202.0601917906392
 30
0.0
 11
330.9311497744994
 21
452.0601917906283
 31
0.0
  0
LINE
  5
196
330
1F
100
AcDbEntity
  8
0-0
  6
JWW_DASHED1
 62
   120
370
     5
100
AcDbLine
 10
-259.0688502255063
 20
-130.8687403975115
 30
0.0
 11
-9.068850225486429
 21
119.1312596025092
 31
0.0
  0
LINE
  5
197
330
1F
100
AcDbEntity
  8
0-0
  6
JWW_DASHED1
 62
   120
370
     5
100
AcDbLine
 10
80.93114977450504
 20
209.1312596024999
 30
0.0
 11
330.9311497745096
 21
459.1312596025044
 31
0.0
  0
LINE
  5
198
330
1F
100
AcDbEntity
  8
0-0
  6
JWW_DASHED1
 62
   120
370
     5
100
AcDbLine
 10
-259.0688502255063
 20
-123.7976725856444
 30
0.0
 11
-9.068850225500071
 21
126.2023274143631
 31
0.0
  0
LINE
  5
199
330
1F
100
AcDbEntity
  8
0-0
  6
JWW_DASHED1
 62
   120
370
     5
100
AcDbLine
 10
80.93114977450846
 20
216.2023274143704
 30
0.0
 11
330.9311497744994
 21
466.2023274143617
 31
0.0
  0
LINE
  5
19A
330
1F
100
AcDbEntity
  8
0-0
  6
JWW_DASHED1
 62
   120
370
     5
100
AcDbLine
 10
-259.0688502254961
 20
-116.7266047737675
 30
0.0
 11
-9.06885022548984
 21
133.2733952262392
 31
0.0
  0
LINE
  5
19B
330
1F
100
AcDbEntity
  8
0-0
  6
JWW_DASHED1
 62
   120
370
     5
100
AcDbLine
 10
80.93114977451869
 20
223.2733952262468
 30
0.0
 11
330.9311497745096
 21
473.2733952262378
 31
0.0
  0
LINE
  5
19C
330
1F
100
AcDbEntity
  8
0-0
  6
JWW_DASHED1
 62
   120
370
     5
100
AcDbLine
 10
-259.0688502254927
 20
-109.6555369618974
 30
0.0
 11
-9.068850225488134
 21
140.3444630381075
 31
0.0
  0
LINE
  5
19D
330
1F
100
AcDbEntity
  8
0-0
  6
JWW_DASHED1
 62
   120
370
     5
100
AcDbLine
 10
80.93114977450334
 20
230.3444630380982
 30
0.0
 11
330.9311497745079
 21
480.3444630381027
 31
0.0
  0
LINE
  5
19E
330
1F
100
AcDbEntity
  8
0-0
  6
JWW_DASHED1
 62
   120
370
     5
100
AcDbLine
 10
-259.068850225508
 20
-102.5844691500461
 30
0.0
 11
-9.068850225501777
 21
147.415530849961
 31
0.0
  0
LINE
  5
19F
330
1F
100
AcDbEntity
  8
0-0
  6
JWW_DASHED1
 62
   120
370
     5
100
AcDbLine
 10
80.93114977450675
 20
237.4155308499682
 30
0.0
 11
330.9311497744977
 21
487.41553084996
 31
0.0
  0
LINE
  5
1A0
330
1F
100
AcDbEntity
  8
0-0
  6
JWW_DASHED1
 62
   120
370
     5
100
AcDbLine
 10
-259.0688502254978
 20
-95.51340133816922
 30
0.0
 11
-9.068850225491545
 21
154.4865986618375
 31
0.0
  0
LINE
  5
1A1
330
1F
100
AcDbEntity
  8
0-0
  6
JWW_DASHED1
 62
   120
370
     5
100
AcDbLine
 10
80.93114977451698
 20
244.4865986618451
 30
0.0
 11
330.9311497745079
 21
494.4865986618365
 31
0.0
  0
LINE
  5
1A2
330
1F
100
AcDbEntity
  8
0-0
  6
JWW_DASHED1
 62
   120
370
     5
100
AcDbLine
 10
-259.0688502254944
 20
-88.44233352629956
 30
0.0
 11
-9.06885022548984
 21
161.5576664737054
 31
0.0
  0
LINE
  5
1A3
330
1F
100
AcDbEntity
  8
0-0
  6
JWW_DASHED1
 62
   120
370
     5
100
AcDbLine
 10
80.93114977449993
 20
251.5576664736965
 30
0.0
 11
330.9311497745062
 21
501.557666473701
 31
0.0
  0
LINE
  5
1A4
330
1F
100
AcDbEntity
  8
0-0
  6
JWW_DASHED1
 62
   120
370
     5
100
AcDbLine
 10
-259.0688502255097
 20
-81.37126571444782
 30
0.0
 11
-9.068850225503482
 21
168.6287342855593
 31
0.0
  0
LINE
  5
1A5
330
1F
100
AcDbEntity
  8
0-0
  6
JWW_DASHED1
 62
   120
370
     5
100
AcDbLine
 10
80.93114977450504
 20
258.628734285567
 30
0.0
 11
330.931149774496
 21
508.6287342855583
 31
0.0
  0
LINE
  5
1A6
330
1F
100
AcDbEntity
  8
0-0
  6
JWW_DASHED1
 62
   120
370
     5
100
AcDbLine
 10
-259.0688502254995
 20
-74.30019790257091
 30
0.0
 11
-9.06885022549325
 21
175.6998020974358
 31
0.0
  0
LINE
  5
1A7
330
1F
100
AcDbEntity
  8
0-0
  6
JWW_DASHED1
 62
   120
370
     5
100
AcDbLine
 10
80.93114977451528
 20
265.6998020974435
 30
0.0
 11
330.9311497745062
 21
515.6998020974344
 31
0.0
  0
LINE
  5
1A8
330
1F
100
AcDbEntity
  8
0-0
  6
JWW_DASHED1
 62
   120
370
     5
100
AcDbLine
 10
-259.0688502254978
 20
-67.22913009070126
 30
0.0
 11
-9.068850225491545
 21
182.7708699093033
 31
0.0
  0
LINE
  5
1A9
330
1F
100
AcDbEntity
  8
0-0
  6
JWW_DASHED1
 62
   120
370
     5
100
AcDbLine
 10
80.93114977449822
 20
272.7708699092939
 30
0.0
 11
330.9311497745045
 21
522.7708699092993
 31
0.0
  0
LINE
  5
1AA
330
1F
100
AcDbEntity
  8
0-0
  6
JWW_DASHED1
 62
   120
370
     5
100
AcDbLine
 10
-259.0688502255148
 20
-60.15806227887893
 30
0.0
 11
-9.068850225491545
 21
189.8419377211439
 31
0.0
  0
LINE
  5
1AB
330
1F
100
AcDbEntity
  8
0-0
  6
JWW_DASHED1
 62
   120
370
     5
100
AcDbLine
 10
80.93114977449993
 20
279.8419377211359
 30
0.0
 11
330.9311497745079
 21
529.8419377211429
 31
0.0
  0
LINE
  5
1AC
330
1F
100
AcDbEntity
  8
0-0
  6
JWW_DASHED1
 62
   120
370
     5
100
AcDbLine
 10
-259.0688502255063
 20
-53.08699446703187
 30
0.0
 11
-9.068850225498366
 21
196.9130055329752
 31
0.0
  0
LINE
  5
1AD
330
1F
100
AcDbEntity
  8
0-0
  6
JWW_DASHED1
 62
   120
370
     5
100
AcDbLine
 10
80.93114977450846
 20
286.9130055329829
 30
0.0
 11
330.9311497744994
 21
536.9130055329742
 31
0.0
  0
LINE
  5
1AE
330
1F
100
AcDbEntity
  8
0-0
  6
JWW_DASHED1
 62
   120
370
     5
100
AcDbLine
 10
-259.0688502254961
 20
-46.01592665515497
 30
0.0
 11
-9.06885022548984
 21
203.9840733448521
 31
0.0
  0
LINE
  5
1AF
330
1F
100
AcDbEntity
  8
0-0
  6
JWW_DASHED1
 62
   120
370
     5
100
AcDbLine
 10
80.93114977451869
 20
293.9840733448598
 30
0.0
 11
330.9311497745096
 21
543.9840733448507
 31
0.0
  0
LINE
  5
1B0
330
1F
100
AcDbEntity
  8
0-0
  6
JWW_DASHED1
 62
   120
370
     5
100
AcDbLine
 10
-259.0688502255097
 20
-38.94485884330152
 30
0.0
 11
-9.068850225488134
 21
211.0551411567197
 31
0.0
  0
LINE
  5
1B1
330
1F
100
AcDbEntity
  8
0-0
  6
JWW_DASHED1
 62
   120
370
     5
100
AcDbLine
 10
80.93114977450163
 20
301.0551411567099
 30
0.0
 11
330.9311497745079
 21
551.0551411567149
 31
0.0
  0
LINE
  5
1B2
330
1F
100
AcDbEntity
  8
0-0
  6
JWW_DASHED1
 62
   120
370
     5
100
AcDbLine
 10
-259.068850225508
 20
-31.87379103143357
 30
0.0
 11
-9.068850225500071
 21
218.1262089685735
 31
0.0
  0
LINE
  5
1B3
330
1F
100
AcDbEntity
  8
0-0
  6
JWW_DASHED1
 62
   120
370
     5
100
AcDbLine
 10
80.93114977450675
 20
308.1262089685812
 30
0.0
 11
330.9311497744977
 21
558.1262089685721
 31
0.0
  0
LINE
  5
1B4
330
1F
100
AcDbEntity
  8
0-0
  6
JWW_DASHED1
 62
   120
370
     5
100
AcDbLine
 10
-259.0688502254978
 20
-24.80272321955667
 30
0.0
 11
-9.06885022548984
 21
225.1972767804504
 31
0.0
  0
LINE
  5
1B5
330
1F
100
AcDbEntity
  8
0-0
  6
JWW_DASHED1
 62
   120
370
     5
100
AcDbLine
 10
80.93114977451698
 20
315.1972767804581
 30
0.0
 11
330.9311497745079
 21
565.197276780449
 31
0.0
  0
LINE
  5
1B6
330
1F
100
AcDbEntity
  8
0-0
  6
JWW_DASHED1
 62
   120
370
     5
100
AcDbLine
 10
-259.0688502254944
 20
-17.73165540768744
 30
0.0
 11
-9.06885022548984
 21
232.2683445923171
 31
0.0
  0
LINE
  5
1B7
330
1F
100
AcDbEntity
  8
0-0
  6
JWW_DASHED1
 62
   120
370
     5
100
AcDbLine
 10
80.93114977449993
 20
322.2683445923082
 30
0.0
 11
330.9311497745062
 21
572.2683445923132
 31
0.0
  0
LINE
  5
1B8
330
1F
100
AcDbEntity
  8
0-0
  6
JWW_DASHED1
 62
   120
370
     5
100
AcDbLine
 10
-259.0688502255097
 20
-10.66058759583527
 30
0.0
 11
-9.068850225501777
 21
239.3394124041718
 31
0.0
  0
LINE
  5
1B9
330
1F
100
AcDbEntity
  8
0-0
  6
JWW_DASHED1
 62
   120
370
     5
100
AcDbLine
 10
80.93114977450504
 20
329.3394124041795
 30
0.0
 11
330.931149774496
 21
579.3394124041704
 31
0.0
  0
LINE
  5
1BA
330
1F
100
AcDbEntity
  8
0-0
  6
JWW_DASHED1
 62
   120
370
     5
100
AcDbLine
 10
-259.0688502254995
 20
-3.589519783958366
 30
0.0
 11
-9.06885022549325
 21
246.4104802160487
 31
0.0
  0
LINE
  5
1BB
330
1F
100
AcDbEntity
  8
0-0
  6
JWW_DASHED1
 62
   120
370
     5
100
AcDbLine
 10
80.93114977451528
 20
336.4104802160564
 30
0.0
 11
330.9311497745062
 21
586.4104802160473
 31
0.0
  0
LINE
  5
1BC
330
1F
100
AcDbEntity
  8
0-0
  6
JWW_DASHED1
 62
   120
370
     5
100
AcDbLine
 10
-259.0688502254978
 20
3.481548027910435
 30
0.0
 11
-9.068850225491545
 21
253.4815480279154
 31
0.0
  0
LINE
  5
1BD
330
1F
100
AcDbEntity
  8
0-0
  6
JWW_DASHED1
 62
   120
370
     5
100
AcDbLine
 10
80.93114977449822
 20
343.481548027906
 30
0.0
 11
330.9311497745028
 21
593.4815480279115
 31
0.0
  0
LINE
  5
1BE
330
1F
100
AcDbEntity
  8
0-0
  6
JWW_DASHED1
 62
   120
370
     5
100
AcDbLine
 10
-259.0688502255114
 20
10.55261583976304
 30
0.0
 11
-9.068850225488134
 21
260.5526158397863
 31
0.0
  0
LINE
  5
1BF
330
1F
100
AcDbEntity
  8
0-0
  6
JWW_DASHED1
 62
   120
370
     5
100
AcDbLine
 10
80.93114977450334
 20
350.5526158397778
 30
0.0
 11
330.9311497744943
 21
600.5526158397687
 31
0.0
  0
LINE
  5
1C0
330
1F
100
AcDbEntity
  8
0-0
  6
JWW_DASHED1
 62
   120
370
     5
100
AcDbLine
 10
-259.0688502255012
 20
17.62368365163994
 30
0.0
 11
-9.06885022549325
 21
267.6236836516471
 31
0.0
  0
LINE
  5
1C1
330
1F
100
AcDbEntity
  8
0-0
  6
JWW_DASHED1
 62
   120
370
     5
100
AcDbLine
 10
80.93114977451357
 20
357.6236836516543
 30
0.0
 11
330.9311497745045
 21
607.6236836516456
 31
0.0
  0
LINE
  5
1C2
330
1F
100
AcDbEntity
  8
0-0
  6
JWW_DASHED1
 62
   120
370
     5
100
AcDbLine
 10
-259.0688502254995
 20
24.69475146350874
 30
0.0
 11
-9.068850225494955
 21
274.6947514635137
 31
0.0
  0
LINE
  5
1C3
330
1F
100
AcDbEntity
  8
0-0
  6
JWW_DASHED1
 62
   120
370
     5
100
AcDbLine
 10
80.93114977449652
 20
364.6947514635043
 30
0.0
 11
330.9311497745011
 21
614.6947514635089
 31
0.0
  0
LINE
  5
1C4
330
1F
100
AcDbEntity
  8
0-0
  6
JWW_DASHED1
 62
   120
370
     5
100
AcDbLine
 10
-259.0688502255131
 20
31.76581927536134
 30
0.0
 11
-9.06885022548984
 21
281.7658192753846
 31
0.0
  0
LINE
  5
1C5
330
1F
100
AcDbEntity
  8
0-0
  6
JWW_DASHED1
 62
   120
370
     5
100
AcDbLine
 10
80.93114977450163
 20
371.7658192753761
 30
0.0
 11
330.9311497744926
 21
621.7658192753674
 31
0.0
  0
LINE
  5
1C6
330
1F
100
AcDbEntity
  8
0-0
  6
JWW_DASHED1
 62
   120
370
     5
100
AcDbLine
 10
-259.0688502255029
 20
38.83688708723824
 30
0.0
 11
-9.06885022549666
 21
288.8368870872454
 31
0.0
  0
LINE
  5
1C7
330
1F
100
AcDbEntity
  8
0-0
  6
JWW_DASHED1
 62
   120
370
     5
100
AcDbLine
 10
80.93114977451187
 20
378.8368870872526
 30
0.0
 11
330.9311497745028
 21
628.8368870872439
 31
0.0
  0
LINE
  5
1C8
330
1F
100
AcDbEntity
  8
0-0
  6
JWW_DASHED1
 62
   120
370
     5
100
AcDbLine
 10
-259.0688502255012
 20
45.90795489910704
 30
0.0
 11
-9.06885022549666
 21
295.9079548991116
 31
0.0
  0
LINE
  5
1C9
330
1F
100
AcDbEntity
  8
0-0
  6
JWW_DASHED1
 62
   120
370
     5
100
AcDbLine
 10
80.93114977449481
 20
385.9079548991026
 30
0.0
 11
330.9311497744994
 21
635.9079548991072
 31
0.0
  0
LINE
  5
1CA
330
1F
100
AcDbEntity
  8
0-0
  6
JWW_DASHED1
 62
   120
370
     5
100
AcDbLine
 10
-259.0688502255063
 20
52.97902271096774
 30
0.0
 11
-9.068850225486429
 21
302.979022710988
 31
0.0
  0
LINE
  5
1CB
330
1F
100
AcDbEntity
  8
0-0
  6
JWW_DASHED1
 62
   120
370
     5
100
AcDbLine
 10
80.93114977450504
 20
392.9790227109791
 30
0.0
 11
330.9311497745096
 21
642.979022710984
 31
0.0
  0
LINE
  5
1CC
330
1F
100
AcDbEntity
  8
0-0
  6
JWW_DASHED1
 62
   120
370
     5
100
AcDbLine
 10
-259.0688502255046
 20
60.05009052283611
 30
0.0
 11
-9.068850225498366
 21
310.0500905228437
 31
0.0
  0
LINE
  5
1CD
330
1F
100
AcDbEntity
  8
0-0
  6
JWW_DASHED1
 62
   120
370
     5
100
AcDbLine
 10
80.93114977451016
 20
400.0500905228513
 30
0.0
 11
330.9311497745011
 21
650.0500905228422
 31
0.0
  0
LINE
  5
1CE
330
1F
100
AcDbEntity
  8
0-0
  6
JWW_DASHED1
 62
   120
370
     5
100
AcDbLine
 10
-259.0688502254944
 20
67.12115833471302
 30
0.0
 11
-9.068850225488134
 21
317.1211583347201
 31
0.0
  0
LINE
  5
1CF
330
1F
100
AcDbEntity
  8
0-0
  6
JWW_DASHED1
 62
   120
370
     5
100
AcDbLine
 10
80.93114977452039
 20
407.1211583347274
 30
0.0
 11
330.9311497745113
 21
657.1211583347191
 31
0.0
  0
LINE
  5
1D0
330
1F
100
AcDbEntity
  8
0-0
  6
JWW_DASHED1
 62
   120
370
     5
100
AcDbLine
 10
-259.068850225508
 20
74.19222614656562
 30
0.0
 11
-9.068850225488134
 21
324.1922261465863
 31
0.0
  0
LINE
  5
1D1
330
1F
100
AcDbEntity
  8
0-0
  6
JWW_DASHED1
 62
   120
370
     5
100
AcDbLine
 10
80.93114977450334
 20
414.192226146577
 30
0.0
 11
330.9311497745079
 21
664.192226146582
 31
0.0
  0
LINE
  5
1D2
330
1F
100
AcDbEntity
  8
0-0
  6
JWW_DASHED1
 62
   120
370
     5
100
AcDbLine
 10
-259.0688502255063
 20
81.26329395843484
 30
0.0
 11
-9.068850225500071
 21
331.2632939584415
 31
0.0
  0
LINE
  5
1D3
330
1F
100
AcDbEntity
  8
0-0
  6
JWW_DASHED1
 62
   120
370
     5
100
AcDbLine
 10
80.93114977450846
 20
421.2632939584492
 30
0.0
 11
330.9311497744994
 21
671.2632939584405
 31
0.0
  0
LINE
  5
1D4
330
1F
100
AcDbEntity
  8
0-0
  6
JWW_DASHED1
 62
   120
370
     5
100
AcDbLine
 10
-259.0688502254961
 20
88.33436177031089
 30
0.0
 11
-9.06885022548984
 21
338.3343617703184
 31
0.0
  0
LINE
  5
1D5
330
1F
100
AcDbEntity
  8
0-0
  6
JWW_DASHED1
 62
   120
370
     5
100
AcDbLine
 10
80.93114977451869
 20
428.3343617703257
 30
0.0
 11
330.9311497745096
 21
678.3343617703174
 31
0.0
  0
LINE
  5
1D6
330
1F
100
AcDbEntity
  8
0-0
  6
JWW_DASHED1
 62
   120
370
     5
100
AcDbLine
 10
-259.0688502254944
 20
95.40542958217969
 30
0.0
 11
-9.06885022548984
 21
345.4054295821842
 31
0.0
  0
LINE
  5
1D7
330
1F
100
AcDbEntity
  8
0-0
  6
JWW_DASHED1
 62
   120
370
     5
100
AcDbLine
 10
80.93114977450163
 20
435.4054295821753
 30
0.0
 11
330.9311497745062
 21
685.4054295821799
 31
0.0
  0
LINE
  5
1D8
330
1F
100
AcDbEntity
  8
0-0
  6
JWW_DASHED1
 62
   120
370
     5
100
AcDbLine
 10
-259.068850225508
 20
102.4764973940331
 30
0.0
 11
-9.068850225500071
 21
352.4764973940403
 31
0.0
  0
LINE
  5
1D9
330
1F
100
AcDbEntity
  8
0-0
  6
JWW_DASHED1
 62
   120
370
     5
100
AcDbLine
 10
80.93114977450675
 20
442.4764973940479
 30
0.0
 11
330.9311497744977
 21
692.4764973940388
 31
0.0
  0
LINE
  5
1DA
330
1F
100
AcDbEntity
  8
0-0
  6
JWW_DASHED1
 62
   120
370
     5
100
AcDbLine
 10
-259.0688502254978
 20
109.5475652059096
 30
0.0
 11
-9.068850225491545
 21
359.5475652059163
 31
0.0
  0
LINE
  5
1DB
330
1F
100
AcDbEntity
  8
0-0
  6
JWW_DASHED1
 62
   120
370
     5
100
AcDbLine
 10
80.93114977451698
 20
449.547565205924
 30
0.0
 11
330.9311497745079
 21
699.5475652059157
 31
0.0
  0
LINE
  5
1DC
330
1F
100
AcDbEntity
  8
0-0
  6
JWW_DASHED1
 62
   120
370
     5
100
AcDbLine
 10
-259.0688502254961
 20
116.6186330177776
 30
0.0
 11
-9.068850225491545
 21
366.6186330177821
 31
0.0
  0
LINE
  5
1DD
330
1F
100
AcDbEntity
  8
0-0
  6
JWW_DASHED1
 62
   120
370
     5
100
AcDbLine
 10
80.93114977449822
 20
456.6186330177732
 30
0.0
 11
330.9311497745045
 21
706.6186330177782
 31
0.0
  0
LINE
  5
1DE
330
1F
100
AcDbEntity
  8
0-0
  6
JWW_DASHED1
 62
   120
370
     5
100
AcDbLine
 10
-259.0688502255097
 20
123.6897008296314
 30
0.0
 11
-9.068850225503482
 21
373.6897008296386
 31
0.0
  0
LINE
  5
1DF
330
1F
100
AcDbEntity
  8
0-0
  6
JWW_DASHED1
 62
   120
370
     5
100
AcDbLine
 10
80.93114977450504
 20
463.6897008296462
 30
0.0
 11
330.931149774496
 21
713.6897008296371
 31
0.0
  0
LINE
  5
1E0
330
1F
100
AcDbEntity
  8
0-0
  6
JWW_DASHED1
 62
   120
370
     5
100
AcDbLine
 10
-259.0688502254995
 20
130.7607686415079
 30
0.0
 11
-9.06885022549325
 21
380.760768641515
 31
0.0
  0
LINE
  5
1E1
330
1F
100
AcDbEntity
  8
0-0
  6
JWW_DASHED1
 62
   120
370
     5
100
AcDbLine
 10
80.93114977451528
 20
470.7607686415223
 30
0.0
 11
330.9311497745062
 21
720.7607686415136
 31
0.0
  0
LINE
  5
1E2
330
1F
100
AcDbEntity
  8
0-0
  6
JWW_DASHED1
 62
   120
370
     5
100
AcDbLine
 10
-259.0688502254978
 20
137.8318364533759
 30
0.0
 11
-9.06885022549325
 21
387.8318364533804
 31
0.0
  0
LINE
  5
1E3
330
1F
100
AcDbEntity
  8
0-0
  6
JWW_DASHED1
 62
   120
370
     5
100
AcDbLine
 10
80.93114977449652
 20
477.8318364533715
 30
0.0
 11
330.9311497745011
 21
727.8318364533765
 31
0.0
  0
LINE
  5
1E4
330
1F
100
AcDbEntity
  8
0-0
  6
JWW_DASHED1
 62
   120
370
     5
100
AcDbLine
 10
-259.0688502255114
 20
144.9029042652298
 30
0.0
 11
-9.068850225488134
 21
394.9029042652526
 31
0.0
  0
LINE
  5
1E5
330
1F
100
AcDbEntity
  8
0-0
  6
JWW_DASHED1
 62
   120
370
     5
100
AcDbLine
 10
80.93114977450334
 20
484.9029042652445
 30
0.0
 11
330.9311497744943
 21
734.9029042652354
 31
0.0
  0
LINE
  5
1E6
330
1F
100
AcDbEntity
  8
0-0
  6
JWW_DASHED1
 62
   120
370
     5
100
AcDbLine
 10
-259.0688502255012
 20
151.9739720771062
 30
0.0
 11
-9.068850225494955
 21
401.9739720771133
 31
0.0
  0
LINE
  5
1E7
330
1F
100
AcDbEntity
  8
0-0
  6
JWW_DASHED1
 62
   120
370
     5
100
AcDbLine
 10
80.93114977451357
 20
491.9739720771206
 30
0.0
 11
330.9311497745045
 21
741.9739720771123
 31
0.0
  0
LINE
  5
1E8
330
1F
100
AcDbEntity
  8
0-0
  6
JWW_DASHED1
 62
   120
370
     5
100
AcDbLine
 10
-259.0688502255012
 20
159.0450398889737
 30
0.0
 11
-9.06885022549666
 21
409.0450398889787
 31
0.0
  0
LINE
  5
1E9
330
1F
100
AcDbEntity
  8
0-0
  6
JWW_DASHED1
 62
   120
370
     5
100
AcDbLine
 10
80.93114977449481
 20
499.0450398889693
 30
0.0
 11
330.9311497744994
 21
749.0450398889739
 31
0.0
  0
LINE
  5
1EA
330
1F
100
AcDbEntity
  8
0-0
  6
JWW_DASHED1
 62
   120
370
     5
100
AcDbLine
 10
-259.0688502255131
 20
166.1161077008281
 30
0.0
 11
-9.06885022548984
 21
416.1161077008505
 31
0.0
  0
LINE
  5
1EB
330
1F
100
AcDbEntity
  8
0-0
  6
JWW_DASHED1
 62
   120
370
     5
100
AcDbLine
 10
80.93114977450163
 20
506.1161077008424
 30
0.0
 11
330.9311497744926
 21
756.1161077008337
 31
0.0
  0
LINE
  5
1EC
330
1F
100
AcDbEntity
  8
0-0
  6
JWW_DASHED1
 62
   120
370
     5
100
AcDbLine
 10
-259.0688502255029
 20
173.1871755127045
 30
0.0
 11
-9.06885022549666
 21
423.1871755127112
 31
0.0
  0
LINE
  5
1ED
330
1F
100
AcDbEntity
  8
0-0
  6
JWW_DASHED1
 62
   120
370
     5
100
AcDbLine
 10
80.93114977451187
 20
513.1871755127189
 30
0.0
 11
330.9311497745028
 21
763.1871755127106
 31
0.0
  0
LINE
  5
1EE
330
1F
100
AcDbEntity
  8
0-0
  6
JWW_DASHED1
 62
   120
370
     5
100
AcDbLine
 10
-259.0688502255029
 20
180.258243324572
 30
0.0
 11
-9.06885022549666
 21
430.2582433245771
 31
0.0
  0
LINE
  5
1EF
330
1F
100
AcDbEntity
  8
0-0
  6
JWW_DASHED1
 62
   120
370
     5
100
AcDbLine
 10
80.93114977450846
 20
520.258243324583
 30
0.0
 11
330.9311497744977
 21
770.2582433245726
 31
0.0
  0
LINE
  5
1F0
330
1F
100
AcDbEntity
  8
0-0
  6
JWW_DASHED1
 62
   120
370
     5
100
AcDbLine
 10
-259.068850225508
 20
187.3293111364328
 30
0.0
 11
-9.068850225488134
 21
437.329311136453
 31
0.0
  0
LINE
  5
1F1
330
1F
100
AcDbEntity
  8
0-0
  6
JWW_DASHED1
 62
   120
370
     5
100
AcDbLine
 10
80.93114977450334
 20
527.3293111364445
 30
0.0
 11
330.9311497745079
 21
777.3293111364491
 31
0.0
  0
LINE
  5
1F2
330
1F
100
AcDbEntity
  8
0-0
  6
JWW_DASHED1
 62
   120
370
     5
100
AcDbLine
 10
-259.0688502255046
 20
194.4003789483028
 30
0.0
 11
-9.068850225498366
 21
444.4003789483099
 31
0.0
  0
LINE
  5
1F3
330
1F
100
AcDbEntity
  8
0-0
  6
JWW_DASHED1
 62
   120
370
     5
100
AcDbLine
 10
80.93114977451016
 20
534.4003789483172
 30
0.0
 11
330.9311497745011
 21
784.4003789483089
 31
0.0
  0
LINE
  5
1F4
330
1F
100
AcDbEntity
  8
0-0
  6
JWW_DASHED1
 62
   120
370
     5
100
AcDbLine
 10
-259.0688502254944
 20
201.4714467601793
 30
0.0
 11
-9.068850225488134
 21
451.4714467601864
 31
0.0
  0
LINE
  5
1F5
330
1F
100
AcDbEntity
  8
0-0
  6
JWW_DASHED1
 62
   120
370
     5
100
AcDbLine
 10
80.93114977452039
 20
541.4714467601941
 30
0.0
 11
330.9311497745113
 21
791.4714467601855
 31
0.0
  0
LINE
  5
1F6
330
1F
100
AcDbEntity
  8
0-0
  6
JWW_DASHED1
 62
   120
370
     5
100
AcDbLine
 10
-259.0688502255097
 20
208.5425145720311
 30
0.0
 11
-9.06885022548984
 21
458.5425145720513
 31
0.0
  0
LINE
  5
1F7
330
1F
100
AcDbEntity
  8
0-0
  6
JWW_DASHED1
 62
   120
370
     5
100
AcDbLine
 10
80.93114977450163
 20
548.542514572042
 30
0.0
 11
330.9311497745062
 21
798.5425145720469
 31
0.0
  0
LINE
  5
1F8
330
1F
100
AcDbEntity
  8
0-0
  6
JWW_DASHED1
 62
   120
370
     5
100
AcDbLine
 10
-259.0688502255063
 20
215.6135823839011
 30
0.0
 11
-9.068850225500071
 21
465.6135823839078
 31
0.0
  0
LINE
  5
1F9
330
1F
100
AcDbEntity
  8
0-0
  6
JWW_DASHED1
 62
   120
370
     5
100
AcDbLine
 10
80.93114977450846
 20
555.6135823839155
 30
0.0
 11
330.9311497744994
 21
805.6135823839072
 31
0.0
  0
LINE
  5
1FA
330
1F
100
AcDbEntity
  8
0-0
  6
JWW_DASHED1
 62
   120
370
     5
100
AcDbLine
 10
-259.0688502254961
 20
222.6846501957776
 30
0.0
 11
-9.06885022548984
 21
472.6846501957847
 31
0.0
  0
LINE
  5
1FB
330
1F
100
AcDbEntity
  8
0-0
  6
JWW_DASHED1
 62
   120
370
     5
100
AcDbLine
 10
80.93114977451869
 20
562.6846501957924
 30
0.0
 11
330.9311497745096
 21
812.6846501957833
 31
0.0
  0
LINE
  5
1FC
330
1F
100
AcDbEntity
  8
0-0
  6
JWW_DASHED1
 62
   120
370
     5
100
AcDbLine
 10
-259.0688502254961
 20
229.7557180076443
 30
0.0
 11
-9.068850225491545
 21
479.7557180076496
 31
0.0
  0
LINE
  5
1FD
330
1F
100
AcDbEntity
  8
0-0
  6
JWW_DASHED1
 62
   120
370
     5
100
AcDbLine
 10
80.93114977449993
 20
569.7557180076403
 30
0.0
 11
330.9311497745045
 21
819.7557180076453
 31
0.0
  0
LINE
  5
1FE
330
1F
100
AcDbEntity
  8
0-0
  6
JWW_DASHED1
 62
   120
370
     5
100
AcDbLine
 10
-259.068850225508
 20
236.8267858194994
 30
0.0
 11
-9.068850225501777
 21
486.8267858195065
 31
0.0
  0
LINE
  5
1FF
330
1F
100
AcDbEntity
  8
0-0
  6
JWW_DASHED1
 62
   120
370
     5
100
AcDbLine
 10
80.93114977450675
 20
576.8267858195138
 30
0.0
 11
330.9311497744977
 21
826.8267858195055
 31
0.0
  0
LINE
  5
200
330
1F
100
AcDbEntity
  8
0-0
  6
JWW_DASHED1
 62
   120
370
     5
100
AcDbLine
 10
-259.0688502254978
 20
243.8978536313759
 30
0.0
 11
-9.068850225491545
 21
493.897853631383
 31
0.0
  0
LINE
  5
201
330
1F
100
AcDbEntity
  8
0-0
  6
JWW_DASHED1
 62
   120
370
     5
100
AcDbLine
 10
80.93114977451698
 20
583.8978536313907
 30
0.0
 11
330.9311497745079
 21
833.8978536313816
 31
0.0
  0
LINE
  5
202
330
1F
100
AcDbEntity
  8
0-0
  6
JWW_DASHED1
 62
   120
370
     5
100
AcDbLine
 10
-259.0688502254978
 20
250.968921443243
 30
0.0
 11
-9.06885022549325
 21
500.968921443248
 31
0.0
  0
LINE
  5
203
330
1F
100
AcDbEntity
  8
0-0
  6
JWW_DASHED1
 62
   120
370
     5
100
AcDbLine
 10
80.93114977449652
 20
590.9689214432386
 30
0.0
 11
330.9311497745028
 21
840.9689214432432
 31
0.0
  0
LINE
  5
204
330
1F
100
AcDbEntity
  8
0-0
  6
JWW_DASHED1
 62
   120
370
     5
100
AcDbLine
 10
-259.0688502255097
 20
258.0399892550977
 30
0.0
 11
-9.068850225503482
 21
508.0399892551044
 31
0.0
  0
LINE
  5
205
330
1F
100
AcDbEntity
  8
0-0
  6
JWW_DASHED1
 62
   120
370
     5
100
AcDbLine
 10
80.93114977450504
 20
598.0399892551121
 30
0.0
 11
330.931149774496
 21
848.0399892551038
 31
0.0
  0
LINE
  5
206
330
1F
100
AcDbEntity
  8
0-0
  6
JWW_DASHED1
 62
   120
370
     5
100
AcDbLine
 10
-259.0688502255012
 20
265.1110570669742
 30
0.0
 11
-9.06885022549325
 21
515.1110570669813
 31
0.0
  0
LINE
  5
207
330
1F
100
AcDbEntity
  8
0-0
  6
JWW_DASHED1
 62
   120
370
     5
100
AcDbLine
 10
80.93114977451357
 20
605.111057066989
 30
0.0
 11
330.9311497745062
 21
855.1110570669799
 31
0.0
  0
LINE
  5
208
330
1F
100
AcDbEntity
  8
0-0
  6
JWW_DASHED1
 62
   120
370
     5
100
AcDbLine
 10
-259.0688502255012
 20
272.1821248788409
 30
0.0
 11
-9.068850225494955
 21
522.1821248788458
 31
0.0
  0
LINE
  5
209
330
1F
100
AcDbEntity
  8
0-0
  6
JWW_DASHED1
 62
   120
370
     5
100
AcDbLine
 10
80.93114977449481
 20
612.1821248788365
 30
0.0
 11
330.9311497745011
 21
862.1821248788415
 31
0.0
  0
LINE
  5
20A
330
1F
100
AcDbEntity
  8
0-0
  6
JWW_DASHED1
 62
   120
370
     5
100
AcDbLine
 10
-259.0688502255114
 20
279.253192690696
 30
0.0
 11
-9.068850225488134
 21
529.253192690719
 31
0.0
  0
LINE
  5
20B
330
1F
100
AcDbEntity
  8
0-0
  6
JWW_DASHED1
 62
   120
370
     5
100
AcDbLine
 10
80.93114977450334
 20
619.2531926907104
 30
0.0
 11
330.9311497744943
 21
869.2531926907021
 31
0.0
  0
LINE
  5
20C
330
1F
100
AcDbEntity
  8
0-0
  6
JWW_DASHED1
 62
   120
370
     5
100
AcDbLine
 10
-259.0688502255012
 20
286.3242605025725
 30
0.0
 11
-9.068850225494955
 21
536.3242605025796
 31
0.0
  0
LINE
  5
20D
330
1F
100
AcDbEntity
  8
0-0
  6
JWW_DASHED1
 62
   120
370
     5
100
AcDbLine
 10
80.93114977451357
 20
626.3242605025873
 30
0.0
 11
330.9311497745045
 21
876.3242605025782
 31
0.0
  0
LINE
  5
20E
330
1F
100
AcDbEntity
  8
0-0
  6
JWW_DASHED1
 62
   120
370
     5
100
AcDbLine
 10
-259.0688502255012
 20
293.3953283144392
 30
0.0
 11
-9.06885022549666
 21
543.3953283144438
 31
0.0
  0
LINE
  5
20F
330
1F
100
AcDbEntity
  8
0-0
  6
JWW_DASHED1
 62
   120
370
     5
100
AcDbLine
 10
80.93114977449311
 20
633.3953283144348
 30
0.0
 11
330.9311497744977
 21
883.3953283144393
 31
0.0
  0
LINE
  5
210
330
1F
100
AcDbEntity
  8
0-0
  6
JWW_DASHED1
 62
   120
370
     5
100
AcDbLine
 10
-259.068850225508
 20
300.4663961262999
 30
0.0
 11
-9.068850225486429
 21
550.4663961263207
 31
0.0
  0
LINE
  5
211
330
1F
100
AcDbEntity
  8
0-0
  6
JWW_DASHED1
 62
   120
370
     5
100
AcDbLine
 10
-259.0688502255046
 20
307.5374639381708
 30
0.0
 11
-9.06885022549666
 21
557.5374639381779
 31
0.0
  0
LINE
  5
212
330
1F
100
AcDbEntity
  8
0-0
  6
JWW_DASHED1
 62
   120
370
     5
100
AcDbLine
 10
-259.0688502255046
 20
314.6085317500371
 30
0.0
 11
-9.068850225500071
 21
564.6085317500421
 31
0.0
  0
LINE
  5
213
330
1F
100
AcDbEntity
  8
0-0
  6
JWW_DASHED1
 62
   120
370
     5
100
AcDbLine
 10
-259.0688502255097
 20
321.6795995618978
 30
0.0
 11
-9.06885022548984
 21
571.679599561918
 31
0.0
  0
LINE
  5
214
330
1F
100
AcDbEntity
  8
0-0
  6
JWW_DASHED1
 62
   120
370
     5
100
AcDbLine
 10
-259.068850225508
 20
328.7506673737397
 30
0.0
 11
-9.068850225500071
 21
578.7506673737469
 31
0.0
  0
LINE
  5
215
330
1F
100
AcDbEntity
  8
0-0
  6
JWW_DASHED1
 62
   120
370
     5
100
AcDbLine
 10
-259.0688502254995
 20
335.8217351855868
 30
0.0
 11
-9.06885022549325
 21
585.8217351855939
 31
0.0
  0
LINE
  5
216
330
1F
100
AcDbEntity
  8
0-0
  6
JWW_DASHED1
 62
   120
370
     5
100
AcDbLine
 10
-259.0688502255012
 20
342.892802997453
 30
0.0
 11
-9.068850225494955
 21
592.8928029974576
 31
0.0
  0
LINE
  5
217
330
1F
100
AcDbEntity
  8
0-0
  6
JWW_DASHED1
 62
   120
370
     5
100
AcDbLine
 10
-259.0688502255114
 20
349.9638708093086
 30
0.0
 11
-9.068850225488134
 21
599.9638708093319
 31
0.0
  0
LINE
  5
218
330
1F
100
AcDbEntity
  8
0-0
  6
JWW_DASHED1
 62
   120
370
     5
100
AcDbLine
 10
-259.0688502255012
 20
357.0349386211851
 30
0.0
 11
-9.06885022549325
 21
607.0349386211926
 31
0.0
  0
LINE
  5
219
330
1F
100
AcDbEntity
  8
0-0
  6
JWW_DASHED1
 62
   120
370
     5
100
AcDbLine
 10
-259.0688502255029
 20
364.1060064330509
 30
0.0
 11
-9.06885022549666
 21
614.1060064330559
 31
0.0
  0
LINE
  5
21A
330
1F
100
AcDbEntity
  8
0-0
  6
JWW_DASHED1
 62
   120
370
     5
100
AcDbLine
 10
-259.068850225508
 20
371.177074244912
 30
0.0
 11
-9.068850225486429
 21
621.1770742449328
 31
0.0
  0
LINE
  5
21B
330
1F
100
AcDbEntity
  8
0-0
  6
JWW_DASHED1
 62
   120
370
     5
100
AcDbLine
 10
-259.0688502255029
 20
378.2481420567834
 30
0.0
 11
-9.06885022549666
 21
628.2481420567905
 31
0.0
  0
LINE
  5
21C
330
1F
100
AcDbEntity
  8
0-0
  6
JWW_DASHED1
 62
   120
370
     5
100
AcDbLine
 10
-259.0688502255046
 20
385.3192098686492
 30
0.0
 11
-9.068850225500071
 21
635.3192098686542
 31
0.0
  0
LINE
  5
21D
330
1F
100
AcDbEntity
  8
0-0
  6
JWW_DASHED1
 62
   120
370
     5
100
AcDbLine
 10
-259.0688502255097
 20
392.3902776805099
 30
0.0
 11
-9.06885022548984
 21
642.3902776805302
 31
0.0
  0
LINE
  5
21E
330
1F
100
AcDbEntity
  8
0-0
  6
JWW_DASHED1
 62
   120
370
     5
100
AcDbLine
 10
-259.0688502255046
 20
399.4613454923821
 30
0.0
 11
-9.068850225498366
 21
649.4613454923888
 31
0.0
  0
LINE
  5
21F
330
1F
100
AcDbEntity
  8
0-0
  6
JWW_DASHED1
 62
   120
370
     5
100
AcDbLine
 10
-259.0688502254944
 20
406.5324133042586
 30
0.0
 11
-9.068850225488134
 21
656.5324133042652
 31
0.0
  0
LINE
  5
220
330
1F
100
AcDbEntity
  8
0-0
  6
JWW_DASHED1
 62
   120
370
     5
100
AcDbLine
 10
-259.0688502254961
 20
413.6034811161239
 30
0.0
 11
-9.068850225491545
 21
663.6034811161285
 31
0.0
  0
LINE
  5
221
330
1F
100
AcDbEntity
  8
0-0
  6
JWW_DASHED1
 62
   120
370
     5
100
AcDbLine
 10
-259.0688502255063
 20
420.6745489279796
 30
0.0
 11
-9.068850225500071
 21
670.6745489279871
 31
0.0
  0
LINE
  5
222
330
1F
100
AcDbEntity
  8
0-0
  6
JWW_DASHED1
 62
   120
370
     5
100
AcDbLine
 10
-259.0688502254961
 20
427.7456167398569
 30
0.0
 11
-9.06885022548984
 21
677.745616739864
 31
0.0
  0
LINE
  5
223
330
1F
100
AcDbEntity
  8
0-0
  6
JWW_DASHED1
 62
   120
370
     5
100
AcDbLine
 10
-259.0688502254978
 20
434.8166845517218
 30
0.0
 11
-9.06885022549325
 21
684.8166845517268
 31
0.0
  0
LINE
  5
224
330
1F
100
AcDbEntity
  8
0-0
  6
JWW_DASHED1
 62
   120
370
     5
100
AcDbLine
 10
-259.068850225508
 20
441.8877523635783
 30
0.0
 11
-9.068850225501777
 21
691.8877523635858
 31
0.0
  0
LINE
  5
225
330
1F
100
AcDbEntity
  8
0-0
  6
JWW_DASHED1
 62
   120
370
     5
100
AcDbLine
 10
-259.0688502254978
 20
448.9588201754552
 30
0.0
 11
-9.068850225491545
 21
698.9588201754623
 31
0.0
  0
LINE
  5
226
330
1F
100
AcDbEntity
  8
0-0
  6
JWW_DASHED1
 62
   120
370
     5
100
AcDbLine
 10
-259.0688502254995
 20
456.0298879873201
 30
0.0
 11
-9.068850225494955
 21
706.0298879873251
 31
0.0
  0
LINE
  5
227
330
1F
100
AcDbEntity
  8
0-0
  6
JWW_DASHED1
 62
   120
370
     5
100
AcDbLine
 10
-259.0688502255097
 20
463.1009557991766
 30
0.0
 11
-9.068850225486429
 21
713.1009557991995
 31
0.0
  0
LINE
  5
228
330
1F
100
AcDbEntity
  8
0-0
  6
JWW_DASHED1
 62
   120
370
     5
100
AcDbLine
 10
-259.0688502254995
 20
470.1720236110535
 30
0.0
 11
-9.06885022549325
 21
720.1720236110601
 31
0.0
  0
LINE
  5
229
330
1F
100
AcDbEntity
  8
0-0
  6
JWW_DASHED1
 62
   120
370
     5
100
AcDbLine
 10
-259.0688502255012
 20
477.243091422918
 30
0.0
 11
-9.06885022549666
 21
727.2430914229226
 31
0.0
  0
LINE
  5
22A
330
1F
100
AcDbEntity
  8
0-0
  6
JWW_DASHED1
 62
   120
370
     5
100
AcDbLine
 10
-259.0688502255114
 20
484.3141592347749
 30
0.0
 11
-9.068850225488134
 21
734.3141592347978
 31
0.0
  0
LINE
  5
22B
330
1F
100
AcDbEntity
  8
0-0
  6
JWW_DASHED1
 62
   120
370
     5
100
AcDbLine
 10
-259.0688502255012
 20
491.3852270466518
 30
0.0
 11
-9.068850225494955
 21
741.3852270466584
 31
0.0
  0
LINE
  5
22C
330
1F
100
AcDbEntity
  8
0-0
  6
JWW_DASHED1
 62
   120
370
     5
100
AcDbLine
 10
-259.0688502255046
 20
498.4562948585163
 30
0.0
 11
-9.068850225498366
 21
748.4562948585209
 31
0.0
  0
LINE
  5
22D
330
1F
100
AcDbEntity
  8
0-0
  6
JWW_DASHED1
 62
   120
370
     5
100
AcDbLine
 10
-259.0688502255097
 20
505.527362670377
 30
0.0
 11
-9.06885022548984
 21
755.5273626703978
 31
0.0
  0
LINE
  5
22E
330
1F
100
AcDbEntity
  8
0-0
  6
JWW_DASHED1
 62
   120
370
     5
100
AcDbLine
 10
-259.0688502255029
 20
512.59843048225
 30
0.0
 11
-9.06885022549666
 21
762.5984304822572
 31
0.0
  0
LINE
  5
22F
330
1F
100
AcDbEntity
  8
0-0
  6
JWW_DASHED1
 62
   120
370
     5
100
AcDbLine
 10
-259.0688502254944
 20
519.6694982941266
 30
0.0
 11
-9.068850225486429
 21
769.6694982941336
 31
0.0
  0
LINE
  5
230
330
1F
100
AcDbEntity
  8
0-0
  6
JWW_DASHED1
 62
   120
370
     5
100
AcDbLine
 10
-259.0688502255114
 20
526.7405661059753
 30
0.0
 11
-9.068850225491545
 21
776.7405661059956
 31
0.0
  0
LINE
  5
231
330
1F
100
AcDbEntity
  8
0-0
  6
JWW_DASHED1
 62
   120
370
     5
100
AcDbLine
 10
-259.0688502255046
 20
533.811633917848
 30
0.0
 11
-9.068850225498366
 21
783.811633917855
 31
0.0
  0
LINE
  5
232
330
1F
100
AcDbEntity
  8
0-0
  6
JWW_DASHED1
 62
   120
370
     5
100
AcDbLine
 10
-259.0688502254944
 20
540.8827017297249
 30
0.0
 11
-9.068850225488134
 21
790.8827017297319
 31
0.0
  0
LINE
  5
233
330
1F
100
AcDbEntity
  8
0-0
  6
JWW_DASHED1
 62
   120
370
     5
100
AcDbLine
 10
-259.0688502254978
 20
547.9537695415889
 30
0.0
 11
-9.06885022549325
 21
797.9537695415935
 31
0.0
  0
LINE
  5
234
330
1F
100
AcDbEntity
  8
0-0
  6
JWW_DASHED1
 62
   120
370
     5
100
AcDbLine
 10
-259.0688502255063
 20
555.0248373534466
 30
0.0
 11
-9.068850225500071
 21
805.0248373534533
 31
0.0
  0
LINE
  5
235
330
1F
100
AcDbEntity
  8
0-0
  6
JWW_DASHED1
 62
   120
370
     5
100
AcDbLine
 10
-259.0688502254978
 20
562.0959051653232
 30
0.0
 11
-9.06885022548984
 21
812.0959051653302
 31
0.0
  0
LINE
  5
236
330
1F
100
AcDbEntity
  8
0-0
  6
JWW_DASHED1
 62
   120
370
     5
100
AcDbLine
 10
-259.0688502254995
 20
569.1669729771868
 30
0.0
 11
-9.068850225494955
 21
819.1669729771918
 31
0.0
  0
LINE
  5
237
330
1F
100
AcDbEntity
  8
0-0
  6
JWW_DASHED1
 62
   120
370
     5
100
AcDbLine
 10
-259.068850225508
 20
576.238040789045
 30
0.0
 11
-9.068850225501777
 21
826.2380407890516
 31
0.0
  0
LINE
  5
238
330
1F
100
AcDbEntity
  8
0-0
  6
JWW_DASHED1
 62
   120
370
     5
100
AcDbLine
 10
-259.0688502254978
 20
583.3091086009215
 30
0.0
 11
-9.068850225491545
 21
833.3091086009285
 31
0.0
  0
LINE
  5
239
330
1F
100
AcDbEntity
  8
0-0
  6
JWW_DASHED1
 62
   120
370
     5
100
AcDbLine
 10
-259.0688502255012
 20
590.3801764127852
 30
0.0
 11
-9.06885022549666
 21
840.3801764127898
 31
0.0
  0
LINE
  5
23A
330
1F
100
AcDbEntity
  8
0-0
  6
JWW_DASHED1
 62
   120
370
     5
100
AcDbLine
 10
-259.0688502255097
 20
597.4512442246429
 30
0.0
 11
-9.068850225488134
 21
847.4512442246657
 31
0.0
  0
LINE
  5
23B
330
1F
100
AcDbEntity
  8
0-0
  6
JWW_DASHED1
 62
   120
370
     5
100
AcDbLine
 10
-259.0688502255012
 20
604.5223120365198
 30
0.0
 11
-9.06885022549325
 21
854.5223120365268
 31
0.0
  0
LINE
  5
23C
330
1F
100
AcDbEntity
  8
0-0
  6
JWW_DASHED1
 62
   120
370
     5
100
AcDbLine
 10
-259.0688502255029
 20
611.593379848383
 30
0.0
 11
-9.068850225498366
 21
861.5933798483876
 31
0.0
  0
LINE
  5
23D
330
1F
100
AcDbEntity
  8
0-0
  6
JWW_DASHED1
 62
   120
370
     5
100
AcDbLine
 10
-259.0688502255097
 20
618.6644476602442
 30
0.0
 11
-9.068850225488134
 21
868.6644476602645
 31
0.0
  0
LINE
  5
23E
330
1F
100
AcDbEntity
  8
0-0
  6
JWW_DASHED1
 62
   120
370
     5
100
AcDbLine
 10
-259.0688502255012
 20
625.7355154721181
 30
0.0
 11
-9.068850225494955
 21
875.7355154721251
 31
0.0
  0
LINE
  5
23F
330
1F
100
AcDbEntity
  8
0-0
  6
JWW_DASHED1
 62
   120
370
     5
100
AcDbLine
 10
-259.0688502255046
 20
632.8065832839814
 30
0.0
 11
-9.068850225500071
 21
882.8065832839859
 31
0.0
  0
LINE
  5
240
330
1F
100
AcDbEntity
  8
0-0
  6
Continuous
 62
    92
370
    13
100
AcDbLine
 10
-259.0688502254995
 20
888.5166026603075
 30
0.0
 11
330.9311497745011
 21
888.5166026603075
 31
0.0
  0
LINE
  5
241
330
1F
100
AcDbEntity
  8
0-0
  6
Continuous
 62
    92
370
    13
100
AcDbLine
 10
-9.068850225498366
 20
888.5166026603075
 30
0.0
 11
-9.068850225498366
 21
-809.4833973396926
 31
0.0
  0
LINE
  5
242
330
1F
100
AcDbEntity
  8
0-0
  6
Continuous
 62
    92
370
    13
100
AcDbLine
 10
80.93114977450163
 20
888.5166026603075
 30
0.0
 11
80.93114977450163
 21
-809.4833973396926
 31
0.0
  0
LINE
  5
243
330
1F
100
AcDbEntity
  8
0-0
  6
JWW_DASHED1
 62
   120
370
     5
100
AcDbLine
 10
80.93114977450334
 20
640.4663961263112
 30
0.0
 11
328.9813563084987
 21
888.5166026603075
 31
0.0
  0
LINE
  5
244
330
1F
100
AcDbEntity
  8
0-0
  6
JWW_DASHED1
 62
   120
370
     5
100
AcDbLine
 10
80.93114977451016
 20
647.5374639381856
 30
0.0
 11
321.9102884966338
 21
888.5166026603075
 31
0.0
  0
LINE
  5
245
330
1F
100
AcDbEntity
  8
0-0
  6
JWW_DASHED1
 62
   120
370
     5
100
AcDbLine
 10
80.93114977450675
 20
654.6085317500489
 30
0.0
 11
314.8392206847671
 21
888.5166026603075
 31
0.0
  0
LINE
  5
246
330
1F
100
AcDbEntity
  8
0-0
  6
JWW_DASHED1
 62
   120
370
     5
100
AcDbLine
 10
80.93114977450163
 20
661.6795995619095
 30
0.0
 11
307.7681528728987
 21
888.5166026603075
 31
0.0
  0
LINE
  5
247
330
1F
100
AcDbEntity
  8
0-0
  6
JWW_DASHED1
 62
   120
370
     5
100
AcDbLine
 10
80.93114977450675
 20
668.750667373754
 30
0.0
 11
300.697085061061
 21
888.5166026603075
 31
0.0
  0
LINE
  5
248
330
1F
100
AcDbEntity
  8
0-0
  6
JWW_DASHED1
 62
   120
370
     5
100
AcDbLine
 10
80.93114977451528
 20
675.8217351856015
 30
0.0
 11
293.6260172492217
 21
888.5166026603075
 31
0.0
  0
LINE
  5
249
330
1F
100
AcDbEntity
  8
0-0
  6
JWW_DASHED1
 62
   120
370
     5
100
AcDbLine
 10
80.93114977449481
 20
682.8928029974486
 30
0.0
 11
286.554949437355
 21
888.5166026603075
 31
0.0
  0
LINE
  5
24A
330
1F
100
AcDbEntity
  8
0-0
  6
JWW_DASHED1
 62
   120
370
     5
100
AcDbLine
 10
80.93114977450334
 20
689.963870809323
 30
0.0
 11
279.4838816254866
 21
888.5166026603075
 31
0.0
  0
LINE
  5
24B
330
1F
100
AcDbEntity
  8
0-0
  6
JWW_DASHED1
 62
   120
370
     5
100
AcDbLine
 10
80.93114977451357
 20
697.0349386211994
 30
0.0
 11
272.4128138136217
 21
888.5166026603075
 31
0.0
  0
LINE
  5
24C
330
1F
100
AcDbEntity
  8
0-0
  6
JWW_DASHED1
 62
   120
370
     5
100
AcDbLine
 10
80.93114977449311
 20
704.1060064330464
 30
0.0
 11
265.341746001755
 21
888.5166026603075
 31
0.0
  0
LINE
  5
24D
330
1F
100
AcDbEntity
  8
0-0
  6
JWW_DASHED1
 62
   120
370
     5
100
AcDbLine
 10
80.93114977450334
 20
711.1770742449233
 30
0.0
 11
258.2706781898866
 21
888.5166026603075
 31
0.0
  0
LINE
  5
24E
330
1F
100
AcDbEntity
  8
0-0
  6
JWW_DASHED1
 62
   120
370
     5
100
AcDbLine
 10
80.93114977451187
 20
718.2481420567977
 30
0.0
 11
251.1996103780216
 21
888.5166026603075
 31
0.0
  0
LINE
  5
24F
330
1F
100
AcDbEntity
  8
0-0
  6
JWW_DASHED1
 62
   120
370
     5
100
AcDbLine
 10
80.93114977450675
 20
725.3192098686606
 30
0.0
 11
244.128542566155
 21
888.5166026603075
 31
0.0
  0
LINE
  5
250
330
1F
100
AcDbEntity
  8
0-0
  6
JWW_DASHED1
 62
   120
370
     5
100
AcDbLine
 10
80.93114977450163
 20
732.3902776805216
 30
0.0
 11
237.0574747542883
 21
888.5166026603075
 31
0.0
  0
LINE
  5
251
330
1F
100
AcDbEntity
  8
0-0
  6
JWW_DASHED1
 62
   120
370
     5
100
AcDbLine
 10
80.93114977451016
 20
739.461345492396
 30
0.0
 11
229.9864069424216
 21
888.5166026603075
 31
0.0
  0
LINE
  5
252
330
1F
100
AcDbEntity
  8
0-0
  6
JWW_DASHED1
 62
   120
370
     5
100
AcDbLine
 10
80.93114977452039
 20
746.532413304273
 30
0.0
 11
222.9153391305533
 21
888.5166026603075
 31
0.0
  0
LINE
  5
253
330
1F
100
AcDbEntity
  8
0-0
  6
JWW_DASHED1
 62
   120
370
     5
100
AcDbLine
 10
80.93114977449993
 20
753.6034811161192
 30
0.0
 11
215.8442713186883
 21
888.5166026603075
 31
0.0
  0
LINE
  5
254
330
1F
100
AcDbEntity
  8
0-0
  6
JWW_DASHED1
 62
   120
370
     5
100
AcDbLine
 10
80.93114977450846
 20
760.6745489279947
 30
0.0
 11
208.7732035068216
 21
888.5166026603075
 31
0.0
  0
LINE
  5
255
330
1F
100
AcDbEntity
  8
0-0
  6
JWW_DASHED1
 62
   120
370
     5
100
AcDbLine
 10
80.93114977451869
 20
767.7456167398713
 30
0.0
 11
201.702135694955
 21
888.5166026603075
 31
0.0
  0
LINE
  5
256
330
1F
100
AcDbEntity
  8
0-0
  6
JWW_DASHED1
 62
   120
370
     5
100
AcDbLine
 10
80.93114977449822
 20
774.8166845517175
 30
0.0
 11
194.6310678830866
 21
888.5166026603075
 31
0.0
  0
LINE
  5
257
330
1F
100
AcDbEntity
  8
0-0
  6
JWW_DASHED1
 62
   120
370
     5
100
AcDbLine
 10
80.93114977450675
 20
781.8877523635927
 30
0.0
 11
187.5600000712216
 21
888.5166026603075
 31
0.0
  0
LINE
  5
258
330
1F
100
AcDbEntity
  8
0-0
  6
JWW_DASHED1
 62
   120
370
     5
100
AcDbLine
 10
80.93114977451698
 20
788.9588201754696
 30
0.0
 11
180.488932259355
 21
888.5166026603075
 31
0.0
  0
LINE
  5
259
330
1F
100
AcDbEntity
  8
0-0
  6
JWW_DASHED1
 62
   120
370
     5
100
AcDbLine
 10
80.93114977449652
 20
796.0298879873158
 30
0.0
 11
173.4178644474883
 21
888.5166026603075
 31
0.0
  0
LINE
  5
25A
330
1F
100
AcDbEntity
  8
0-0
  6
JWW_DASHED1
 62
   120
370
     5
100
AcDbLine
 10
80.93114977450504
 20
803.100955799191
 30
0.0
 11
166.3467966356216
 21
888.5166026603075
 31
0.0
  0
LINE
  5
25B
330
1F
100
AcDbEntity
  8
0-0
  6
JWW_DASHED1
 62
   120
370
     5
100
AcDbLine
 10
80.93114977451528
 20
810.1720236110679
 30
0.0
 11
159.2757288237549
 21
888.5166026603075
 31
0.0
  0
LINE
  5
25C
330
1F
100
AcDbEntity
  8
0-0
  6
JWW_DASHED1
 62
   120
370
     5
100
AcDbLine
 10
80.93114977449311
 20
817.2430914229141
 30
0.0
 11
152.2046610118883
 21
888.5166026603075
 31
0.0
  0
LINE
  5
25D
330
1F
100
AcDbEntity
  8
0-0
  6
JWW_DASHED1
 62
   120
370
     5
100
AcDbLine
 10
80.93114977450334
 20
824.3141592347897
 30
0.0
 11
145.1335932000216
 21
888.5166026603075
 31
0.0
  0
LINE
  5
25E
330
1F
100
AcDbEntity
  8
0-0
  6
JWW_DASHED1
 62
   120
370
     5
100
AcDbLine
 10
80.93114977451357
 20
831.3852270466662
 30
0.0
 11
138.0625253881549
 21
888.5166026603075
 31
0.0
  0
LINE
  5
25F
330
1F
100
AcDbEntity
  8
0-0
  6
JWW_DASHED1
 62
   120
370
     5
100
AcDbLine
 10
80.9311497744914
 20
838.4562948585115
 30
0.0
 11
130.9914575762883
 21
888.5166026603075
 31
0.0
  0
LINE
  5
260
330
1F
100
AcDbEntity
  8
0-0
  6
JWW_DASHED1
 62
   120
370
     5
100
AcDbLine
 10
80.93114977450163
 20
845.5273626703884
 30
0.0
 11
123.9203897644216
 21
888.5166026603075
 31
0.0
  0
LINE
  5
261
330
1F
100
AcDbEntity
  8
0-0
  6
JWW_DASHED1
 62
   120
370
     5
100
AcDbLine
 10
80.93114977451187
 20
852.5984304822645
 30
0.0
 11
116.8493219525549
 21
888.5166026603075
 31
0.0
  0
LINE
  5
262
330
1F
100
AcDbEntity
  8
0-0
  6
JWW_DASHED1
 62
   120
370
     5
100
AcDbLine
 10
80.93114977452039
 20
859.6694982941409
 30
0.0
 11
109.7782541406882
 21
888.5166026603075
 31
0.0
  0
LINE
  5
263
330
1F
100
AcDbEntity
  8
0-0
  6
JWW_DASHED1
 62
   120
370
     5
100
AcDbLine
 10
80.93114977449993
 20
866.7405661059863
 30
0.0
 11
102.7071863288216
 21
888.5166026603075
 31
0.0
  0
LINE
  5
264
330
1F
100
AcDbEntity
  8
0-0
  6
JWW_DASHED1
 62
   120
370
     5
100
AcDbLine
 10
80.93114977451016
 20
873.8116339178628
 30
0.0
 11
95.63611851695491
 21
888.5166026603075
 31
0.0
  0
LINE
  5
265
330
1F
100
AcDbEntity
  8
0-0
  6
JWW_DASHED1
 62
   120
370
     5
100
AcDbLine
 10
80.93114977451869
 20
880.8827017297392
 30
0.0
 11
88.56505070508824
 21
888.5166026603075
 31
0.0
  0
LINE
  5
266
330
1F
100
AcDbEntity
  8
0-0
  6
JWW_DASHED1
 62
   120
370
     5
100
AcDbLine
 10
-259.0688502255114
 20
639.877651095842
 30
0.0
 11
-10.42989866104683
 21
888.5166026603075
 31
0.0
  0
LINE
  5
267
330
1F
100
AcDbEntity
  8
0-0
  6
JWW_DASHED1
 62
   120
370
     5
100
AcDbLine
 10
-259.0688502255046
 20
646.9487189077164
 30
0.0
 11
-17.5009664729135
 21
888.5166026603075
 31
0.0
  0
LINE
  5
268
330
1F
100
AcDbEntity
  8
0-0
  6
JWW_DASHED1
 62
   120
370
     5
100
AcDbLine
 10
-259.0688502254944
 20
654.0197867195933
 30
0.0
 11
-24.57203428478017
 21
888.5166026603075
 31
0.0
  0
LINE
  5
269
330
1F
100
AcDbEntity
  8
0-0
  6
JWW_DASHED1
 62
   120
370
     5
100
AcDbLine
 10
-259.0688502254978
 20
661.0908545314561
 30
0.0
 11
-31.64310209664684
 21
888.5166026603075
 31
0.0
  0
LINE
  5
26A
330
1F
100
AcDbEntity
  8
0-0
  6
JWW_DASHED1
 62
   120
370
     5
100
AcDbLine
 10
-259.0688502255046
 20
668.1619223433147
 30
0.0
 11
-38.71416990851351
 21
888.5166026603075
 31
0.0
  0
LINE
  5
26B
330
1F
100
AcDbEntity
  8
0-0
  6
JWW_DASHED1
 62
   120
370
     5
100
AcDbLine
 10
-259.0688502254961
 20
675.2329901551911
 30
0.0
 11
-45.78523772037848
 21
888.5166026603075
 31
0.0
  0
LINE
  5
26C
330
1F
100
AcDbEntity
  8
0-0
  6
JWW_DASHED1
 62
   120
370
     5
100
AcDbLine
 10
-259.0688502254995
 20
682.304057967054
 30
0.0
 11
-52.85630553224514
 21
888.5166026603075
 31
0.0
  0
LINE
  5
26D
330
1F
100
AcDbEntity
  8
0-0
  6
JWW_DASHED1
 62
   120
370
     5
100
AcDbLine
 10
-259.068850225508
 20
689.375125778913
 30
0.0
 11
-59.92737334411181
 21
888.5166026603075
 31
0.0
  0
LINE
  5
26E
330
1F
100
AcDbEntity
  8
0-0
  6
JWW_DASHED1
 62
   120
370
     5
100
AcDbLine
 10
-259.0688502254978
 20
696.4461935907894
 30
0.0
 11
-66.99844115597848
 21
888.5166026603075
 31
0.0
  0
LINE
  5
26F
330
1F
100
AcDbEntity
  8
0-0
  6
JWW_DASHED1
 62
   120
370
     5
100
AcDbLine
 10
-259.0688502255012
 20
703.5172614026523
 30
0.0
 11
-74.06950896784515
 21
888.5166026603075
 31
0.0
  0
LINE
  5
270
330
1F
100
AcDbEntity
  8
0-0
  6
JWW_DASHED1
 62
   120
370
     5
100
AcDbLine
 10
-259.068850225508
 20
710.5883292145113
 30
0.0
 11
-81.14057677971182
 21
888.5166026603075
 31
0.0
  0
LINE
  5
271
330
1F
100
AcDbEntity
  8
0-0
  6
JWW_DASHED1
 62
   120
370
     5
100
AcDbLine
 10
-259.0688502255012
 20
717.6593970263583
 30
0.0
 11
-88.2116445915512
 21
888.5166026603075
 31
0.0
  0
LINE
  5
272
330
1F
100
AcDbEntity
  8
0-0
  6
JWW_DASHED1
 62
   120
370
     5
100
AcDbLine
 10
-259.0688502254927
 20
724.7304648382054
 30
0.0
 11
-95.2827124033923
 21
888.5166026603075
 31
0.0
  0
LINE
  5
273
330
1F
100
AcDbEntity
  8
0-0
  6
JWW_DASHED1
 62
   120
370
     5
100
AcDbLine
 10
-259.0688502255131
 20
731.801532650052
 30
0.0
 11
-102.3537802152573
 21
888.5166026603075
 31
0.0
  0
LINE
  5
274
330
1F
100
AcDbEntity
  8
0-0
  6
JWW_DASHED1
 62
   120
370
     5
100
AcDbLine
 10
-259.0688502255046
 20
738.8726004619273
 30
0.0
 11
-109.4248480271239
 21
888.5166026603075
 31
0.0
  0
LINE
  5
275
330
1F
100
AcDbEntity
  8
0-0
  6
JWW_DASHED1
 62
   120
370
     5
100
AcDbLine
 10
-259.0688502254944
 20
745.9436682738037
 30
0.0
 11
-116.4959158389906
 21
888.5166026603075
 31
0.0
  0
LINE
  5
276
330
1F
100
AcDbEntity
  8
0-0
  6
JWW_DASHED1
 62
   120
370
     5
100
AcDbLine
 10
-259.0688502254995
 20
753.0147360856661
 30
0.0
 11
-123.5669836508573
 21
888.5166026603075
 31
0.0
  0
LINE
  5
277
330
1F
100
AcDbEntity
  8
0-0
  6
JWW_DASHED1
 62
   120
370
     5
100
AcDbLine
 10
-259.0688502255063
 20
760.0858038975255
 30
0.0
 11
-130.6380514627239
 21
888.5166026603075
 31
0.0
  0
LINE
  5
278
330
1F
100
AcDbEntity
  8
0-0
  6
JWW_DASHED1
 62
   120
370
     5
100
AcDbLine
 10
-259.0688502254961
 20
767.156871709402
 30
0.0
 11
-137.7091192745906
 21
888.5166026603075
 31
0.0
  0
LINE
  5
279
330
1F
100
AcDbEntity
  8
0-0
  6
JWW_DASHED1
 62
   120
370
     5
100
AcDbLine
 10
-259.0688502255012
 20
774.2279395212644
 30
0.0
 11
-144.7801870864573
 21
888.5166026603075
 31
0.0
  0
LINE
  5
27A
330
1F
100
AcDbEntity
  8
0-0
  6
JWW_DASHED1
 62
   120
370
     5
100
AcDbLine
 10
-259.068850225508
 20
781.2990073331234
 30
0.0
 11
-151.8512548983256
 21
888.5166026603075
 31
0.0
  0
LINE
  5
27B
330
1F
100
AcDbEntity
  8
0-0
  6
JWW_DASHED1
 62
   120
370
     5
100
AcDbLine
 10
-259.0688502254978
 20
788.3700751450003
 30
0.0
 11
-158.9223227101906
 21
888.5166026603075
 31
0.0
  0
LINE
  5
27C
330
1F
100
AcDbEntity
  8
0-0
  6
JWW_DASHED1
 62
   120
370
     5
100
AcDbLine
 10
-259.0688502255029
 20
795.4411429568622
 30
0.0
 11
-165.9933905220573
 21
888.5166026603075
 31
0.0
  0
LINE
  5
27D
330
1F
100
AcDbEntity
  8
0-0
  6
JWW_DASHED1
 62
   120
370
     5
100
AcDbLine
 10
-259.0688502255097
 20
802.5122107687221
 30
0.0
 11
-173.0644583339239
 21
888.5166026603075
 31
0.0
  0
LINE
  5
27E
330
1F
100
AcDbEntity
  8
0-0
  6
JWW_DASHED1
 62
   120
370
     5
100
AcDbLine
 10
-259.0688502254995
 20
809.5832785805986
 30
0.0
 11
-180.1355261457923
 21
888.5166026603075
 31
0.0
  0
LINE
  5
27F
330
1F
100
AcDbEntity
  8
0-0
  6
JWW_DASHED1
 62
   120
370
     5
100
AcDbLine
 10
-259.0688502255046
 20
816.6543463924606
 30
0.0
 11
-187.2065939576573
 21
888.5166026603075
 31
0.0
  0
LINE
  5
280
330
1F
100
AcDbEntity
  8
0-0
  6
JWW_DASHED1
 62
   120
370
     5
100
AcDbLine
 10
-259.0688502255114
 20
823.7254142043208
 30
0.0
 11
-194.2776617695239
 21
888.5166026603075
 31
0.0
  0
LINE
  5
281
330
1F
100
AcDbEntity
  8
0-0
  6
JWW_DASHED1
 62
   120
370
     5
100
AcDbLine
 10
-259.0688502255012
 20
830.7964820161969
 30
0.0
 11
-201.3487295813906
 21
888.5166026603075
 31
0.0
  0
LINE
  5
282
330
1F
100
AcDbEntity
  8
0-0
  6
JWW_DASHED1
 62
   120
370
     5
100
AcDbLine
 10
-259.068850225491
 20
837.8675498280738
 30
0.0
 11
-208.4197973932573
 21
888.5166026603075
 31
0.0
  0
LINE
  5
283
330
1F
100
AcDbEntity
  8
0-0
  6
JWW_DASHED1
 62
   120
370
     5
100
AcDbLine
 10
-259.0688502255131
 20
844.9386176399191
 30
0.0
 11
-215.490865205124
 21
888.5166026603075
 31
0.0
  0
LINE
  5
284
330
1F
100
AcDbEntity
  8
0-0
  6
JWW_DASHED1
 62
   120
370
     5
100
AcDbLine
 10
-259.0688502255046
 20
852.0096854517952
 30
0.0
 11
-222.5619330169906
 21
888.5166026603075
 31
0.0
  0
LINE
  5
285
330
1F
100
AcDbEntity
  8
0-0
  6
JWW_DASHED1
 62
   120
370
     5
100
AcDbLine
 10
-259.0688502254927
 20
859.0807532636721
 30
0.0
 11
-229.633000828859
 21
888.5166026603075
 31
0.0
  0
LINE
  5
286
330
1F
100
AcDbEntity
  8
0-0
  6
JWW_DASHED1
 62
   120
370
     5
100
AcDbLine
 10
-259.0688502254995
 20
866.1518210755328
 30
0.0
 11
-236.704068640724
 21
888.5166026603075
 31
0.0
  0
LINE
  5
287
330
1F
100
AcDbEntity
  8
0-0
  6
JWW_DASHED1
 62
   120
370
     5
100
AcDbLine
 10
-259.0688502255046
 20
873.2228888873935
 30
0.0
 11
-243.7751364525923
 21
888.5166026603075
 31
0.0
  0
LINE
  5
288
330
1F
100
AcDbEntity
  8
0-0
  6
JWW_DASHED1
 62
   120
370
     5
100
AcDbLine
 10
-259.0688502254944
 20
880.2939566992704
 30
0.0
 11
-250.846204264459
 21
888.5166026603075
 31
0.0
  0
LINE
  5
289
330
1F
100
AcDbEntity
  8
0-0
  6
JWW_DASHED1
 62
   120
370
     5
100
AcDbLine
 10
-259.0688502255012
 20
887.3650245111311
 30
0.0
 11
-257.9172720763257
 21
888.5166026603075
 31
0.0
  0
LINE
  5
28A
330
1F
100
AcDbEntity
  8
0-0
  6
JWW_DASHED1
 62
   120
370
     5
100
AcDbLine
 10
80.93114977449822
 20
887.9537695415845
 30
0.0
 11
81.49398289322157
 21
888.5166026603075
 31
0.0
  0
LINE
  5
28B
330
1F
100
AcDbEntity
  8
0-0
  6
Continuous
 62
    92
370
    13
100
AcDbLine
 10
330.9311497745011
 20
-959.4833973396926
 30
0.0
 11
330.9311497745011
 21
1023.516602660308
 31
0.0
  0
LINE
  5
28C
330
1F
100
AcDbEntity
  8
0-0
  6
Continuous
 62
    92
370
    13
100
AcDbLine
 10
-259.0688502254995
 20
-959.4833973396926
 30
0.0
 11
-259.0688502254995
 21
1023.516602660308
 31
0.0
  0
LINE
  5
28D
330
1F
100
AcDbEntity
  8
寸法
  6
Continuous
 62
   120
370
     5
100
AcDbLine
 10
-1626.068850225499
 20
1067.516602660308
 30
0.0
 11
-1626.068850225499
 21
-979.4833973396929
 31
0.0
  0
LWPOLYLINE
  5
28E
330
1F
100
AcDbEntity
  8
寸法
  6
Continuous
 62
     7
370
     9
100
AcDbPolyline
 90
        4
 70
     1
 43
3.0
 10
-1624.5688502255
 20
1067.516602660308
 42
0.4142135623731
 10
-1626.068850225499
 20
1069.016602660307
 42
0.4142135623731
 10
-1627.568850225499
 20
1067.516602660308
 42
0.4142135623731
 10
-1626.068850225499
 20
1066.016602660308
 42
0.4142135623731
  0
LWPOLYLINE
  5
28F
330
1F
100
AcDbEntity
  8
寸法
  6
Continuous
 62
     7
370
     9
100
AcDbPolyline
 90
        4
 70
     1
 43
3.0
 10
-1624.5688502255
 20
-979.4833973396929
 42
0.4142135623731
 10
-1626.068850225499
 20
-977.983397339693
 42
0.4142135623731
 10
-1627.568850225499
 20
-979.4833973396929
 42
0.4142135623731
 10
-1626.068850225499
 20
-980.9833973396928
 42
0.4142135623731
  0
LWPOLYLINE
  5
290
330
1F
100
AcDbEntity
  8
寸法
  6
Continuous
 62
     7
370
     9
100
AcDbPolyline
 90
        4
 70
     1
 43
3.0
 10
-1424.568850225501
 20
-959.4833973396924
 42
0.4142135623731
 10
-1426.0688502255
 20
-957.9833973396924
 42
0.4142135623731
 10
-1427.5688502255
 20
-959.4833973396924
 42
0.4142135623731
 10
-1426.0688502255
 20
-960.9833973396923
 42
0.4142135623731
  0
LINE
  5
291
330
1F
100
AcDbEntity
  8
寸法
  6
Continuous
 62
   120
370
     5
100
AcDbLine
 10
-1426.0688502255
 20
1023.516602660307
 30
0.0
 11
-1426.0688502255
 21
-959.4833973396924
 31
0.0
  0
LWPOLYLINE
  5
292
330
1F
100
AcDbEntity
  8
寸法
  6
Continuous
 62
     7
370
     9
100
AcDbPolyline
 90
        4
 70
     1
 43
3.0
 10
-1424.568850225501
 20
1023.516602660307
 42
0.4142135623731
 10
-1426.0688502255
 20
1025.016602660306
 42
0.4142135623731
 10
-1427.5688502255
 20
1023.516602660307
 42
0.4142135623731
 10
-1426.0688502255
 20
1022.016602660307
 42
0.4142135623731
  0
LINE
  5
293
330
1F
100
AcDbEntity
  8
寸法
  6
Continuous
 62
   120
370
     5
100
AcDbLine
 10
-1626.068850225499
 20
1067.516602660308
 30
0.0
 11
-1226.0688502255
 21
1067.516602660308
 31
0.0
  0
LINE
  5
294
330
1F
100
AcDbEntity
  8
寸法
  6
Continuous
 62
   120
370
     5
100
AcDbLine
 10
-1626.068850225499
 20
-979.4833973396929
 30
0.0
 11
-1226.0688502255
 21
-979.4833973396929
 31
0.0
  0
LINE
  5
295
330
1F
100
AcDbEntity
  8
寸法
  6
Continuous
 62
   120
370
     5
100
AcDbLine
 10
-1426.0688502255
 20
-959.4833973396924
 30
0.0
 11
-1226.0688502255
 21
-959.4833973396924
 31
0.0
  0
LINE
  5
296
330
1F
100
AcDbEntity
  8
寸法
  6
Continuous
 62
   120
370
     5
100
AcDbLine
 10
-1426.0688502255
 20
1023.516602660307
 30
0.0
 11
-1226.0688502255
 21
1023.516602660307
 31
0.0
  0
LINE
  5
297
330
1F
100
AcDbEntity
  8
寸法
  6
Continuous
 62
   120
370
     5
100
AcDbLine
 10
437.9311497745018
 20
-1429.483397339693
 30
0.0
 11
437.9311497745018
 21
-1029.483397339693
 31
0.0
  0
LINE
  5
298
330
1F
100
AcDbEntity
  8
寸法
  6
Continuous
 62
   120
370
     5
100
AcDbLine
 10
467.9311497745018
 20
-1629.483397339693
 30
0.0
 11
467.9311497745018
 21
-1029.483397339693
 31
0.0
  0
LINE
  5
299
330
1F
100
AcDbEntity
  8
寸法
  6
Continuous
 62
   120
370
     5
100
AcDbLine
 10
437.9311497745018
 20
-1429.483397339693
 30
0.0
 11
-1146.068850225499
 21
-1429.483397339693
 31
0.0
  0
LINE
  5
29A
330
1F
100
AcDbEntity
  8
寸法
  6
Continuous
 62
   120
370
     5
100
AcDbLine
 10
-1146.068850225499
 20
-1429.483397339693
 30
0.0
 11
-1146.068850225499
 21
-1029.483397339693
 31
0.0
  0
LINE
  5
29B
330
1F
100
AcDbEntity
  8
寸法
  6
Continuous
 62
   120
370
     5
100
AcDbLine
 10
467.9311497745018
 20
-1629.483397339693
 30
0.0
 11
-1176.068850225499
 21
-1629.483397339693
 31
0.0
  0
LINE
  5
29C
330
1F
100
AcDbEntity
  8
寸法
  6
Continuous
 62
   120
370
     5
100
AcDbLine
 10
-1176.068850225499
 20
-1629.483397339693
 30
0.0
 11
-1176.068850225499
 21
-1029.483397339693
 31
0.0
  0
LINE
  5
29D
330
1F
100
AcDbEntity
  8
寸法
  6
Continuous
 62
   120
370
     5
100
AcDbLine
 10
-369.0688502254984
 20
-1229.483397339693
 30
0.0
 11
-369.0688502254984
 21
-1029.483397339693
 31
0.0
  0
LINE
  5
29E
330
1F
100
AcDbEntity
  8
寸法
  6
Continuous
 62
   120
370
     5
100
AcDbLine
 10
440.9311497745016
 20
-1229.483397339693
 30
0.0
 11
440.9311497745016
 21
-1029.483397339693
 31
0.0
  0
LINE
  5
29F
330
1F
100
AcDbEntity
  8
寸法
  6
Continuous
 62
   120
370
     5
100
AcDbLine
 10
440.9311497745016
 20
-1229.483397339693
 30
0.0
 11
-369.0688502254984
 21
-1229.483397339693
 31
0.0
  0
LWPOLYLINE
  5
2A0
330
1F
100
AcDbEntity
  8
寸法
  6
Continuous
 62
     7
370
     9
100
AcDbPolyline
 90
        4
 70
     1
 43
3.0
 10
439.4311497745018
 20
-1429.483397339693
 42
0.4142135623731
 10
437.9311497745018
 20
-1427.983397339693
 42
0.4142135623731
 10
436.4311497745018
 20
-1429.483397339693
 42
0.4142135623731
 10
437.9311497745018
 20
-1430.983397339693
 42
0.4142135623731
  0
LWPOLYLINE
  5
2A1
330
1F
100
AcDbEntity
  8
寸法
  6
Continuous
 62
     7
370
     9
100
AcDbPolyline
 90
        4
 70
     1
 43
3.0
 10
469.4311497745018
 20
-1629.483397339693
 42
0.4142135623731
 10
467.9311497745018
 20
-1627.983397339693
 42
0.4142135623731
 10
466.4311497745018
 20
-1629.483397339693
 42
0.4142135623731
 10
467.9311497745018
 20
-1630.983397339693
 42
0.4142135623731
  0
LWPOLYLINE
  5
2A2
330
1F
100
AcDbEntity
  8
寸法
  6
Continuous
 62
     7
370
     9
100
AcDbPolyline
 90
        4
 70
     1
 43
3.0
 10
-1144.5688502255
 20
-1429.483397339693
 42
0.4142135623731
 10
-1146.068850225499
 20
-1427.983397339693
 42
0.4142135623731
 10
-1147.568850225499
 20
-1429.483397339693
 42
0.4142135623731
 10
-1146.068850225499
 20
-1430.983397339693
 42
0.4142135623731
  0
LWPOLYLINE
  5
2A3
330
1F
100
AcDbEntity
  8
寸法
  6
Continuous
 62
     7
370
     9
100
AcDbPolyline
 90
        4
 70
     1
 43
3.0
 10
-1174.5688502255
 20
-1629.483397339693
 42
0.4142135623731
 10
-1176.068850225499
 20
-1627.983397339693
 42
0.4142135623731
 10
-1177.568850225499
 20
-1629.483397339693
 42
0.4142135623731
 10
-1176.068850225499
 20
-1630.983397339693
 42
0.4142135623731
  0
LWPOLYLINE
  5
2A4
330
1F
100
AcDbEntity
  8
寸法
  6
Continuous
 62
     7
370
     9
100
AcDbPolyline
 90
        4
 70
     1
 43
3.0
 10
-367.5688502254984
 20
-1229.483397339693
 42
0.4142135623731
 10
-369.0688502254984
 20
-1227.983397339693
 42
0.4142135623731
 10
-370.5688502254984
 20
-1229.483397339693
 42
0.4142135623731
 10
-369.0688502254984
 20
-1230.983397339693
 42
0.4142135623731
  0
LWPOLYLINE
  5
2A5
330
1F
100
AcDbEntity
  8
寸法
  6
Continuous
 62
     7
370
     9
100
AcDbPolyline
 90
        4
 70
     1
 43
3.0
 10
442.4311497745016
 20
-1229.483397339693
 42
0.4142135623731
 10
440.9311497745016
 20
-1227.983397339693
 42
0.4142135623731
 10
439.4311497745016
 20
-1229.483397339693
 42
0.4142135623731
 10
440.9311497745016
 20
-1230.983397339693
 42
0.4142135623731
  0
MTEXT
  5
2A6
330
1F
100
AcDbEntity
  8
寸法
  6
Continuous
 62
     7
370
    70
100
AcDbMText
 10
-1641.068850225499
 20
-171.1583973396927
 30
0.0
 40
57.14999999999999
 41
412.5
 46
0.0
 71
     7
 72
     1
  1
{\fＭＳ ゴシック|b0|i0|c128|p49;枠外＝2,047}
 11
6.123031769111886E-17
 21
1.0
 31
0.0
 73
     1
 44
1.0
  0
MTEXT
  5
2A7
330
1F
100
AcDbEntity
  8
寸法
  6
Continuous
 62
     7
370
    70
100
AcDbMText
 10
-1441.0688502255
 20
-177.1583973396924
 30
0.0
 40
57.14999999999999
 41
412.5
 46
0.0
 71
     7
 72
     1
  1
{\fＭＳ ゴシック|b0|i0|c128|p49;ＤＨ＝1,983}
 11
6.123031769111886E-17
 21
1.0
 31
0.0
 73
     1
 44
1.0
  0
MTEXT
  5
2A8
330
1F
100
AcDbEntity
  8
寸法
  6
Continuous
 62
     7
370
   211
100
AcDbMText
 10
-132.8188502254984
 20
-1223.408397339693
 30
0.0
 40
57.15
 41
337.5
 46
0.0
 71
     7
 72
     1
  1
{\fＭＳ ゴシック|b0|i0|c128|p49;ＤＷ＝810}
 73
     1
 44
1.0
  0
MTEXT
  5
2A9
330
1F
100
AcDbEntity
  8
寸法
  6
Continuous
 62
     7
370
   211
100
AcDbMText
 10
-560.3188502255001
 20
-1423.408397339693
 30
0.0
 40
57.14999999999999
 41
412.5
 46
0.0
 71
     7
 72
     1
  1
{\fＭＳ ゴシック|b0|i0|c128|p49;枠内＝1,584}
 73
     1
 44
1.0
  0
MTEXT
  5
2AA
330
1F
100
AcDbEntity
  8
寸法
  6
Continuous
 62
     7
370
   211
100
AcDbMText
 10
-560.3188502255001
 20
-1623.408397339693
 30
0.0
 40
57.14999999999999
 41
412.5
 46
0.0
 71
     7
 72
     1
  1
{\fＭＳ ゴシック|b0|i0|c128|p49;枠外＝1,644}
 73
     1
 44
1.0
  0
ENDSEC
  0
SECTION
  2
OBJECTS
  0
DICTIONARY
  5
C
330
0
100
AcDbDictionary
281
     1
  3
ACAD_GROUP
350
D
  3
ACAD_LAYOUT
350
1A
  3
ACAD_MATERIAL
350
3B
  3
ACAD_MLEADERSTYLE
350
2AC
  3
ACAD_MLINESTYLE
350
17
  3
ACAD_PLOTSETTINGS
350
19
  3
ACAD_PLOTSTYLENAME
350
E
  3
ACAD_TABLESTYLE
350
2AB
  3
ACAD_VISUALSTYLE
350
2A
  0
DICTIONARY
  5
D
102
{ACAD_REACTORS
330
C
102
}
330
C
100
AcDbDictionary
281
     1
  0
DICTIONARY
  5
1A
102
{ACAD_REACTORS
330
C
102
}
330
C
100
AcDbDictionary
281
     1
  3
Layout1
350
1E
  3
Layout2
350
26
  3
Model
350
22
  0
DICTIONARY
  5
3B
102
{ACAD_REACTORS
330
C
102
}
330
C
100
AcDbDictionary
281
     1
  3
ByBlock
350
3D
  3
ByLayer
350
3C
  3
Global
350
3E
  0
DICTIONARY
  5
2AC
102
{ACAD_REACTORS
330
C
102
}
330
C
100
AcDbDictionary
281
     1
  0
DICTIONARY
  5
17
102
{ACAD_REACTORS
330
C
102
}
330
C
100
AcDbDictionary
281
     1
  3
Standard
350
18
  0
DICTIONARY
  5
19
102
{ACAD_REACTORS
330
C
102
}
330
C
100
AcDbDictionary
281
     1
  0
ACDBDICTIONARYWDFLT
  5
E
102
{ACAD_REACTORS
330
C
102
}
330
C
100
AcDbDictionary
281
     1
  3
Normal
350
F
100
AcDbDictionaryWithDefault
340
F
  0
DICTIONARY
  5
2AB
102
{ACAD_REACTORS
330
C
102
}
330
C
100
AcDbDictionary
281
     1
  0
DICTIONARY
  5
2A
102
{ACAD_REACTORS
330
C
102
}
330
C
100
AcDbDictionary
281
     1
  3
2dWireframe
350
2F
  3
3D Hidden
350
31
  3
3dWireframe
350
30
  3
Basic
350
32
  3
Brighten
350
36
  3
ColorChange
350
3A
  3
Conceptual
350
34
  3
Dim
350
35
  3
Facepattern
350
39
  3
Flat
350
2B
  3
FlatWithEdges
350
2C
  3
Gouraud
350
2D
  3
GouraudWithEdges
350
2E
  3
Linepattern
350
38
  3
Realistic
350
33
  3
Thicken
350
37
  0
LAYOUT
  5
1E
102
{ACAD_REACTORS
330
1A
102
}
330
1A
100
AcDbPlotSettings
  1

  2
none_device
  4

  6

 40
0.0
 41
0.0
 42
0.0
 43
0.0
 44
0.0
 45
0.0
 46
0.0
 47
0.0
 48
0.0
 49
0.0
140
0.0
141
0.0
142
1.0
143
1.0
 70
   688
 72
     0
 73
     0
 74
     5
  7

 75
    16
 76
     0
 77
     5
 78
   300
147
1.0
148
0.0
149
0.0
100
AcDbLayout
  1
Layout1
 70
     1
 71
     1
 10
0.0
 20
0.0
 11
420.0
 21
297.0
 12
0.0
 22
0.0
 32
0.0
 14
1.000000000000000E+20
 24
1.000000000000000E+20
 34
1.000000000000000E+20
 15
-1.000000000000000E+20
 25
-1.000000000000000E+20
 35
-1.000000000000000E+20
146
0.0
 13
0.0
 23
0.0
 33
0.0
 16
1.0
 26
0.0
 36
0.0
 17
0.0
 27
1.0
 37
0.0
 76
     0
330
1B
  0
LAYOUT
  5
26
102
{ACAD_REACTORS
330
1A
102
}
330
1A
100
AcDbPlotSettings
  1

  2
none_device
  4

  6

 40
0.0
 41
0.0
 42
0.0
 43
0.0
 44
0.0
 45
0.0
 46
0.0
 47
0.0
 48
0.0
 49
0.0
140
0.0
141
0.0
142
1.0
143
1.0
 70
   688
 72
     0
 73
     0
 74
     5
  7

 75
    16
 76
     0
 77
     5
 78
   300
147
1.0
148
0.0
149
0.0
100
AcDbLayout
  1
Layout2
 70
     1
 71
     2
 10
0.0
 20
0.0
 11
0.0
 21
0.0
 12
0.0
 22
0.0
 32
0.0
 14
0.0
 24
0.0
 34
0.0
 15
0.0
 25
0.0
 35
0.0
146
0.0
 13
0.0
 23
0.0
 33
0.0
 16
1.0
 26
0.0
 36
0.0
 17
0.0
 27
1.0
 37
0.0
 76
     0
330
23
  0
LAYOUT
  5
22
102
{ACAD_REACTORS
330
1A
102
}
330
1A
100
AcDbPlotSettings
  1

  2
none_device
  4

  6

 40
0.0
 41
0.0
 42
0.0
 43
0.0
 44
0.0
 45
0.0
 46
0.0
 47
0.0
 48
0.0
 49
0.0
140
0.0
141
0.0
142
1.0
143
1.0
 70
  1712
 72
     0
 73
     0
 74
     0
  7

 75
     0
 76
     0
 77
     5
 78
   300
147
1.0
148
0.0
149
0.0
100
AcDbLayout
  1
Model
 70
     1
 71
     0
 10
-4455.0
 20
-3150.0
 11
4455.0
 21
3150.0
 12
0.0
 22
0.0
 32
0.0
 14
-4455.0
 24
-3150.0
 34
0.0
 15
4455.0
 25
3150.0
 35
0.0
146
0.0
 13
0.0
 23
0.0
 33
0.0
 16
1.0
 26
0.0
 36
0.0
 17
0.0
 27
1.0
 37
0.0
 76
     0
330
1F
331
29
  0
MATERIAL
  5
3D
102
{ACAD_REACTORS
330
3B
102
}
330
3B
100
AcDbMaterial
  1
ByBlock
 72
     1
 94
      127
  0
MATERIAL
  5
3C
102
{ACAD_REACTORS
330
3B
102
}
330
3B
100
AcDbMaterial
  1
ByLayer
 72
     1
 94
      127
  0
MATERIAL
  5
3E
102
{ACAD_REACTORS
330
3B
102
}
330
3B
100
AcDbMaterial
  1
Global
 72
     1
 94
      127
  0
MLINESTYLE
  5
18
102
{ACAD_REACTORS
330
17
102
}
330
17
100
AcDbMlineStyle
  2
Standard
 70
     0
  3

 62
   256
 51
90.0
 52
90.0
 71
     2
 49
0.5
 62
   256
  6
BYLAYER
 49
-0.5
 62
   256
  6
BYLAYER
  0
ACDBPLACEHOLDER
  5
F
102
{ACAD_REACTORS
330
E
102
}
330
E
  0
VISUALSTYLE
  5
2F
102
{ACAD_REACTORS
330
2A
102
}
330
2A
100
AcDbVisualStyle
  2
2dWireframe
 70
     4
177
     2
291
     0
 71
     0
176
     1
 72
     2
176
     1
 73
     0
176
     1
 90
        0
176
     1
 40
-0.6
176
     1
 41
-30.0
176
     1
 62
     5
 63
     7
421
 16777215
176
     1
 74
     1
176
     1
 91
        4
176
     1
 64
     7
176
     1
 65
   257
176
     1
 75
     1
176
     1
175
     1
176
     1
 42
1.0
176
     1
 92
        0
176
     1
 66
   257
176
     1
 43
1.0
176
     1
 76
     1
176
     1
 77
     6
176
     1
 78
     2
176
     1
 67
     7
176
     1
 79
     5
176
     1
170
     0
176
     1
171
     0
176
     1
290
     0
176
     1
 93
        1
176
     1
 44
0.0
176
     1
173
     0
176
     1
  0
VISUALSTYLE
  5
31
102
{ACAD_REACTORS
330
2A
102
}
330
2A
100
AcDbVisualStyle
  2
3D Hidden
 70
     6
177
     2
291
     0
 71
     1
176
     1
 72
     2
176
     1
 73
     2
176
     1
 90
        0
176
     1
 40
-0.6
176
     1
 41
-30.0
176
     1
 62
     5
 63
     7
421
 16777215
176
     1
 74
     2
176
     1
 91
        2
176
     1
 64
     7
176
     1
 65
   257
176
     1
 75
     2
176
     1
175
     1
176
     1
 42
40.0
176
     1
 92
        0
176
     1
 66
   257
176
     1
 43
1.0
176
     1
 76
     1
176
     1
 77
     6
176
     1
 78
     2
176
     1
 67
     7
176
     1
 79
     3
176
     1
170
     0
176
     1
171
     0
176
     1
290
     0
176
     1
 93
        1
176
     1
 44
0.0
176
     1
173
     0
176
     1
  0
VISUALSTYLE
  5
30
102
{ACAD_REACTORS
330
2A
102
}
330
2A
100
AcDbVisualStyle
  2
3dWireframe
 70
     5
177
     2
291
     0
 71
     0
176
     1
 72
     2
176
     1
 73
     0
176
     1
 90
        0
176
     1
 40
-0.6
176
     1
 41
-30.0
176
     1
 62
     5
 63
     7
421
 16777215
176
     1
 74
     1
176
     1
 91
        4
176
     1
 64
     7
176
     1
 65
   257
176
     1
 75
     1
176
     1
175
     1
176
     1
 42
1.0
176
     1
 92
        0
176
     1
 66
   257
176
     1
 43
1.0
176
     1
 76
     1
176
     1
 77
     6
176
     1
 78
     2
176
     1
 67
     7
176
     1
 79
     5
176
     1
170
     0
176
     1
171
     0
176
     1
290
     0
176
     1
 93
        1
176
     1
 44
0.0
176
     1
173
     0
176
     1
  0
VISUALSTYLE
  5
32
102
{ACAD_REACTORS
330
2A
102
}
330
2A
100
AcDbVisualStyle
  2
Basic
 70
     7
177
     2
291
     1
 71
     1
176
     1
 72
     0
176
     1
 73
     1
176
     1
 90
        0
176
     1
 40
-0.6
176
     1
 41
-30.0
176
     1
 62
     5
 63
     7
421
 16777215
176
     1
 74
     0
176
     1
 91
        4
176
     1
 64
     7
176
     1
 65
   257
176
     1
 75
     1
176
     1
175
     1
176
     1
 42
1.0
176
     1
 92
        8
176
     1
 66
     7
176
     1
 43
1.0
176
     1
 76
     1
176
     1
 77
     6
176
     1
 78
     2
176
     1
 67
     7
176
     1
 79
     5
176
     1
170
     0
176
     1
171
     0
176
     1
290
     0
176
     1
 93
        1
176
     1
 44
0.0
176
     1
173
     0
176
     1
  0
VISUALSTYLE
  5
36
102
{ACAD_REACTORS
330
2A
102
}
330
2A
100
AcDbVisualStyle
  2
Brighten
 70
    12
177
     2
291
     1
 71
     2
176
     1
 72
     2
176
     1
 73
     0
176
     1
 90
        0
176
     1
 40
-0.6
176
     1
 41
-30.0
176
     1
 62
     5
 63
     7
421
 16777215
176
     1
 74
     1
176
     1
 91
        4
176
     1
 64
     7
176
     1
 65
   257
176
     1
 75
     1
176
     1
175
     1
176
     1
 42
1.0
176
     1
 92
        8
176
     1
 66
     7
176
     1
 43
1.0
176
     1
 76
     1
176
     1
 77
     6
176
     1
 78
     2
176
     1
 67
     7
176
     1
 79
     5
176
     1
170
     0
176
     1
171
     0
176
     1
290
     0
176
     1
 93
        1
176
     1
 44
50.0
176
     1
173
     0
176
     1
  0
VISUALSTYLE
  5
3A
102
{ACAD_REACTORS
330
2A
102
}
330
2A
100
AcDbVisualStyle
  2
ColorChange
 70
    16
177
     2
291
     1
 71
     2
176
     1
 72
     2
176
     1
 73
     3
176
     1
 90
        0
176
     1
 40
-0.6
176
     1
 41
-30.0
176
     1
 62
     5
 63
     8
421
  8421504
176
     1
 74
     1
176
     1
 91
        4
176
     1
 64
     7
176
     1
 65
   257
176
     1
 75
     1
176
     1
175
     1
176
     1
 42
1.0
176
     1
 92
        8
176
     1
 66
     8
424
  8421504
176
     1
 43
1.0
176
     1
 76
     1
176
     1
 77
     6
176
     1
 78
     2
176
     1
 67
     7
176
     1
 79
     5
176
     1
170
     0
176
     1
171
     0
176
     1
290
     0
176
     1
 93
        1
176
     1
 44
0.0
176
     1
173
     0
176
     1
  0
VISUALSTYLE
  5
34
102
{ACAD_REACTORS
330
2A
102
}
330
2A
100
AcDbVisualStyle
  2
Conceptual
 70
     9
177
     2
291
     0
 71
     3
176
     1
 72
     2
176
     1
 73
     0
176
     1
 90
        0
176
     1
 40
-0.6
176
     1
 41
-30.0
176
     1
 62
     5
 63
     7
421
 16777215
176
     1
 74
     2
176
     1
 91
        2
176
     1
 64
     7
176
     1
 65
   257
176
     1
 75
     1
176
     1
175
     1
176
     1
 42
40.0
176
     1
 92
        8
176
     1
 66
     7
176
     1
 43
1.0
176
     1
 76
     1
176
     1
 77
     6
176
     1
 78
     2
176
     1
 67
     7
176
     1
 79
     3
176
     1
170
     0
176
     1
171
     0
176
     1
290
     0
176
     1
 93
        1
176
     1
 44
0.0
176
     1
173
     0
176
     1
  0
VISUALSTYLE
  5
35
102
{ACAD_REACTORS
330
2A
102
}
330
2A
100
AcDbVisualStyle
  2
Dim
 70
    11
177
     2
291
     1
 71
     2
176
     1
 72
     2
176
     1
 73
     0
176
     1
 90
        0
176
     1
 40
-0.6
176
     1
 41
-30.0
176
     1
 62
     5
 63
     7
421
 16777215
176
     1
 74
     1
176
     1
 91
        4
176
     1
 64
     7
176
     1
 65
   257
176
     1
 75
     1
176
     1
175
     1
176
     1
 42
1.0
176
     1
 92
        8
176
     1
 66
     7
176
     1
 43
1.0
176
     1
 76
     1
176
     1
 77
     6
176
     1
 78
     2
176
     1
 67
     7
176
     1
 79
     5
176
     1
170
     0
176
     1
171
     0
176
     1
290
     0
176
     1
 93
        1
176
     1
 44
-50.0
176
     1
173
     0
176
     1
  0
VISUALSTYLE
  5
39
102
{ACAD_REACTORS
330
2A
102
}
330
2A
100
AcDbVisualStyle
  2
Facepattern
 70
    15
177
     2
291
     1
 71
     2
176
     1
 72
     2
176
     1
 73
     0
176
     1
 90
        0
176
     1
 40
-0.6
176
     1
 41
-30.0
176
     1
 62
     5
 63
     7
421
 16777215
176
     1
 74
     1
176
     1
 91
        4
176
     1
 64
     7
176
     1
 65
   257
176
     1
 75
     1
176
     1
175
     1
176
     1
 42
1.0
176
     1
 92
        8
176
     1
 66
     7
176
     1
 43
1.0
176
     1
 76
     1
176
     1
 77
     6
176
     1
 78
     2
176
     1
 67
     7
176
     1
 79
     5
176
     1
170
     0
176
     1
171
     0
176
     1
290
     0
176
     1
 93
        1
176
     1
 44
0.0
176
     1
173
     0
176
     1
  0
VISUALSTYLE
  5
2B
102
{ACAD_REACTORS
330
2A
102
}
330
2A
100
AcDbVisualStyle
  2
Flat
 70
     0
177
     2
291
     1
 71
     2
176
     1
 72
     1
176
     1
 73
     1
176
     1
 90
        2
176
     1
 40
-0.6
176
     1
 41
30.0
176
     1
 62
     5
 63
     7
421
 16777215
176
     1
 74
     0
176
     1
 91
        4
176
     1
 64
     7
176
     1
 65
   257
176
     1
 75
     1
176
     1
175
     1
176
     1
 42
1.0
176
     1
 92
        8
176
     1
 66
     7
176
     1
 43
1.0
176
     1
 76
     1
176
     1
 77
     6
176
     1
 78
     2
176
     1
 67
     7
176
     1
 79
     5
176
     1
170
     0
176
     1
171
     0
176
     1
290
     0
176
     1
 93
       13
176
     1
 44
0.0
176
     1
173
     0
176
     1
  0
VISUALSTYLE
  5
2C
102
{ACAD_REACTORS
330
2A
102
}
330
2A
100
AcDbVisualStyle
  2
FlatWithEdges
 70
     1
177
     2
291
     1
 71
     2
176
     1
 72
     1
176
     1
 73
     1
176
     1
 90
        2
176
     1
 40
-0.6
176
     1
 41
30.0
176
     1
 62
     5
 63
     7
421
 16777215
176
     1
 74
     1
176
     1
 91
        4
176
     1
 64
     7
176
     1
 65
   257
176
     1
 75
     1
176
     1
175
     1
176
     1
 42
1.0
176
     1
 92
        0
176
     1
 66
   257
176
     1
 43
1.0
176
     1
 76
     1
176
     1
 77
     6
176
     1
 78
     2
176
     1
 67
     7
176
     1
 79
     5
176
     1
170
     0
176
     1
171
     0
176
     1
290
     0
176
     1
 93
       13
176
     1
 44
0.0
176
     1
173
     0
176
     1
  0
VISUALSTYLE
  5
2D
102
{ACAD_REACTORS
330
2A
102
}
330
2A
100
AcDbVisualStyle
  2
Gouraud
 70
     2
177
     2
291
     1
 71
     2
176
     1
 72
     2
176
     1
 73
     1
176
     1
 90
        2
176
     1
 40
-0.6
176
     1
 41
30.0
176
     1
 62
     5
 63
     7
421
 16777215
176
     1
 74
     0
176
     1
 91
        4
176
     1
 64
     7
176
     1
 65
   257
176
     1
 75
     1
176
     1
175
     1
176
     1
 42
1.0
176
     1
 92
        0
176
     1
 66
     7
176
     1
 43
1.0
176
     1
 76
     1
176
     1
 77
     6
176
     1
 78
     2
176
     1
 67
     7
176
     1
 79
     5
176
     1
170
     0
176
     1
171
     0
176
     1
290
     0
176
     1
 93
       13
176
     1
 44
0.0
176
     1
173
     0
176
     1
  0
VISUALSTYLE
  5
2E
102
{ACAD_REACTORS
330
2A
102
}
330
2A
100
AcDbVisualStyle
  2
GouraudWithEdges
 70
     3
177
     2
291
     1
 71
     2
176
     1
 72
     2
176
     1
 73
     1
176
     1
 90
        2
176
     1
 40
-0.6
176
     1
 41
30.0
176
     1
 62
     5
 63
     7
421
 16777215
176
     1
 74
     1
176
     1
 91
        4
176
     1
 64
     7
176
     1
 65
   257
176
     1
 75
     1
176
     1
175
     1
176
     1
 42
1.0
176
     1
 92
        0
176
     1
 66
   257
176
     1
 43
1.0
176
     1
 76
     1
176
     1
 77
     6
176
     1
 78
     2
176
     1
 67
     7
176
     1
 79
     5
176
     1
170
     0
176
     1
171
     0
176
     1
290
     0
176
     1
 93
       13
176
     1
 44
0.0
176
     1
173
     0
176
     1
  0
VISUALSTYLE
  5
38
102
{ACAD_REACTORS
330
2A
102
}
330
2A
100
AcDbVisualStyle
  2
Linepattern
 70
    14
177
     2
291
     1
 71
     2
176
     1
 72
     2
176
     1
 73
     0
176
     1
 90
        0
176
     1
 40
-0.6
176
     1
 41
-30.0
176
     1
 62
     5
 63
     7
421
 16777215
176
     1
 74
     1
176
     1
 91
        4
176
     1
 64
     7
176
     1
 65
   257
176
     1
 75
     7
176
     1
175
     7
176
     1
 42
1.0
176
     1
 92
        8
176
     1
 66
     7
176
     1
 43
1.0
176
     1
 76
     1
176
     1
 77
     6
176
     1
 78
     2
176
     1
 67
     7
176
     1
 79
     5
176
     1
170
     0
176
     1
171
     0
176
     1
290
     0
176
     1
 93
        1
176
     1
 44
0.0
176
     1
173
     0
176
     1
  0
VISUALSTYLE
  5
33
102
{ACAD_REACTORS
330
2A
102
}
330
2A
100
AcDbVisualStyle
  2
Realistic
 70
     8
177
     2
291
     0
 71
     2
176
     1
 72
     2
176
     1
 73
     0
176
     1
 90
        0
176
     1
 40
-0.6
176
     1
 41
-30.0
176
     1
 62
     5
 63
     7
421
 16777215
176
     1
 74
     1
176
     1
 91
        0
176
     1
 64
     7
176
     1
 65
   257
176
     1
 75
     1
176
     1
175
     1
176
     1
 42
1.0
176
     1
 92
        8
176
     1
 66
     8
424
  7895160
176
     1
 43
1.0
176
     1
 76
     1
176
     1
 77
     6
176
     1
 78
     2
176
     1
 67
     7
176
     1
 79
     5
176
     1
170
     0
176
     1
171
     0
176
     1
290
     0
176
     1
 93
       13
176
     1
 44
0.0
176
     1
173
     0
176
     1
  0
VISUALSTYLE
  5
37
102
{ACAD_REACTORS
330
2A
102
}
330
2A
100
AcDbVisualStyle
  2
Thicken
 70
    13
177
     2
291
     1
 71
     2
176
     1
 72
     2
176
     1
 73
     0
176
     1
 90
        0
176
     1
 40
-0.6
176
     1
 41
-30.0
176
     1
 62
     5
 63
     7
421
 16777215
176
     1
 74
     1
176
     1
 91
        4
176
     1
 64
     7
176
     1
 65
   257
176
     1
 75
     1
176
     1
175
     1
176
     1
 42
1.0
176
     1
 92
       12
176
     1
 66
     7
176
     1
 43
1.0
176
     1
 76
     1
176
     1
 77
     6
176
     1
 78
     2
176
     1
 67
     7
176
     1
 79
     5
176
     1
170
     0
176
     1
171
     0
176
     1
290
     0
176
     1
 93
        1
176
     1
 44
0.0
176
     1
173
     0
176
     1
  0
ENDSEC
  0
EOF
