  0
SECTION
  2
HEADER
  9
$ACADVER
  1
AC1024
  9
$ACADMAINTVER
 70
     6
  9
$DWGCODEPAGE
  3
ANSI_932
  9
$INSBASE
 10
0.0
 20
0.0
 30
0.0
  9
$EXTMIN
 10
-4455.0
 20
-3150.0
 30
0.0
  9
$EXTMAX
 10
4455.0
 20
3150.0
 30
0.0
  9
$LIMMIN
 10
-4455.0
 20
-3150.0
  9
$LIMMAX
 10
4455.0
 20
3150.0
  9
$ORTHOMODE
 70
     0
  9
$REGENMODE
 70
     1
  9
$FILLMODE
 70
     1
  9
$QTEXTMODE
 70
     0
  9
$MIRRTEXT
 70
     1
  9
$LTSCALE
 40
30.0
  9
$ATTMODE
 70
     1
  9
$TEXTSIZE
 40
2.5
  9
$TRACEWID
 40
1.0
  9
$TEXTSTYLE
  7
Standard
  9
$CLAYER
  8
0
  9
$CELTYPE
  6
ByLayer
  9
$CECOLOR
 62
   256
  9
$CELTSCALE
 40
1.0
  9
$DISPSILH
 70
     0
  9
$DIMSCALE
 40
1.0
  9
$DIMASZ
 40
2.5
  9
$DIMEXO
 40
0.625
  9
$DIMDLI
 40
3.75
  9
$DIMRND
 40
0.0
  9
$DIMDLE
 40
0.0
  9
$DIMEXE
 40
1.25
  9
$DIMTP
 40
0.0
  9
$DIMTM
 40
0.0
  9
$DIMTXT
 40
2.5
  9
$DIMCEN
 40
2.5
  9
$DIMTSZ
 40
0.0
  9
$DIMTOL
 70
     0
  9
$DIMLIM
 70
     0
  9
$DIMTIH
 70
     0
  9
$DIMTOH
 70
     0
  9
$DIMSE1
 70
     0
  9
$DIMSE2
 70
     0
  9
$DIMTAD
 70
     1
  9
$DIMZIN
 70
     8
  9
$DIMBLK
  1

  9
$DIMASO
 70
     1
  9
$DIMSHO
 70
     1
  9
$DIMPOST
  1

  9
$DIMAPOST
  1

  9
$DIMALT
 70
     0
  9
$DIMALTD
 70
     3
  9
$DIMALTF
 40
0.03937007874016
  9
$DIMLFAC
 40
1.0
  9
$DIMTOFL
 70
     1
  9
$DIMTVP
 40
0.0
  9
$DIMTIX
 70
     0
  9
$DIMSOXD
 70
     0
  9
$DIMSAH
 70
     0
  9
$DIMBLK1
  1

  9
$DIMBLK2
  1

  9
$DIMSTYLE
  2
ISO-25
  9
$DIMCLRD
 70
     0
  9
$DIMCLRE
 70
     0
  9
$DIMCLRT
 70
     0
  9
$DIMTFAC
 40
1.0
  9
$DIMGAP
 40
0.625
  9
$DIMJUST
 70
     0
  9
$DIMSD1
 70
     0
  9
$DIMSD2
 70
     0
  9
$DIMTOLJ
 70
     0
  9
$DIMTZIN
 70
     8
  9
$DIMALTZ
 70
     0
  9
$DIMALTTZ
 70
     0
  9
$DIMUPT
 70
     0
  9
$DIMDEC
 70
     2
  9
$DIMTDEC
 70
     2
  9
$DIMALTU
 70
     2
  9
$DIMALTTD
 70
     3
  9
$DIMTXSTY
  7
Standard
  9
$DIMAUNIT
 70
     0
  9
$DIMADEC
 70
     0
  9
$DIMALTRND
 40
0.0
  9
$DIMAZIN
 70
     0
  9
$DIMDSEP
 70
    44
  9
$DIMATFIT
 70
     3
  9
$DIMFRAC
 70
     0
  9
$DIMLDRBLK
  1

  9
$DIMLUNIT
 70
     2
  9
$DIMLWD
 70
    -2
  9
$DIMLWE
 70
    -2
  9
$DIMTMOVE
 70
     0
  9
$DIMFXL
 40
1.0
  9
$DIMFXLON
 70
     0
  9
$DIMJOGANG
 40
0.7853981633974483
  9
$DIMTFILL
 70
     0
  9
$DIMTFILLCLR
 70
     0
  9
$DIMARCSYM
 70
     0
  9
$DIMLTYPE
  6

  9
$DIMLTEX1
  6

  9
$DIMLTEX2
  6

  9
$DIMTXTDIRECTION
 70
     0
  9
$LUNITS
 70
     2
  9
$LUPREC
 70
     4
  9
$SKETCHINC
 40
1.0
  9
$FILLETRAD
 40
10.0
  9
$AUNITS
 70
     0
  9
$AUPREC
 70
     0
  9
$MENU
  1
.
  9
$ELEVATION
 40
0.0
  9
$PELEVATION
 40
0.0
  9
$THICKNESS
 40
0.0
  9
$LIMCHECK
 70
     0
  9
$CHAMFERA
 40
10.0
  9
$CHAMFERB
 40
10.0
  9
$CHAMFERC
 40
20.0
  9
$CHAMFERD
 40
0.0
  9
$SKPOLY
 70
     0
  9
$TDCREATE
 40
2457996.734354711
  9
$TDUCREATE
 40
2457996.359354711
  9
$TDUPDATE
 40
2457996.734354722
  9
$TDUUPDATE
 40
2457996.359354722
  9
$TDINDWG
 40
0.0000000116
  9
$TDUSRTIMER
 40
0.0000000116
  9
$USRTIMER
 70
     1
  9
$ANGBASE
 50
0.0
  9
$ANGDIR
 70
     0
  9
$PDMODE
 70
     0
  9
$PDSIZE
 40
0.0
  9
$PLINEWID
 40
0.0
  9
$SPLFRAME
 70
     0
  9
$SPLINETYPE
 70
     6
  9
$SPLINESEGS
 70
     8
  9
$HANDSEED
  5
4EA
  9
$SURFTAB1
 70
     6
  9
$SURFTAB2
 70
     6
  9
$SURFTYPE
 70
     6
  9
$SURFU
 70
     6
  9
$SURFV
 70
     6
  9
$UCSBASE
  2

  9
$UCSNAME
  2

  9
$UCSORG
 10
0.0
 20
0.0
 30
0.0
  9
$UCSXDIR
 10
1.0
 20
0.0
 30
0.0
  9
$UCSYDIR
 10
0.0
 20
1.0
 30
0.0
  9
$UCSORTHOREF
  2

  9
$UCSORTHOVIEW
 70
     0
  9
$UCSORGTOP
 10
0.0
 20
0.0
 30
0.0
  9
$UCSORGBOTTOM
 10
0.0
 20
0.0
 30
0.0
  9
$UCSORGLEFT
 10
0.0
 20
0.0
 30
0.0
  9
$UCSORGRIGHT
 10
0.0
 20
0.0
 30
0.0
  9
$UCSORGFRONT
 10
0.0
 20
0.0
 30
0.0
  9
$UCSORGBACK
 10
0.0
 20
0.0
 30
0.0
  9
$PUCSBASE
  2

  9
$PUCSNAME
  2

  9
$PUCSORG
 10
0.0
 20
0.0
 30
0.0
  9
$PUCSXDIR
 10
1.0
 20
0.0
 30
0.0
  9
$PUCSYDIR
 10
0.0
 20
1.0
 30
0.0
  9
$PUCSORTHOREF
  2

  9
$PUCSORTHOVIEW
 70
     0
  9
$PUCSORGTOP
 10
0.0
 20
0.0
 30
0.0
  9
$PUCSORGBOTTOM
 10
0.0
 20
0.0
 30
0.0
  9
$PUCSORGLEFT
 10
0.0
 20
0.0
 30
0.0
  9
$PUCSORGRIGHT
 10
0.0
 20
0.0
 30
0.0
  9
$PUCSORGFRONT
 10
0.0
 20
0.0
 30
0.0
  9
$PUCSORGBACK
 10
0.0
 20
0.0
 30
0.0
  9
$USERI1
 70
     0
  9
$USERI2
 70
     0
  9
$USERI3
 70
     0
  9
$USERI4
 70
     0
  9
$USERI5
 70
     0
  9
$USERR1
 40
0.0
  9
$USERR2
 40
0.0
  9
$USERR3
 40
0.0
  9
$USERR4
 40
0.0
  9
$USERR5
 40
0.0
  9
$WORLDVIEW
 70
     1
  9
$SHADEDGE
 70
     3
  9
$SHADEDIF
 70
    70
  9
$TILEMODE
 70
     1
  9
$MAXACTVP
 70
    64
  9
$PINSBASE
 10
0.0
 20
0.0
 30
0.0
  9
$PLIMCHECK
 70
     0
  9
$PEXTMIN
 10
1.000000000000000E+20
 20
1.000000000000000E+20
 30
1.000000000000000E+20
  9
$PEXTMAX
 10
-1.000000000000000E+20
 20
-1.000000000000000E+20
 30
-1.000000000000000E+20
  9
$PLIMMIN
 10
0.0
 20
0.0
  9
$PLIMMAX
 10
420.0
 20
297.0
  9
$UNITMODE
 70
     0
  9
$VISRETAIN
 70
     1
  9
$PLINEGEN
 70
     0
  9
$PSLTSCALE
 70
     1
  9
$TREEDEPTH
 70
  3020
  9
$CMLSTYLE
  2
Standard
  9
$CMLJUST
 70
     0
  9
$CMLSCALE
 40
20.0
  9
$PROXYGRAPHICS
 70
     1
  9
$MEASUREMENT
 70
     1
  9
$CELWEIGHT
370
    -1
  9
$ENDCAPS
280
     0
  9
$JOINSTYLE
280
     0
  9
$LWDISPLAY
290
     0
  9
$INSUNITS
 70
     4
  9
$HYPERLINKBASE
  1

  9
$STYLESHEET
  1

  9
$XEDIT
290
     1
  9
$CEPSNTYPE
380
     0
  9
$PSTYLEMODE
290
     1
  9
$FINGERPRINTGUID
  2
{D82C3A80-C174-4830-844B-5C447E20D7C3}
  9
$VERSIONGUID
  2
{FAEB1C32-E019-11D5-929B-00C0DF256EC4}
  9
$EXTNAMES
290
     1
  9
$PSVPSCALE
 40
0.0
  9
$OLESTARTUP
290
     0
  9
$SORTENTS
280
   127
  9
$INDEXCTL
280
     0
  9
$HIDETEXT
280
     1
  9
$XCLIPFRAME
280
     2
  9
$HALOGAP
280
     0
  9
$OBSCOLOR
 70
   257
  9
$OBSLTYPE
280
     0
  9
$INTERSECTIONDISPLAY
280
     0
  9
$INTERSECTIONCOLOR
 70
   257
  9
$DIMASSOC
280
     2
  9
$PROJECTNAME
  1

  9
$CAMERADISPLAY
290
     0
  9
$LENSLENGTH
 40
50.0
  9
$CAMERAHEIGHT
 40
0.0
  9
$STEPSPERSEC
 40
2.0
  9
$STEPSIZE
 40
6.0
  9
$3DDWFPREC
 40
2.0
  9
$PSOLWIDTH
 40
5.0
  9
$PSOLHEIGHT
 40
80.0
  9
$LOFTANG1
 40
1.570796326794897
  9
$LOFTANG2
 40
1.570796326794897
  9
$LOFTMAG1
 40
0.0
  9
$LOFTMAG2
 40
0.0
  9
$LOFTPARAM
 70
     7
  9
$LOFTNORMALS
280
     1
  9
$LATITUDE
 40
37.795
  9
$LONGITUDE
 40
-122.394
  9
$NORTHDIRECTION
 40
0.0
  9
$TIMEZONE
 70
 -8000
  9
$LIGHTGLYPHDISPLAY
280
     1
  9
$TILEMODELIGHTSYNCH
280
     1
  9
$SOLIDHIST
280
     1
  9
$SHOWHIST
280
     1
  9
$DWFFRAME
280
     2
  9
$DGNFRAME
280
     2
  9
$REALWORLDSCALE
290
     1
  9
$INTERFERECOLOR
 62
   256
  9
$CSHADOW
280
     0
  9
$SHADOWPLANELOCATION
 40
0.0
  0
ENDSEC
  0
SECTION
  2
CLASSES
  0
CLASS
  1
ACDBDICTIONARYWDFLT
  2
AcDbDictionaryWithDefault
  3
ObjectDBX Classes
 90
        0
 91
        4
280
     0
281
     0
  0
CLASS
  1
VISUALSTYLE
  2
AcDbVisualStyle
  3
ObjectDBX Classes
 90
     4095
 91
        4
280
     0
281
     0
  0
CLASS
  1
MATERIAL
  2
AcDbMaterial
  3
ObjectDBX Classes
 90
     1153
 91
        4
280
     0
281
     0
  0
ENDSEC
  0
SECTION
  2
TABLES
  0
TABLE
  2
VPORT
  5
8
330
0
100
AcDbSymbolTable
 70
     1
  0
VPORT
  5
29
330
8
100
AcDbSymbolTableRecord
100
AcDbViewportTableRecord
  2
*Active
 70
     0
 10
0.0
 20
0.0
 11
1.0
 21
1.0
 12
0.0
 22
0.0
 13
0.0
 23
0.0
 14
10.0
 24
10.0
 15
10.0
 25
10.0
 16
0.0
 26
0.0
 36
1.0
 17
0.0
 27
0.0
 37
0.0
 40
6930.000000000001
 41
1.414285714285714
 42
50.0
 43
0.0
 44
0.0
 50
0.0
 51
0.0
 71
     0
 72
 10000
 73
     1
 74
     3
 75
     0
 76
     0
 77
     0
 78
     0
281
     0
 65
     1
110
0.0
120
0.0
130
0.0
111
1.0
121
0.0
131
0.0
112
0.0
122
1.0
132
0.0
 79
     0
146
0.0
 60
     3
 61
     5
292
     1
282
     1
141
0.0
142
0.0
 63
   250
  0
ENDTAB
  0
TABLE
  2
LTYPE
  5
5
330
0
100
AcDbSymbolTable
 70
     2
  0
LTYPE
  5
14
330
5
100
AcDbSymbolTableRecord
100
AcDbLinetypeTableRecord
  2
ByBlock
 70
     0
  3

 72
    65
 73
     0
 40
0.0
  0
LTYPE
  5
15
330
5
100
AcDbSymbolTableRecord
100
AcDbLinetypeTableRecord
  2
ByLayer
 70
     0
  3

 72
    65
 73
     0
 40
0.0
  0
LTYPE
  5
16
330
5
100
AcDbSymbolTableRecord
100
AcDbLinetypeTableRecord
  2
Continuous
 70
     0
  3
Solid line
 72
    65
 73
     0
 40
0.0
  0
LTYPE
  5
3F
330
5
100
AcDbSymbolTableRecord
100
AcDbLinetypeTableRecord
  2
JWW_DASHED1
 70
     0
  3
-  --  --  --  --  --  --  --  -
 72
    65
 73
     2
 40
1.693333333333333
 49
0.8466666666666667
 74
     0
 49
-0.8466666666666667
 74
     0
  0
ENDTAB
  0
TABLE
  2
LAYER
  5
2
330
0
100
AcDbSymbolTable
 70
     3
  0
LAYER
  5
10
330
2
100
AcDbSymbolTableRecord
100
AcDbLayerTableRecord
  2
0
 70
     0
 62
     7
  6
Continuous
370
    -3
390
F
347
3E
  0
LAYER
  5
40
330
2
100
AcDbSymbolTableRecord
100
AcDbLayerTableRecord
  2
0-0
 70
     0
 62
     7
  6
Continuous
370
    -3
390
F
347
3E
  0
LAYER
  5
41
330
2
100
AcDbSymbolTableRecord
100
AcDbLayerTableRecord
  2
寸法
 70
     0
 62
     7
  6
Continuous
370
    -3
390
F
347
3E
  0
ENDTAB
  0
TABLE
  2
STYLE
  5
3
330
0
100
AcDbSymbolTable
 70
     1
  0
STYLE
  5
11
330
3
100
AcDbSymbolTableRecord
100
AcDbTextStyleTableRecord
  2
Standard
 70
     0
 40
0.0
 41
1.0
 50
0.0
 71
     0
 42
2.5
  3
txt
  4

  0
ENDTAB
  0
TABLE
  2
VIEW
  5
6
330
0
100
AcDbSymbolTable
 70
     0
  0
ENDTAB
  0
TABLE
  2
UCS
  5
7
330
0
100
AcDbSymbolTable
 70
     0
  0
ENDTAB
  0
TABLE
  2
APPID
  5
9
330
0
100
AcDbSymbolTable
 70
     1
  0
APPID
  5
12
330
9
100
AcDbSymbolTableRecord
100
AcDbRegAppTableRecord
  2
ACAD
 70
     0
  0
ENDTAB
  0
TABLE
  2
DIMSTYLE
  5
A
330
0
100
AcDbSymbolTable
 70
     1
100
AcDbDimStyleTable
  0
DIMSTYLE
105
27
330
A
100
AcDbSymbolTableRecord
100
AcDbDimStyleTableRecord
  2
ISO-25
 70
     0
 41
2.5
 42
0.625
 43
3.75
 44
1.25
 73
     0
 74
     0
 77
     1
 78
     8
140
2.5
141
2.5
143
0.03937007874016
147
0.625
171
     3
172
     1
178
     0
271
     2
272
     2
274
     3
278
    44
283
     0
284
     8
340
11
  0
ENDTAB
  0
TABLE
  2
BLOCK_RECORD
  5
1
330
0
100
AcDbSymbolTable
 70
     1
  0
BLOCK_RECORD
  5
1F
330
1
100
AcDbSymbolTableRecord
100
AcDbBlockTableRecord
  2
*Model_Space
340
22
 70
     0
280
     1
281
     0
  0
BLOCK_RECORD
  5
1B
330
1
100
AcDbSymbolTableRecord
100
AcDbBlockTableRecord
  2
*Paper_Space
340
1E
 70
     0
280
     1
281
     0
  0
BLOCK_RECORD
  5
23
330
1
100
AcDbSymbolTableRecord
100
AcDbBlockTableRecord
  2
*Paper_Space0
340
26
 70
     0
280
     1
281
     0
  0
ENDTAB
  0
ENDSEC
  0
SECTION
  2
BLOCKS
  0
BLOCK
  5
20
330
1F
100
AcDbEntity
  8
0
100
AcDbBlockBegin
  2
*Model_Space
 70
     0
 10
0.0
 20
0.0
 30
0.0
  3
*Model_Space
  1

  0
ENDBLK
  5
21
330
1F
100
AcDbEntity
  8
0
100
AcDbBlockEnd
  0
BLOCK
  5
1C
330
1B
100
AcDbEntity
 67
     1
  8
0
100
AcDbBlockBegin
  2
*Paper_Space
 70
     0
 10
0.0
 20
0.0
 30
0.0
  3
*Paper_Space
  1

  0
ENDBLK
  5
1D
330
1B
100
AcDbEntity
 67
     1
  8
0
100
AcDbBlockEnd
  0
BLOCK
  5
24
330
23
100
AcDbEntity
  8
0
100
AcDbBlockBegin
  2
*Paper_Space0
 70
     0
 10
0.0
 20
0.0
 30
0.0
  3
*Paper_Space0
  1

  0
ENDBLK
  5
25
330
23
100
AcDbEntity
  8
0
100
AcDbBlockEnd
  0
ENDSEC
  0
SECTION
  2
ENTITIES
  0
LINE
  5
42
330
1F
100
AcDbEntity
  8
0-0
  6
Continuous
 62
    92
370
    13
100
AcDbLine
 10
-783.5641902854924
 20
1021.947967684075
 30
0.0
 11
800.4358097145061
 21
1021.947967684075
 31
0.0
  0
LINE
  5
43
330
1F
100
AcDbEntity
  8
0-0
  6
Continuous
 62
    92
370
    13
100
AcDbLine
 10
-783.5641902854924
 20
-995.0520323159259
 30
0.0
 11
-783.5641902854924
 21
1051.947967684075
 31
0.0
  0
LINE
  5
44
330
1F
100
AcDbEntity
  8
0-0
  6
Continuous
 62
    92
370
    13
100
AcDbLine
 10
-813.5641902854924
 20
-995.0520323159259
 30
0.0
 11
-813.5641902854924
 21
1051.947967684075
 31
0.0
  0
ARC
  5
45
330
1F
100
AcDbEntity
  8
0-0
  6
Continuous
 62
    92
370
    13
100
AcDbCircle
 10
-755.0641902854944
 20
41.947967684074
 30
0.0
 40
1.5
100
AcDbArc
 50
90.0
 51
180.0
  0
LINE
  5
46
330
1F
100
AcDbEntity
  8
0-0
  6
Continuous
 62
    92
370
    13
100
AcDbLine
 10
-716.0641902854924
 20
43.44796768407434
 30
0.0
 11
-755.0641902854944
 21
43.44796768407434
 31
0.0
  0
ARC
  5
47
330
1F
100
AcDbEntity
  8
0-0
  6
Continuous
 62
    92
370
    13
100
AcDbCircle
 10
-716.0641902854924
 20
41.947967684074
 30
0.0
 40
1.5
100
AcDbArc
 50
0.0
 51
90.00000000000001
  0
LINE
  5
48
330
1F
100
AcDbEntity
  8
0-0
  6
Continuous
 62
    92
370
    13
100
AcDbLine
 10
-714.5641902854937
 20
-77.0520323159252
 30
0.0
 11
-714.5641902854937
 21
41.947967684074
 31
0.0
  0
ARC
  5
49
330
1F
100
AcDbEntity
  8
0-0
  6
Continuous
 62
    92
370
    13
100
AcDbCircle
 10
-716.0641902854924
 20
-77.0520323159252
 30
0.0
 40
1.5
100
AcDbArc
 50
270.0
 51
0.0
  0
LINE
  5
4A
330
1F
100
AcDbEntity
  8
0-0
  6
Continuous
 62
    92
370
    13
100
AcDbLine
 10
-755.0641902854944
 20
-78.5520323159264
 30
0.0
 11
-716.0641902854924
 21
-78.5520323159264
 31
0.0
  0
LINE
  5
4B
330
1F
100
AcDbEntity
  8
0-0
  6
Continuous
 62
    92
370
    13
100
AcDbLine
 10
-756.564190285493
 20
-77.0520323159252
 30
0.0
 11
-756.564190285493
 21
41.947967684074
 31
0.0
  0
ARC
  5
4C
330
1F
100
AcDbEntity
  8
0-0
  6
Continuous
 62
    92
370
    13
100
AcDbCircle
 10
-755.0641902854944
 20
-77.0520323159252
 30
0.0
 40
1.5
100
AcDbArc
 50
180.0
 51
270.0
  0
ARC
  5
4D
330
1F
100
AcDbEntity
  8
0-0
  6
Continuous
 62
     7
370
     9
100
AcDbCircle
 10
-735.5641902854934
 20
-47.15203231592511
 30
0.0
 40
15.0
100
AcDbArc
 50
180.0
 51
0.0
  0
ARC
  5
4E
330
1F
100
AcDbEntity
  8
0-0
  6
Continuous
 62
     7
370
     9
100
AcDbCircle
 10
-735.5641902854934
 20
12.04796768407306
 30
0.0
 40
15.0
100
AcDbArc
 50
0.0
 51
180.0
  0
LINE
  5
4F
330
1F
100
AcDbEntity
  8
0-0
  6
Continuous
 62
     7
370
     9
100
AcDbLine
 10
-720.5641902854934
 20
-47.15203231592511
 30
0.0
 11
-720.5641902854934
 21
12.04796768407306
 31
0.0
  0
LINE
  5
50
330
1F
100
AcDbEntity
  8
0-0
  6
Continuous
 62
     7
370
     9
100
AcDbLine
 10
-750.5641902854934
 20
12.04796768407306
 30
0.0
 11
-750.5641902854934
 21
-47.15203231592511
 31
0.0
  0
LINE
  5
51
330
1F
100
AcDbEntity
  8
0-0
  6
JWW_DASHED1
 62
   120
370
     5
100
AcDbLine
 10
-786.564190285493
 20
1007.947967684074
 30
0.0
 11
-786.564190285493
 21
-975.0520323159253
 31
0.0
  0
LINE
  5
52
330
1F
100
AcDbEntity
  8
0-0
  6
JWW_DASHED1
 62
   120
370
     5
100
AcDbLine
 10
-783.5641902854924
 20
1007.947967684074
 30
0.0
 11
-786.564190285493
 21
1007.947967684074
 31
0.0
  0
LINE
  5
53
330
1F
100
AcDbEntity
  8
0-0
  6
JWW_DASHED1
 62
   120
370
     5
100
AcDbLine
 10
-786.564190285493
 20
-975.0520323159253
 30
0.0
 11
-783.5641902854924
 21
-975.0520323159253
 31
0.0
  0
LINE
  5
54
330
1F
100
AcDbEntity
  8
0-0
  6
Continuous
 62
    92
370
    13
100
AcDbLine
 10
830.4358097145061
 20
-995.0520323159259
 30
0.0
 11
-813.5641902854924
 21
-995.0520323159259
 31
0.0
  0
LINE
  5
55
330
1F
100
AcDbEntity
  8
0-0
  6
Continuous
 62
    92
370
    13
100
AcDbLine
 10
830.4358097145061
 20
-995.0520323159259
 30
0.0
 11
830.4358097145061
 21
1051.947967684075
 31
0.0
  0
LINE
  5
56
330
1F
100
AcDbEntity
  8
0-0
  6
Continuous
 62
    92
370
    13
100
AcDbLine
 10
800.4358097145061
 20
-980.0520323159259
 30
0.0
 11
-783.5641902854924
 21
-980.0520323159259
 31
0.0
  0
LINE
  5
57
330
1F
100
AcDbEntity
  8
0-0
  6
Continuous
 62
    92
370
    13
100
AcDbLine
 10
800.4358097145061
 20
-995.0520323159259
 30
0.0
 11
800.4358097145061
 21
-974.8472533230884
 31
0.0
  0
LINE
  5
58
330
1F
100
AcDbEntity
  8
0-0
  6
Continuous
 62
    92
370
    13
100
AcDbLine
 10
800.4358097145061
 20
-974.8472533230884
 30
0.0
 11
800.4358097145061
 21
-974.5142675134304
 31
0.0
  0
ARC
  5
59
330
1F
100
AcDbEntity
  8
0-0
  6
Continuous
 62
    92
370
    13
100
AcDbCircle
 10
732.9358097145063
 20
41.947967684074
 30
0.0
 40
1.5
100
AcDbArc
 50
90.0
 51
180.0
  0
LINE
  5
5A
330
1F
100
AcDbEntity
  8
0-0
  6
Continuous
 62
    92
370
    13
100
AcDbLine
 10
771.9358097145082
 20
43.44796768407434
 30
0.0
 11
732.9358097145063
 21
43.44796768407434
 31
0.0
  0
ARC
  5
5B
330
1F
100
AcDbEntity
  8
0-0
  6
Continuous
 62
    92
370
    13
100
AcDbCircle
 10
771.9358097145082
 20
41.947967684074
 30
0.0
 40
1.5
100
AcDbArc
 50
0.0
 51
90.00000000000001
  0
LINE
  5
5C
330
1F
100
AcDbEntity
  8
0-0
  6
Continuous
 62
    92
370
    13
100
AcDbLine
 10
773.4358097145068
 20
-77.0520323159252
 30
0.0
 11
773.4358097145068
 21
41.947967684074
 31
0.0
  0
ARC
  5
5D
330
1F
100
AcDbEntity
  8
0-0
  6
Continuous
 62
    92
370
    13
100
AcDbCircle
 10
771.9358097145082
 20
-77.0520323159252
 30
0.0
 40
1.5
100
AcDbArc
 50
270.0
 51
0.0
  0
LINE
  5
5E
330
1F
100
AcDbEntity
  8
0-0
  6
Continuous
 62
    92
370
    13
100
AcDbLine
 10
732.9358097145063
 20
-78.5520323159264
 30
0.0
 11
771.9358097145082
 21
-78.5520323159264
 31
0.0
  0
LINE
  5
5F
330
1F
100
AcDbEntity
  8
0-0
  6
Continuous
 62
    92
370
    13
100
AcDbLine
 10
731.4358097145059
 20
-77.0520323159252
 30
0.0
 11
731.4358097145059
 21
41.947967684074
 31
0.0
  0
ARC
  5
60
330
1F
100
AcDbEntity
  8
0-0
  6
Continuous
 62
    92
370
    13
100
AcDbCircle
 10
732.9358097145063
 20
-77.0520323159252
 30
0.0
 40
1.5
100
AcDbArc
 50
180.0
 51
270.0
  0
ARC
  5
61
330
1F
100
AcDbEntity
  8
0-0
  6
Continuous
 62
     7
370
     9
100
AcDbCircle
 10
752.4358097145073
 20
-47.15203231592511
 30
0.0
 40
15.0
100
AcDbArc
 50
180.0
 51
0.0
  0
ARC
  5
62
330
1F
100
AcDbEntity
  8
0-0
  6
Continuous
 62
     7
370
     9
100
AcDbCircle
 10
752.4358097145073
 20
12.04796768407306
 30
0.0
 40
15.0
100
AcDbArc
 50
0.0
 51
180.0
  0
LINE
  5
63
330
1F
100
AcDbEntity
  8
0-0
  6
Continuous
 62
     7
370
     9
100
AcDbLine
 10
767.4358097145073
 20
-47.15203231592511
 30
0.0
 11
767.4358097145073
 21
12.04796768407306
 31
0.0
  0
LINE
  5
64
330
1F
100
AcDbEntity
  8
0-0
  6
Continuous
 62
     7
370
     9
100
AcDbLine
 10
737.4358097145073
 20
12.04796768407306
 30
0.0
 11
737.4358097145073
 21
-47.15203231592511
 31
0.0
  0
LINE
  5
65
330
1F
100
AcDbEntity
  8
0-0
  6
Continuous
 62
    92
370
    13
100
AcDbLine
 10
800.4358097145061
 20
-974.5142675134304
 30
0.0
 11
800.4358097145061
 21
1051.947967684075
 31
0.0
  0
LINE
  5
66
330
1F
100
AcDbEntity
  8
0-0
  6
Continuous
 62
    92
370
    13
100
AcDbLine
 10
-813.5641902854924
 20
1051.947967684075
 30
0.0
 11
830.4358097145061
 21
1051.947967684075
 31
0.0
  0
LINE
  5
67
330
1F
100
AcDbEntity
  8
0-0
  6
JWW_DASHED1
 62
   120
370
     5
100
AcDbLine
 10
803.4358097145068
 20
1007.947967684074
 30
0.0
 11
803.4358097145068
 21
-975.0520323159253
 31
0.0
  0
LINE
  5
68
330
1F
100
AcDbEntity
  8
0-0
  6
JWW_DASHED1
 62
   120
370
     5
100
AcDbLine
 10
803.4358097145068
 20
-975.0520323159253
 30
0.0
 11
800.4358097145061
 21
-975.0520323159253
 31
0.0
  0
LINE
  5
69
330
1F
100
AcDbEntity
  8
0-0
  6
JWW_DASHED1
 62
   120
370
     5
100
AcDbLine
 10
800.4358097145061
 20
1007.947967684074
 30
0.0
 11
803.4358097145068
 21
1007.947967684074
 31
0.0
  0
LINE
  5
6A
330
1F
100
AcDbEntity
  8
0-0
  6
Continuous
 62
    92
370
    13
100
AcDbLine
 10
-6.564190285493012
 20
-975.0520323159253
 30
0.0
 11
-6.564190285493012
 21
1007.947967684074
 31
0.0
  0
LINE
  5
6B
330
1F
100
AcDbEntity
  8
0-0
  6
JWW_DASHED1
 62
   120
370
     5
100
AcDbLine
 10
23.43580971450869
 20
-975.0520323159253
 30
0.0
 11
23.43580971450869
 21
1007.947967684074
 31
0.0
  0
LINE
  5
6C
330
1F
100
AcDbEntity
  8
0-0
  6
Continuous
 62
    92
370
    13
100
AcDbLine
 10
800.4358097145061
 20
1007.947967684074
 30
0.0
 11
-783.5641902854924
 21
1007.947967684074
 31
0.0
  0
LINE
  5
6D
330
1F
100
AcDbEntity
  8
0-0
  6
Continuous
 62
    92
370
    13
100
AcDbLine
 10
-783.5641902854924
 20
-975.0520323159253
 30
0.0
 11
800.4358097145061
 21
-975.0520323159253
 31
0.0
  0
LINE
  5
6E
330
1F
100
AcDbEntity
  8
0-0
  6
Continuous
 62
    92
370
    13
100
AcDbLine
 10
-86.56419028549188
 20
-825.0520323159255
 30
0.0
 11
-676.5641902854942
 21
-825.0520323159255
 31
0.0
  0
LINE
  5
6F
330
1F
100
AcDbEntity
  8
0-0
  6
Continuous
 62
    92
370
    13
100
AcDbLine
 10
693.4358097145081
 20
-825.0520323159255
 30
0.0
 11
103.4358097145076
 21
-825.0520323159255
 31
0.0
  0
LINE
  5
70
330
1F
100
AcDbEntity
  8
0-0
  6
Continuous
 62
    92
370
    13
100
AcDbLine
 10
693.4358097145081
 20
872.9479676840745
 30
0.0
 11
103.4358097145076
 21
872.9479676840745
 31
0.0
  0
LINE
  5
71
330
1F
100
AcDbEntity
  8
0-0
  6
Continuous
 62
    92
370
    13
100
AcDbLine
 10
-86.56419028549188
 20
872.9479676840745
 30
0.0
 11
-676.5641902854942
 21
872.9479676840745
 31
0.0
  0
LINE
  5
72
330
1F
100
AcDbEntity
  8
0-0
  6
Continuous
 62
    92
370
    13
100
AcDbLine
 10
-426.564190285493
 20
872.9479676840745
 30
0.0
 11
-426.564190285493
 21
-825.0520323159255
 31
0.0
  0
LINE
  5
73
330
1F
100
AcDbEntity
  8
0-0
  6
Continuous
 62
    92
370
    13
100
AcDbLine
 10
-336.564190285493
 20
872.9479676840745
 30
0.0
 11
-336.564190285493
 21
-825.0520323159255
 31
0.0
  0
LINE
  5
74
330
1F
100
AcDbEntity
  8
0-0
  6
Continuous
 62
    92
370
    13
100
AcDbLine
 10
353.435809714507
 20
872.9479676840745
 30
0.0
 11
353.435809714507
 21
-825.0520323159255
 31
0.0
  0
LINE
  5
75
330
1F
100
AcDbEntity
  8
0-0
  6
Continuous
 62
    92
370
    13
100
AcDbLine
 10
443.435809714507
 20
872.9479676840745
 30
0.0
 11
443.435809714507
 21
-825.0520323159255
 31
0.0
  0
LINE
  5
76
330
1F
100
AcDbEntity
  8
0-0
  6
Continuous
 62
    92
370
    13
100
AcDbLine
 10
693.4358097145081
 20
-975.0520323159255
 30
0.0
 11
693.4358097145081
 21
1007.947967684074
 31
0.0
  0
LINE
  5
77
330
1F
100
AcDbEntity
  8
0-0
  6
Continuous
 62
    92
370
    13
100
AcDbLine
 10
-676.5641902854942
 20
-975.0520323159255
 30
0.0
 11
-676.5641902854942
 21
1007.947967684074
 31
0.0
  0
LINE
  5
78
330
1F
100
AcDbEntity
  8
0-0
  6
Continuous
 62
    92
370
    13
100
AcDbLine
 10
-86.56419028549188
 20
-975.0520323159255
 30
0.0
 11
-86.56419028549188
 21
1007.947967684074
 31
0.0
  0
LINE
  5
79
330
1F
100
AcDbEntity
  8
0-0
  6
Continuous
 62
    92
370
    13
100
AcDbLine
 10
103.4358097145076
 20
-975.0520323159255
 30
0.0
 11
103.4358097145076
 21
1007.947967684074
 31
0.0
  0
LINE
  5
7A
330
1F
100
AcDbEntity
  8
0-0
  6
JWW_DASHED1
 62
   120
370
     5
100
AcDbLine
 10
690.5422906804596
 20
-825.0520323159341
 30
0.0
 11
693.4358097145166
 21
-822.1585132818777
 31
0.0
  0
LINE
  5
7B
330
1F
100
AcDbEntity
  8
0-0
  6
JWW_DASHED1
 62
   120
370
     5
100
AcDbLine
 10
683.4712228671775
 20
-825.0520323159304
 30
0.0
 11
693.4358097145115
 21
-815.0874454685962
 31
0.0
  0
LINE
  5
7C
330
1F
100
AcDbEntity
  8
0-0
  6
JWW_DASHED1
 62
   120
370
     5
100
AcDbLine
 10
676.4001550538954
 20
-825.0520323159268
 30
0.0
 11
693.4358097145081
 21
-808.0163776553148
 31
0.0
  0
LINE
  5
7D
330
1F
100
AcDbEntity
  8
0-0
  6
JWW_DASHED1
 62
   120
370
     5
100
AcDbLine
 10
669.3290872406731
 20
-825.0520323159187
 30
0.0
 11
693.4358097144996
 21
-800.9453098420922
 31
0.0
  0
LINE
  5
7E
330
1F
100
AcDbEntity
  8
0-0
  6
JWW_DASHED1
 62
   120
370
     5
100
AcDbLine
 10
662.258019427391
 20
-825.0520323159151
 30
0.0
 11
693.4358097144961
 21
-793.8742420288108
 31
0.0
  0
LINE
  5
7F
330
1F
100
AcDbEntity
  8
0-0
  6
JWW_DASHED1
 62
   120
370
     5
100
AcDbLine
 10
655.1869516140799
 20
-825.0520323159402
 30
0.0
 11
693.4358097145234
 21
-786.8031742154981
 31
0.0
  0
LINE
  5
80
330
1F
100
AcDbEntity
  8
0-0
  6
JWW_DASHED1
 62
   120
370
     5
100
AcDbLine
 10
648.1158838007996
 20
-825.052032315936
 30
0.0
 11
693.4358097145183
 21
-779.7321064022166
 31
0.0
  0
LINE
  5
81
330
1F
100
AcDbEntity
  8
0-0
  6
JWW_DASHED1
 62
   120
370
     5
100
AcDbLine
 10
641.0448159875175
 20
-825.0520323159319
 30
0.0
 11
693.4358097145149
 21
-772.6610385889352
 31
0.0
  0
LINE
  5
82
330
1F
100
AcDbEntity
  8
0-0
  6
JWW_DASHED1
 62
   120
370
     5
100
AcDbLine
 10
633.973748174232
 20
-825.0520323159313
 30
0.0
 11
693.4358097145098
 21
-765.5899707756537
 31
0.0
  0
LINE
  5
83
330
1F
100
AcDbEntity
  8
0-0
  6
JWW_DASHED1
 62
   120
370
     5
100
AcDbLine
 10
626.9026803609516
 20
-825.0520323159278
 30
0.0
 11
693.4358097145064
 21
-758.5189029623723
 31
0.0
  0
LINE
  5
84
330
1F
100
AcDbEntity
  8
0-0
  6
JWW_DASHED1
 62
   120
370
     5
100
AcDbLine
 10
619.8316125476696
 20
-825.0520323159241
 30
0.0
 11
693.435809714503
 21
-751.4478351490911
 31
0.0
  0
LINE
  5
85
330
1F
100
AcDbEntity
  8
0-0
  6
JWW_DASHED1
 62
   120
370
     5
100
AcDbLine
 10
612.7605447343875
 20
-825.0520323159202
 30
0.0
 11
693.4358097144996
 21
-744.3767673358088
 31
0.0
  0
LINE
  5
86
330
1F
100
AcDbEntity
  8
0-0
  6
JWW_DASHED1
 62
   120
370
     5
100
AcDbLine
 10
605.6894769211054
 20
-825.0520323159163
 30
0.0
 11
693.4358097144944
 21
-737.3056995225273
 31
0.0
  0
LINE
  5
87
330
1F
100
AcDbEntity
  8
0-0
  6
JWW_DASHED1
 62
   120
370
     5
100
AcDbLine
 10
598.6184091078575
 20
-825.0520323159338
 30
0.0
 11
693.4358097145166
 21
-730.234631709274
 31
0.0
  0
LINE
  5
88
330
1F
100
AcDbEntity
  8
0-0
  6
JWW_DASHED1
 62
   120
370
     5
100
AcDbLine
 10
591.5473412945754
 20
-825.0520323159296
 30
0.0
 11
693.4358097145132
 21
-723.1635638959926
 31
0.0
  0
LINE
  5
89
330
1F
100
AcDbEntity
  8
0-0
  6
JWW_DASHED1
 62
   120
370
     5
100
AcDbLine
 10
584.4762734812882
 20
-825.0520323159324
 30
0.0
 11
693.4358097145098
 21
-716.0924960827115
 31
0.0
  0
LINE
  5
8A
330
1F
100
AcDbEntity
  8
0-0
  6
JWW_DASHED1
 62
   120
370
     5
100
AcDbLine
 10
577.4052056680061
 20
-825.0520323159287
 30
0.0
 11
693.4358097145047
 21
-709.0214282694297
 31
0.0
  0
LINE
  5
8B
330
1F
100
AcDbEntity
  8
0-0
  6
JWW_DASHED1
 62
   120
370
     5
100
AcDbLine
 10
570.3341378547241
 20
-825.0520323159249
 30
0.0
 11
693.4358097145013
 21
-701.9503604561486
 31
0.0
  0
LINE
  5
8C
330
1F
100
AcDbEntity
  8
0-0
  6
JWW_DASHED1
 62
   120
370
     5
100
AcDbLine
 10
563.2630700414437
 20
-825.052032315921
 30
0.0
 11
693.4358097144979
 21
-694.8792926428661
 31
0.0
  0
LINE
  5
8D
330
1F
100
AcDbEntity
  8
0-0
  6
JWW_DASHED1
 62
   120
370
     5
100
AcDbLine
 10
556.1920022281616
 20
-825.0520323159172
 30
0.0
 11
693.4358097144944
 21
-687.8082248295844
 31
0.0
  0
LINE
  5
8E
330
1F
100
AcDbEntity
  8
0-0
  6
JWW_DASHED1
 62
   120
370
     5
100
AcDbLine
 10
549.1209344148574
 20
-825.052032315936
 30
0.0
 11
693.43580971452
 21
-680.7371570162725
 31
0.0
  0
LINE
  5
8F
330
1F
100
AcDbEntity
  8
0-0
  6
JWW_DASHED1
 62
   120
370
     5
100
AcDbLine
 10
542.0498666015753
 20
-825.0520323159319
 30
0.0
 11
693.4358097145166
 21
-673.6660892029913
 31
0.0
  0
LINE
  5
90
330
1F
100
AcDbEntity
  8
0-0
  6
JWW_DASHED1
 62
   120
370
     5
100
AcDbLine
 10
534.9787987882847
 20
-825.0520323159377
 30
0.0
 11
693.4358097145115
 21
-666.5950213897098
 31
0.0
  0
LINE
  5
91
330
1F
100
AcDbEntity
  8
0-0
  6
JWW_DASHED1
 62
   120
370
     5
100
AcDbLine
 10
527.9077309750623
 20
-825.0520323159296
 30
0.0
 11
693.4358097145047
 21
-659.5239535764872
 31
0.0
  0
LINE
  5
92
330
1F
100
AcDbEntity
  8
0-0
  6
JWW_DASHED1
 62
   120
370
     5
100
AcDbLine
 10
520.8366631617803
 20
-825.0520323159258
 30
0.0
 11
693.4358097145013
 21
-652.4528857632043
 31
0.0
  0
LINE
  5
93
330
1F
100
AcDbEntity
  8
0-0
  6
JWW_DASHED1
 62
   120
370
     5
100
AcDbLine
 10
513.7655953484982
 20
-825.0520323159221
 30
0.0
 11
693.4358097144979
 21
-645.3818179499231
 31
0.0
  0
LINE
  5
94
330
1F
100
AcDbEntity
  8
0-0
  6
JWW_DASHED1
 62
   120
370
     5
100
AcDbLine
 10
506.6945275352008
 20
-825.0520323159343
 30
0.0
 11
693.4358097145081
 21
-638.3107501366273
 31
0.0
  0
LINE
  5
95
330
1F
100
AcDbEntity
  8
0-0
  6
JWW_DASHED1
 62
   120
370
     5
100
AcDbLine
 10
499.6234597219154
 20
-825.0520323159338
 30
0.0
 11
693.4358097145183
 21
-631.23968232333
 31
0.0
  0
LINE
  5
96
330
1F
100
AcDbEntity
  8
0-0
  6
JWW_DASHED1
 62
   120
370
     5
100
AcDbLine
 10
492.5523919086333
 20
-825.0520323159296
 30
0.0
 11
693.4358097145149
 21
-624.1686145100488
 31
0.0
  0
LINE
  5
97
330
1F
100
AcDbEntity
  8
0-0
  6
JWW_DASHED1
 62
   120
370
     5
100
AcDbLine
 10
485.4813240953393
 20
-825.0520323159385
 30
0.0
 11
693.4358097145115
 21
-617.0975466967675
 31
0.0
  0
LINE
  5
98
330
1F
100
AcDbEntity
  8
0-0
  6
JWW_DASHED1
 62
   120
370
     5
100
AcDbLine
 10
478.4102562820572
 20
-825.0520323159348
 30
0.0
 11
693.4358097145064
 21
-610.0264788834859
 31
0.0
  0
LINE
  5
99
330
1F
100
AcDbEntity
  8
0-0
  6
JWW_DASHED1
 62
   120
370
     5
100
AcDbLine
 10
471.3391884687769
 20
-825.0520323159311
 30
0.0
 11
693.435809714503
 21
-602.9554110702047
 31
0.0
  0
LINE
  5
9A
330
1F
100
AcDbEntity
  8
0-0
  6
JWW_DASHED1
 62
   120
370
     5
100
AcDbLine
 10
464.2681206555528
 20
-825.0520323159228
 30
0.0
 11
693.4358097144961
 21
-595.8843432569802
 31
0.0
  0
LINE
  5
9B
330
1F
100
AcDbEntity
  8
0-0
  6
JWW_DASHED1
 62
   120
370
     5
100
AcDbLine
 10
457.1970528422553
 20
-825.052032315936
 30
0.0
 11
693.4358097145217
 21
-588.8132754436691
 31
0.0
  0
LINE
  5
9C
330
1F
100
AcDbEntity
  8
0-0
  6
JWW_DASHED1
 62
   120
370
     5
100
AcDbLine
 10
450.1259850289733
 20
-825.0520323159317
 30
0.0
 11
693.4358097145183
 21
-581.7422076303878
 31
0.0
  0
LINE
  5
9D
330
1F
100
AcDbEntity
  8
0-0
  6
JWW_DASHED1
 62
   120
370
     5
100
AcDbLine
 10
443.4358097145087
 20
-824.6711398171104
 30
0.0
 11
693.4358097145132
 21
-574.6711398171062
 31
0.0
  0
LINE
  5
9E
330
1F
100
AcDbEntity
  8
0-0
  6
JWW_DASHED1
 62
   120
370
     5
100
AcDbLine
 10
443.4358097145206
 20
-817.6000720038134
 30
0.0
 11
693.4358097145098
 21
-567.6000720038251
 31
0.0
  0
LINE
  5
9F
330
1F
100
AcDbEntity
  8
0-0
  6
JWW_DASHED1
 62
   120
370
     5
100
AcDbLine
 10
443.4358097145172
 20
-810.529004190532
 30
0.0
 11
693.4358097145047
 21
-560.5290041905434
 31
0.0
  0
LINE
  5
A0
330
1F
100
AcDbEntity
  8
0-0
  6
JWW_DASHED1
 62
   120
370
     5
100
AcDbLine
 10
443.4358097145121
 20
-803.4579363772506
 30
0.0
 11
693.4358097145013
 21
-553.4579363772622
 31
0.0
  0
LINE
  5
A1
330
1F
100
AcDbEntity
  8
0-0
  6
JWW_DASHED1
 62
   120
370
     5
100
AcDbLine
 10
443.4358097145087
 20
-796.3868685639691
 30
0.0
 11
693.4358097144996
 21
-546.3868685639782
 31
0.0
  0
LINE
  5
A2
330
1F
100
AcDbEntity
  8
0-0
  6
JWW_DASHED1
 62
   120
370
     5
100
AcDbLine
 10
443.4358097145053
 20
-789.3158007506875
 30
0.0
 11
693.4358097144961
 21
-539.3158007506968
 31
0.0
  0
LINE
  5
A3
330
1F
100
AcDbEntity
  8
0-0
  6
JWW_DASHED1
 62
   120
370
     5
100
AcDbLine
 10
443.4358097145172
 20
-782.2447329373906
 30
0.0
 11
693.4358097145217
 21
-532.2447329373861
 31
0.0
  0
LINE
  5
A4
330
1F
100
AcDbEntity
  8
0-0
  6
JWW_DASHED1
 62
   120
370
     5
100
AcDbLine
 10
443.4358097145087
 20
-775.1736651241681
 30
0.0
 11
693.4358097145115
 21
-525.1736651241638
 31
0.0
  0
LINE
  5
A5
330
1F
100
AcDbEntity
  8
0-0
  6
JWW_DASHED1
 62
   120
370
     5
100
AcDbLine
 10
443.4358097145206
 20
-768.1025973108708
 30
0.0
 11
693.4358097145081
 21
-518.1025973108825
 31
0.0
  0
LINE
  5
A6
330
1F
100
AcDbEntity
  8
0-0
  6
JWW_DASHED1
 62
   120
370
     5
100
AcDbLine
 10
443.4358097145155
 20
-761.0315294975896
 30
0.0
 11
693.4358097145047
 21
-511.0315294976011
 31
0.0
  0
LINE
  5
A7
330
1F
100
AcDbEntity
  8
0-0
  6
JWW_DASHED1
 62
   120
370
     5
100
AcDbLine
 10
443.4358097145121
 20
-753.960461684308
 30
0.0
 11
693.4358097144996
 21
-503.9604616843196
 31
0.0
  0
LINE
  5
A8
330
1F
100
AcDbEntity
  8
0-0
  6
JWW_DASHED1
 62
   120
370
     5
100
AcDbLine
 10
443.4358097145087
 20
-746.889393871026
 30
0.0
 11
693.4358097144996
 21
-496.8893938710351
 31
0.0
  0
LINE
  5
A9
330
1F
100
AcDbEntity
  8
0-0
  6
JWW_DASHED1
 62
   120
370
     5
100
AcDbLine
 10
443.4358097145036
 20
-739.8183260577445
 30
0.0
 11
693.4358097144944
 21
-489.8183260577534
 31
0.0
  0
LINE
  5
AA
330
1F
100
AcDbEntity
  8
0-0
  6
JWW_DASHED1
 62
   120
370
     5
100
AcDbLine
 10
351.1310356430209
 20
-825.0520323159424
 30
0.0
 11
353.4358097145241
 21
-822.747258244439
 31
0.0
  0
LINE
  5
AB
330
1F
100
AcDbEntity
  8
0-0
  6
JWW_DASHED1
 62
   120
370
     5
100
AcDbLine
 10
443.4358097145155
 20
-732.7472582444482
 30
0.0
 11
693.43580971452
 21
-482.747258244444
 31
0.0
  0
LINE
  5
AC
330
1F
100
AcDbEntity
  8
0-0
  6
JWW_DASHED1
 62
   120
370
     5
100
AcDbLine
 10
344.0599678297405
 20
-825.052032315938
 30
0.0
 11
353.4358097145206
 21
-815.6761904311576
 31
0.0
  0
LINE
  5
AD
330
1F
100
AcDbEntity
  8
0-0
  6
JWW_DASHED1
 62
   120
370
     5
100
AcDbLine
 10
443.4358097145104
 20
-725.6761904311667
 30
0.0
 11
693.4358097145149
 21
-475.6761904311624
 31
0.0
  0
LINE
  5
AE
330
1F
100
AcDbEntity
  8
0-0
  6
JWW_DASHED1
 62
   120
370
     5
100
AcDbLine
 10
336.9889000164584
 20
-825.0520323159338
 30
0.0
 11
353.4358097145155
 21
-808.6051226178763
 31
0.0
  0
LINE
  5
AF
330
1F
100
AcDbEntity
  8
0-0
  6
JWW_DASHED1
 62
   120
370
     5
100
AcDbLine
 10
443.435809714507
 20
-718.6051226178853
 30
0.0
 11
693.4358097145115
 21
-468.6051226178807
 31
0.0
  0
LINE
  5
B0
330
1F
100
AcDbEntity
  8
0-0
  6
JWW_DASHED1
 62
   120
370
     5
100
AcDbLine
 10
329.9178322032071
 20
-825.0520323159277
 30
0.0
 11
353.4358097145104
 21
-801.5340548046244
 31
0.0
  0
LINE
  5
B1
330
1F
100
AcDbEntity
  8
0-0
  6
JWW_DASHED1
 62
   120
370
     5
100
AcDbLine
 10
443.4358097145172
 20
-711.5340548046177
 30
0.0
 11
693.4358097145047
 21
-461.5340548046289
 31
0.0
  0
LINE
  5
B2
330
1F
100
AcDbEntity
  8
0-0
  6
JWW_DASHED1
 62
   120
370
     5
100
AcDbLine
 10
322.846764389954
 20
-825.0520323159211
 30
0.0
 11
353.4358097145036
 21
-794.4629869913721
 31
0.0
  0
LINE
  5
B3
330
1F
100
AcDbEntity
  8
0-0
  6
JWW_DASHED1
 62
   120
370
     5
100
AcDbLine
 10
443.4358097145121
 20
-704.4629869913647
 30
0.0
 11
693.435809714503
 21
-454.4629869913737
 31
0.0
  0
LINE
  5
B4
330
1F
100
AcDbEntity
  8
0-0
  6
JWW_DASHED1
 62
   120
370
     5
100
AcDbLine
 10
315.7756965766736
 20
-825.052032315917
 30
0.0
 11
353.4358097145002
 21
-787.3919191780907
 31
0.0
  0
LINE
  5
B5
330
1F
100
AcDbEntity
  8
0-0
  6
JWW_DASHED1
 62
   120
370
     5
100
AcDbLine
 10
443.435809714507
 20
-697.391919178083
 30
0.0
 11
693.4358097144979
 21
-447.3919191780921
 31
0.0
  0
LINE
  5
B6
330
1F
100
AcDbEntity
  8
0-0
  6
JWW_DASHED1
 62
   120
370
     5
100
AcDbLine
 10
308.7046287633643
 20
-825.0520323159415
 30
0.0
 11
353.4358097145275
 21
-780.3208513647779
 31
0.0
  0
LINE
  5
B7
330
1F
100
AcDbEntity
  8
0-0
  6
JWW_DASHED1
 62
   120
370
     5
100
AcDbLine
 10
443.4358097145172
 20
-690.3208513647869
 30
0.0
 11
693.4358097145064
 21
-440.3208513647985
 31
0.0
  0
LINE
  5
B8
330
1F
100
AcDbEntity
  8
0-0
  6
JWW_DASHED1
 62
   120
370
     5
100
AcDbLine
 10
301.6335609500788
 20
-825.0520323159402
 30
0.0
 11
353.4358097145223
 21
-773.2497835514963
 31
0.0
  0
LINE
  5
B9
330
1F
100
AcDbEntity
  8
0-0
  6
JWW_DASHED1
 62
   120
370
     5
100
AcDbLine
 10
443.4358097145138
 20
-683.2497835515056
 30
0.0
 11
693.4358097145183
 21
-433.2497835515015
 31
0.0
  0
LINE
  5
BA
330
1F
100
AcDbEntity
  8
0-0
  6
JWW_DASHED1
 62
   120
370
     5
100
AcDbLine
 10
294.5624931367984
 20
-825.052032315936
 30
0.0
 11
353.4358097145189
 21
-766.178715738215
 31
0.0
  0
LINE
  5
BB
330
1F
100
AcDbEntity
  8
0-0
  6
JWW_DASHED1
 62
   120
370
     5
100
AcDbLine
 10
443.4358097145104
 20
-676.1787157382242
 30
0.0
 11
693.4358097145149
 21
-426.1787157382199
 31
0.0
  0
LINE
  5
BC
330
1F
100
AcDbEntity
  8
0-0
  6
JWW_DASHED1
 62
   120
370
     5
100
AcDbLine
 10
287.4914253235164
 20
-825.0520323159317
 30
0.0
 11
353.4358097145155
 21
-759.1076479249339
 31
0.0
  0
LINE
  5
BD
330
1F
100
AcDbEntity
  8
0-0
  6
JWW_DASHED1
 62
   120
370
     5
100
AcDbLine
 10
443.4358097145206
 20
-669.107647924927
 30
0.0
 11
693.4358097145098
 21
-419.1076479249386
 31
0.0
  0
LINE
  5
BE
330
1F
100
AcDbEntity
  8
0-0
  6
JWW_DASHED1
 62
   120
370
     5
100
AcDbLine
 10
280.420357510236
 20
-825.0520323159275
 30
0.0
 11
353.4358097145104
 21
-752.0365801116521
 31
0.0
  0
LINE
  5
BF
330
1F
100
AcDbEntity
  8
0-0
  6
JWW_DASHED1
 62
   120
370
     5
100
AcDbLine
 10
443.4358097145172
 20
-662.0365801116458
 30
0.0
 11
693.4358097145064
 21
-412.036580111657
 31
0.0
  0
LINE
  5
C0
330
1F
100
AcDbEntity
  8
0-0
  6
JWW_DASHED1
 62
   120
370
     5
100
AcDbLine
 10
273.3492896969539
 20
-825.0520323159234
 30
0.0
 11
353.435809714507
 21
-744.965512298371
 31
0.0
  0
LINE
  5
C1
330
1F
100
AcDbEntity
  8
0-0
  6
JWW_DASHED1
 62
   120
370
     5
100
AcDbLine
 10
443.4358097145138
 20
-654.9655122983642
 30
0.0
 11
693.4358097145013
 21
-404.9655122983758
 31
0.0
  0
LINE
  5
C2
330
1F
100
AcDbEntity
  8
0-0
  6
JWW_DASHED1
 62
   120
370
     5
100
AcDbLine
 10
266.2782218836736
 20
-825.0520323159192
 30
0.0
 11
353.4358097145036
 21
-737.8944444850887
 31
0.0
  0
LINE
  5
C3
330
1F
100
AcDbEntity
  8
0-0
  6
JWW_DASHED1
 62
   120
370
     5
100
AcDbLine
 10
443.4358097145104
 20
-647.8944444850812
 30
0.0
 11
693.4358097145013
 21
-397.8944444850903
 31
0.0
  0
LINE
  5
C4
330
1F
100
AcDbEntity
  8
0-0
  6
JWW_DASHED1
 62
   120
370
     5
100
AcDbLine
 10
259.2071540704256
 20
-825.0520323159362
 30
0.0
 11
353.4358097145258
 21
-730.8233766718354
 31
0.0
  0
LINE
  5
C5
330
1F
100
AcDbEntity
  8
0-0
  6
JWW_DASHED1
 62
   120
370
     5
100
AcDbLine
 10
443.4358097145172
 20
-640.8233766718447
 30
0.0
 11
693.4358097145217
 21
-390.8233766718402
 31
0.0
  0
LINE
  5
C6
330
1F
100
AcDbEntity
  8
0-0
  6
JWW_DASHED1
 62
   120
370
     5
100
AcDbLine
 10
252.1360862571384
 20
-825.052032315938
 30
0.0
 11
353.4358097145223
 21
-723.752308858554
 31
0.0
  0
LINE
  5
C7
330
1F
100
AcDbEntity
  8
0-0
  6
JWW_DASHED1
 62
   120
370
     5
100
AcDbLine
 10
443.4358097145121
 20
-633.7523088585631
 30
0.0
 11
693.4358097145166
 21
-383.752308858559
 31
0.0
  0
LINE
  5
C8
330
1F
100
AcDbEntity
  8
0-0
  6
JWW_DASHED1
 62
   120
370
     5
100
AcDbLine
 10
245.0650184438563
 20
-825.0520323159338
 30
0.0
 11
353.4358097145172
 21
-716.6812410452727
 31
0.0
  0
LINE
  5
C9
330
1F
100
AcDbEntity
  8
0-0
  6
JWW_DASHED1
 62
   120
370
     5
100
AcDbLine
 10
443.4358097145087
 20
-626.6812410452817
 30
0.0
 11
693.4358097145132
 21
-376.6812410452778
 31
0.0
  0
LINE
  5
CA
330
1F
100
AcDbEntity
  8
0-0
  6
JWW_DASHED1
 62
   120
370
     5
100
AcDbLine
 10
237.9939506305743
 20
-825.0520323159296
 30
0.0
 11
353.4358097145138
 21
-709.6101732319911
 31
0.0
  0
LINE
  5
CB
330
1F
100
AcDbEntity
  8
0-0
  6
JWW_DASHED1
 62
   120
370
     5
100
AcDbLine
 10
443.4358097145206
 20
-619.6101732319845
 30
0.0
 11
693.4358097145081
 21
-369.6101732319957
 31
0.0
  0
LINE
  5
CC
330
1F
100
AcDbEntity
  8
0-0
  6
JWW_DASHED1
 62
   120
370
     5
100
AcDbLine
 10
230.9228828172939
 20
-825.0520323159253
 30
0.0
 11
353.4358097145104
 21
-702.5391054187096
 31
0.0
  0
LINE
  5
CD
330
1F
100
AcDbEntity
  8
0-0
  6
JWW_DASHED1
 62
   120
370
     5
100
AcDbLine
 10
443.4358097145155
 20
-612.5391054187032
 30
0.0
 11
693.4358097145047
 21
-362.5391054187145
 31
0.0
  0
LINE
  5
CE
330
1F
100
AcDbEntity
  8
0-0
  6
JWW_DASHED1
 62
   120
370
     5
100
AcDbLine
 10
223.8518150040118
 20
-825.0520323159211
 30
0.0
 11
353.4358097145053
 21
-695.4680376054284
 31
0.0
  0
LINE
  5
CF
330
1F
100
AcDbEntity
  8
0-0
  6
JWW_DASHED1
 62
   120
370
     5
100
AcDbLine
 10
443.4358097145121
 20
-605.4680376054216
 30
0.0
 11
693.4358097145013
 21
-355.4680376054333
 31
0.0
  0
LINE
  5
D0
330
1F
100
AcDbEntity
  8
0-0
  6
JWW_DASHED1
 62
   120
370
     5
100
AcDbLine
 10
216.7807471907315
 20
-825.052032315917
 30
0.0
 11
353.4358097145019
 21
-688.3969697921457
 31
0.0
  0
LINE
  5
D1
330
1F
100
AcDbEntity
  8
0-0
  6
JWW_DASHED1
 62
   120
370
     5
100
AcDbLine
 10
443.4358097145104
 20
-598.3969697921383
 30
0.0
 11
693.4358097145013
 21
-348.3969697921474
 31
0.0
  0
LINE
  5
D2
330
1F
100
AcDbEntity
  8
0-0
  6
JWW_DASHED1
 62
   120
370
     5
100
AcDbLine
 10
209.7096793774426
 20
-825.0520323159194
 30
0.0
 11
353.4358097145138
 21
-681.3259019788485
 31
0.0
  0
LINE
  5
D3
330
1F
100
AcDbEntity
  8
0-0
  6
JWW_DASHED1
 62
   120
370
     5
100
AcDbLine
 10
443.4358097145053
 20
-591.3259019788568
 30
0.0
 11
693.4358097144961
 21
-341.3259019788657
 31
0.0
  0
LINE
  5
D4
330
1F
100
AcDbEntity
  8
0-0
  6
JWW_DASHED1
 62
   120
370
     5
100
AcDbLine
 10
202.6386115641469
 20
-825.0520323159304
 30
0.0
 11
353.4358097145241
 21
-674.2548341655526
 31
0.0
  0
LINE
  5
D5
330
1F
100
AcDbEntity
  8
0-0
  6
JWW_DASHED1
 62
   120
370
     5
100
AcDbLine
 10
443.4358097145155
 20
-584.2548341655618
 30
0.0
 11
693.43580971452
 21
-334.2548341655577
 31
0.0
  0
LINE
  5
D6
330
1F
100
AcDbEntity
  8
0-0
  6
JWW_DASHED1
 62
   120
370
     5
100
AcDbLine
 10
195.5675437508563
 20
-825.052032315936
 30
0.0
 11
353.4358097145206
 21
-667.1837663522712
 31
0.0
  0
LINE
  5
D7
330
1F
100
AcDbEntity
  8
0-0
  6
JWW_DASHED1
 62
   120
370
     5
100
AcDbLine
 10
443.4358097145121
 20
-577.1837663522804
 30
0.0
 11
693.4358097145149
 21
-327.183766352276
 31
0.0
  0
LINE
  5
D8
330
1F
100
AcDbEntity
  8
0-0
  6
JWW_DASHED1
 62
   120
370
     5
100
AcDbLine
 10
188.4964759376339
 20
-825.0520323159275
 30
0.0
 11
353.4358097145121
 21
-660.1126985390488
 31
0.0
  0
LINE
  5
D9
330
1F
100
AcDbEntity
  8
0-0
  6
JWW_DASHED1
 62
   120
370
     5
100
AcDbLine
 10
443.4358097145189
 20
-570.112698539042
 30
0.0
 11
693.4358097145081
 21
-320.1126985390536
 31
0.0
  0
LINE
  5
DA
330
1F
100
AcDbEntity
  8
0-0
  6
JWW_DASHED1
 62
   120
370
     5
100
AcDbLine
 10
181.4254081243518
 20
-825.0520323159232
 30
0.0
 11
353.4358097145087
 21
-653.0416307257672
 31
0.0
  0
LINE
  5
DB
330
1F
100
AcDbEntity
  8
0-0
  6
JWW_DASHED1
 62
   120
370
     5
100
AcDbLine
 10
443.4358097145155
 20
-563.0416307257608
 30
0.0
 11
693.435809714503
 21
-313.0416307257719
 31
0.0
  0
LINE
  5
DC
330
1F
100
AcDbEntity
  8
0-0
  6
JWW_DASHED1
 62
   120
370
     5
100
AcDbLine
 10
174.3543403110714
 20
-825.052032315919
 30
0.0
 11
353.4358097145036
 21
-645.9705629124859
 31
0.0
  0
LINE
  5
DD
330
1F
100
AcDbEntity
  8
0-0
  6
JWW_DASHED1
 62
   120
370
     5
100
AcDbLine
 10
443.4358097145104
 20
-555.9705629124791
 30
0.0
 11
693.4358097144996
 21
-305.9705629124908
 31
0.0
  0
LINE
  5
DE
330
1F
100
AcDbEntity
  8
0-0
  6
JWW_DASHED1
 62
   120
370
     5
100
AcDbLine
 10
167.2832724977894
 20
-825.0520323159149
 30
0.0
 11
353.4358097145019
 21
-638.8994950992028
 31
0.0
  0
LINE
  5
DF
330
1F
100
AcDbEntity
  8
0-0
  6
JWW_DASHED1
 62
   120
370
     5
100
AcDbLine
 10
443.4358097145087
 20
-548.8994950991953
 30
0.0
 11
693.4358097144996
 21
-298.8994950992048
 31
0.0
  0
LINE
  5
E0
330
1F
100
AcDbEntity
  8
0-0
  6
JWW_DASHED1
 62
   120
370
     5
100
AcDbLine
 10
160.2122046845056
 20
-825.0520323159142
 30
0.0
 11
353.4358097145138
 21
-631.8284272859056
 31
0.0
  0
LINE
  5
E1
330
1F
100
AcDbEntity
  8
0-0
  6
JWW_DASHED1
 62
   120
370
     5
100
AcDbLine
 10
443.4358097145053
 20
-541.8284272859137
 30
0.0
 11
693.4358097144961
 21
-291.8284272859228
 31
0.0
  0
LINE
  5
E2
330
1F
100
AcDbEntity
  8
0-0
  6
JWW_DASHED1
 62
   120
370
     5
100
AcDbLine
 10
153.1411368712082
 20
-825.0520323159253
 30
0.0
 11
353.4358097145241
 21
-624.7573594726102
 31
0.0
  0
LINE
  5
E3
330
1F
100
AcDbEntity
  8
0-0
  6
JWW_DASHED1
 62
   120
370
     5
100
AcDbLine
 10
443.4358097145138
 20
-534.7573594726192
 30
0.0
 11
693.4358097145183
 21
-284.7573594726151
 31
0.0
  0
LINE
  5
E4
330
1F
100
AcDbEntity
  8
0-0
  6
JWW_DASHED1
 62
   120
370
     5
100
AcDbLine
 10
146.0700690579142
 20
-825.0520323159338
 30
0.0
 11
353.4358097145189
 21
-617.6862916593288
 31
0.0
  0
LINE
  5
E5
330
1F
100
AcDbEntity
  8
0-0
  6
JWW_DASHED1
 62
   120
370
     5
100
AcDbLine
 10
443.4358097145104
 20
-527.6862916593378
 30
0.0
 11
693.4358097145149
 21
-277.6862916593335
 31
0.0
  0
LINE
  5
E6
330
1F
100
AcDbEntity
  8
0-0
  6
JWW_DASHED1
 62
   120
370
     5
100
AcDbLine
 10
138.9990012446321
 20
-825.0520323159296
 30
0.0
 11
353.4358097145155
 21
-610.6152238460472
 31
0.0
  0
LINE
  5
E7
330
1F
100
AcDbEntity
  8
0-0
  6
JWW_DASHED1
 62
   120
370
     5
100
AcDbLine
 10
443.435809714507
 20
-520.6152238460563
 30
0.0
 11
693.4358097145098
 21
-270.6152238460522
 31
0.0
  0
LINE
  5
E8
330
1F
100
AcDbEntity
  8
0-0
  6
JWW_DASHED1
 62
   120
370
     5
100
AcDbLine
 10
131.9279334313517
 20
-825.0520323159253
 30
0.0
 11
353.4358097145104
 21
-603.544156032766
 31
0.0
  0
LINE
  5
E9
330
1F
100
AcDbEntity
  8
0-0
  6
JWW_DASHED1
 62
   120
370
     5
100
AcDbLine
 10
443.4358097145172
 20
-513.5441560327591
 30
0.0
 11
693.4358097145064
 21
-263.5441560327706
 31
0.0
  0
LINE
  5
EA
330
1F
100
AcDbEntity
  8
0-0
  6
JWW_DASHED1
 62
   120
370
     5
100
AcDbLine
 10
124.8568656181293
 20
-825.0520323159168
 30
0.0
 11
353.4358097145053
 21
-596.4730882195413
 31
0.0
  0
LINE
  5
EB
330
1F
100
AcDbEntity
  8
0-0
  6
JWW_DASHED1
 62
   120
370
     5
100
AcDbLine
 10
443.4358097145121
 20
-506.4730882195338
 30
0.0
 11
693.435809714503
 21
-256.4730882195431
 31
0.0
  0
LINE
  5
EC
330
1F
100
AcDbEntity
  8
0-0
  6
JWW_DASHED1
 62
   120
370
     5
100
AcDbLine
 10
117.7857978048473
 20
-825.0520323159126
 30
0.0
 11
353.4358097145002
 21
-589.40202040626
 31
0.0
  0
LINE
  5
ED
330
1F
100
AcDbEntity
  8
0-0
  6
JWW_DASHED1
 62
   120
370
     5
100
AcDbLine
 10
443.4358097145087
 20
-499.4020204062524
 30
0.0
 11
693.4358097144996
 21
-249.4020204062615
 31
0.0
  0
LINE
  5
EE
330
1F
100
AcDbEntity
  8
0-0
  6
JWW_DASHED1
 62
   120
370
     5
100
AcDbLine
 10
110.7147299915669
 20
-825.0520323159087
 30
0.0
 11
353.4358097145121
 21
-582.3309525929626
 31
0.0
  0
LINE
  5
EF
330
1F
100
AcDbEntity
  8
0-0
  6
JWW_DASHED1
 62
   120
370
     5
100
AcDbLine
 10
443.4358097145036
 20
-492.3309525929707
 30
0.0
 11
693.4358097144944
 21
-242.3309525929798
 31
0.0
  0
LINE
  5
F0
330
1F
100
AcDbEntity
  8
0-0
  6
JWW_DASHED1
 62
   120
370
     5
100
AcDbLine
 10
103.6436621782541
 20
-825.0520323159358
 30
0.0
 11
353.4358097145223
 21
-575.2598847796678
 31
0.0
  0
LINE
  5
F1
330
1F
100
AcDbEntity
  8
0-0
  6
JWW_DASHED1
 62
   120
370
     5
100
AcDbLine
 10
443.4358097145138
 20
-485.2598847796767
 30
0.0
 11
693.4358097145166
 21
-235.2598847796726
 31
0.0
  0
LINE
  5
F2
330
1F
100
AcDbEntity
  8
0-0
  6
JWW_DASHED1
 62
   120
370
     5
100
AcDbLine
 10
103.4358097145144
 20
-818.1888169663905
 30
0.0
 11
353.4358097145172
 21
-568.1888169663862
 31
0.0
  0
LINE
  5
F3
330
1F
100
AcDbEntity
  8
0-0
  6
JWW_DASHED1
 62
   120
370
     5
100
AcDbLine
 10
443.4358097145087
 20
-478.1888169663955
 30
0.0
 11
693.4358097145132
 21
-228.188816966391
 31
0.0
  0
LINE
  5
F4
330
1F
100
AcDbEntity
  8
0-0
  6
JWW_DASHED1
 62
   120
370
     5
100
AcDbLine
 10
103.4358097145093
 20
-811.117749153109
 30
0.0
 11
353.4358097145138
 21
-561.1177491531049
 31
0.0
  0
LINE
  5
F5
330
1F
100
AcDbEntity
  8
0-0
  6
JWW_DASHED1
 62
   120
370
     5
100
AcDbLine
 10
443.4358097145206
 20
-471.1177491530981
 30
0.0
 11
693.4358097145098
 21
-221.1177491531097
 31
0.0
  0
LINE
  5
F6
330
1F
100
AcDbEntity
  8
0-0
  6
JWW_DASHED1
 62
   120
370
     5
100
AcDbLine
 10
103.4358097145059
 20
-804.0466813398278
 30
0.0
 11
353.4358097145104
 21
-554.0466813398233
 31
0.0
  0
LINE
  5
F7
330
1F
100
AcDbEntity
  8
0-0
  6
JWW_DASHED1
 62
   120
370
     5
100
AcDbLine
 10
443.4358097145172
 20
-464.0466813398169
 30
0.0
 11
693.4358097145047
 21
-214.0466813398281
 31
0.0
  0
LINE
  5
F8
330
1F
100
AcDbEntity
  8
0-0
  6
JWW_DASHED1
 62
   120
370
     5
100
AcDbLine
 10
103.4358097145024
 20
-796.9756135265462
 30
0.0
 11
353.4358097145053
 21
-546.975613526542
 31
0.0
  0
LINE
  5
F9
330
1F
100
AcDbEntity
  8
0-0
  6
JWW_DASHED1
 62
   120
370
     5
100
AcDbLine
 10
443.4358097145121
 20
-456.9756135265357
 30
0.0
 11
693.4358097145013
 21
-206.9756135265473
 31
0.0
  0
LINE
  5
FA
330
1F
100
AcDbEntity
  8
0-0
  6
JWW_DASHED1
 62
   120
370
     5
100
AcDbLine
 10
103.4358097144973
 20
-789.9045457132645
 30
0.0
 11
353.4358097145036
 21
-539.904545713258
 31
0.0
  0
LINE
  5
FB
330
1F
100
AcDbEntity
  8
0-0
  6
JWW_DASHED1
 62
   120
370
     5
100
AcDbLine
 10
443.4358097145121
 20
-449.9045457132506
 30
0.0
 11
693.435809714503
 21
-199.9045457132597
 31
0.0
  0
LINE
  5
FC
330
1F
100
AcDbEntity
  8
0-0
  6
JWW_DASHED1
 62
   120
370
     5
100
AcDbLine
 10
103.4358097144939
 20
-782.8334778999831
 30
0.0
 11
353.4358097145002
 21
-532.8334778999764
 31
0.0
  0
LINE
  5
FD
330
1F
100
AcDbEntity
  8
0-0
  6
JWW_DASHED1
 62
   120
370
     5
100
AcDbLine
 10
443.435809714507
 20
-442.833477899969
 30
0.0
 11
693.4358097144979
 21
-192.833477899978
 31
0.0
  0
LINE
  5
FE
330
1F
100
AcDbEntity
  8
0-0
  6
JWW_DASHED1
 62
   120
370
     5
100
AcDbLine
 10
103.4358097145161
 20
-775.7624100867293
 30
0.0
 11
353.4358097145206
 21
-525.7624100867253
 31
0.0
  0
LINE
  5
FF
330
1F
100
AcDbEntity
  8
0-0
  6
JWW_DASHED1
 62
   120
370
     5
100
AcDbLine
 10
443.4358097145121
 20
-435.7624100867346
 30
0.0
 11
693.4358097145166
 21
-185.7624100867301
 31
0.0
  0
LINE
  5
100
330
1F
100
AcDbEntity
  8
0-0
  6
JWW_DASHED1
 62
   120
370
     5
100
AcDbLine
 10
103.4358097145127
 20
-768.6913422734482
 30
0.0
 11
353.4358097145172
 21
-518.6913422734436
 31
0.0
  0
LINE
  5
101
330
1F
100
AcDbEntity
  8
0-0
  6
JWW_DASHED1
 62
   120
370
     5
100
AcDbLine
 10
443.435809714507
 20
-428.691342273453
 30
0.0
 11
693.4358097145115
 21
-178.6913422734484
 31
0.0
  0
LINE
  5
102
330
1F
100
AcDbEntity
  8
0-0
  6
JWW_DASHED1
 62
   120
370
     5
100
AcDbLine
 10
103.4358097145093
 20
-761.6202744601667
 30
0.0
 11
353.4358097145121
 21
-511.6202744601624
 31
0.0
  0
LINE
  5
103
330
1F
100
AcDbEntity
  8
0-0
  6
JWW_DASHED1
 62
   120
370
     5
100
AcDbLine
 10
443.4358097145189
 20
-421.620274460156
 30
0.0
 11
693.4358097145081
 21
-171.6202744601672
 31
0.0
  0
LINE
  5
104
330
1F
100
AcDbEntity
  8
0-0
  6
JWW_DASHED1
 62
   120
370
     5
100
AcDbLine
 10
103.4358097145041
 20
-754.5492066468853
 30
0.0
 11
353.4358097145087
 21
-504.5492066468807
 31
0.0
  0
LINE
  5
105
330
1F
100
AcDbEntity
  8
0-0
  6
JWW_DASHED1
 62
   120
370
     5
100
AcDbLine
 10
443.4358097145155
 20
-414.5492066468744
 30
0.0
 11
693.4358097145047
 21
-164.5492066468856
 31
0.0
  0
LINE
  5
106
330
1F
100
AcDbEntity
  8
0-0
  6
JWW_DASHED1
 62
   120
370
     5
100
AcDbLine
 10
103.4358097145007
 20
-747.4781388336039
 30
0.0
 11
353.4358097145053
 21
-497.4781388335995
 31
0.0
  0
LINE
  5
107
330
1F
100
AcDbEntity
  8
0-0
  6
JWW_DASHED1
 62
   120
370
     5
100
AcDbLine
 10
443.4358097145104
 20
-407.4781388335927
 30
0.0
 11
693.4358097144996
 21
-157.4781388336044
 31
0.0
  0
LINE
  5
108
330
1F
100
AcDbEntity
  8
0-0
  6
JWW_DASHED1
 62
   120
370
     5
100
AcDbLine
 10
103.4358097144973
 20
-740.4070710203218
 30
0.0
 11
353.4358097145036
 21
-490.4070710203154
 31
0.0
  0
LINE
  5
109
330
1F
100
AcDbEntity
  8
0-0
  6
JWW_DASHED1
 62
   120
370
     5
100
AcDbLine
 10
443.4358097145104
 20
-400.4070710203076
 30
0.0
 11
693.4358097145013
 21
-150.4070710203167
 31
0.0
  0
LINE
  5
10A
330
1F
100
AcDbEntity
  8
0-0
  6
JWW_DASHED1
 62
   120
370
     5
100
AcDbLine
 10
103.4358097144922
 20
-733.3360032070401
 30
0.0
 11
353.4358097145155
 21
-483.3360032070175
 31
0.0
  0
LINE
  5
10B
330
1F
100
AcDbEntity
  8
0-0
  6
JWW_DASHED1
 62
   120
370
     5
100
AcDbLine
 10
443.435809714507
 20
-393.336003207026
 30
0.0
 11
693.4358097144979
 21
-143.3360032070351
 31
0.0
  0
LINE
  5
10C
330
1F
100
AcDbEntity
  8
0-0
  6
JWW_DASHED1
 62
   120
370
     5
100
AcDbLine
 10
103.4358097145041
 20
-726.2649353937438
 30
0.0
 11
353.4358097145241
 21
-476.2649353937235
 31
0.0
  0
LINE
  5
10D
330
1F
100
AcDbEntity
  8
0-0
  6
JWW_DASHED1
 62
   120
370
     5
100
AcDbLine
 10
443.4358097145138
 20
-386.2649353937329
 30
0.0
 11
693.4358097145183
 21
-136.2649353937283
 31
0.0
  0
LINE
  5
10E
330
1F
100
AcDbEntity
  8
0-0
  6
JWW_DASHED1
 62
   120
370
     5
100
AcDbLine
 10
103.4358097145161
 20
-719.1938675804466
 30
0.0
 11
353.4358097145206
 21
-469.1938675804423
 31
0.0
  0
LINE
  5
10F
330
1F
100
AcDbEntity
  8
0-0
  6
JWW_DASHED1
 62
   120
370
     5
100
AcDbLine
 10
443.4358097145104
 20
-379.1938675804516
 30
0.0
 11
693.4358097145149
 21
-129.1938675804471
 31
0.0
  0
LINE
  5
110
330
1F
100
AcDbEntity
  8
0-0
  6
JWW_DASHED1
 62
   120
370
     5
100
AcDbLine
 10
103.4358097145076
 20
-712.122799767224
 30
0.0
 11
353.4358097145121
 21
-462.1227997672199
 31
0.0
  0
LINE
  5
111
330
1F
100
AcDbEntity
  8
0-0
  6
JWW_DASHED1
 62
   120
370
     5
100
AcDbLine
 10
443.4358097145172
 20
-372.1227997672131
 30
0.0
 11
693.4358097145064
 21
-122.1227997672247
 31
0.0
  0
LINE
  5
112
330
1F
100
AcDbEntity
  8
0-0
  6
JWW_DASHED1
 62
   120
370
     5
100
AcDbLine
 10
103.4358097145024
 20
-705.0517319539427
 30
0.0
 11
353.435809714507
 21
-455.0517319539387
 31
0.0
  0
LINE
  5
113
330
1F
100
AcDbEntity
  8
0-0
  6
JWW_DASHED1
 62
   120
370
     5
100
AcDbLine
 10
443.4358097145138
 20
-365.0517319539318
 30
0.0
 11
693.435809714503
 21
-115.0517319539435
 31
0.0
  0
LINE
  5
114
330
1F
100
AcDbEntity
  8
0-0
  6
JWW_DASHED1
 62
   120
370
     5
100
AcDbLine
 10
103.435809714499
 20
-697.9806641406614
 30
0.0
 11
353.4358097145036
 21
-447.980664140657
 31
0.0
  0
LINE
  5
115
330
1F
100
AcDbEntity
  8
0-0
  6
JWW_DASHED1
 62
   120
370
     5
100
AcDbLine
 10
443.4358097145104
 20
-357.9806641406506
 30
0.0
 11
693.4358097144979
 21
-107.9806641406618
 31
0.0
  0
LINE
  5
116
330
1F
100
AcDbEntity
  8
0-0
  6
JWW_DASHED1
 62
   120
370
     5
100
AcDbLine
 10
103.4358097144956
 20
-690.9095963273786
 30
0.0
 11
353.4358097145019
 21
-440.9095963273724
 31
0.0
  0
LINE
  5
117
330
1F
100
AcDbEntity
  8
0-0
  6
JWW_DASHED1
 62
   120
370
     5
100
AcDbLine
 10
443.4358097145104
 20
-350.9095963273643
 30
0.0
 11
693.4358097145013
 21
-100.9095963273738
 31
0.0
  0
LINE
  5
118
330
1F
100
AcDbEntity
  8
0-0
  6
JWW_DASHED1
 62
   120
370
     5
100
AcDbLine
 10
103.4358097144922
 20
-683.8385285140972
 30
0.0
 11
353.4358097145138
 21
-433.8385285140749
 31
0.0
  0
LINE
  5
119
330
1F
100
AcDbEntity
  8
0-0
  6
JWW_DASHED1
 62
   120
370
     5
100
AcDbLine
 10
443.435809714507
 20
-343.8385285140831
 30
0.0
 11
693.4358097144979
 21
-93.83852851409216
 31
0.0
  0
LINE
  5
11A
330
1F
100
AcDbEntity
  8
0-0
  6
JWW_DASHED1
 62
   120
370
     5
100
AcDbLine
 10
103.4358097145024
 20
-676.7674607008013
 30
0.0
 11
353.4358097145223
 21
-426.7674607007814
 31
0.0
  0
LINE
  5
11B
330
1F
100
AcDbEntity
  8
0-0
  6
JWW_DASHED1
 62
   120
370
     5
100
AcDbLine
 10
443.4358097145138
 20
-336.7674607007908
 30
0.0
 11
693.4358097145183
 21
-86.76746070078622
 31
0.0
  0
LINE
  5
11C
330
1F
100
AcDbEntity
  8
0-0
  6
JWW_DASHED1
 62
   120
370
     5
100
AcDbLine
 10
103.4358097145144
 20
-669.6963928875041
 30
0.0
 11
353.4358097145189
 21
-419.6963928875002
 31
0.0
  0
LINE
  5
11D
330
1F
100
AcDbEntity
  8
0-0
  6
JWW_DASHED1
 62
   120
370
     5
100
AcDbLine
 10
443.4358097145087
 20
-329.6963928875091
 30
0.0
 11
693.4358097145132
 21
-79.69639288750457
 31
0.0
  0
LINE
  5
11E
330
1F
100
AcDbEntity
  8
0-0
  6
JWW_DASHED1
 62
   120
370
     5
100
AcDbLine
 10
103.4358097145093
 20
-662.6253250742228
 30
0.0
 11
353.4358097145138
 21
-412.6253250742185
 31
0.0
  0
LINE
  5
11F
330
1F
100
AcDbEntity
  8
0-0
  6
JWW_DASHED1
 62
   120
370
     5
100
AcDbLine
 10
443.4358097145053
 20
-322.6253250742279
 30
0.0
 11
693.4358097145098
 21
-72.62532507422293
 31
0.0
  0
LINE
  5
120
330
1F
100
AcDbEntity
  8
0-0
  6
JWW_DASHED1
 62
   120
370
     5
100
AcDbLine
 10
103.4358097145059
 20
-655.5542572609414
 30
0.0
 11
353.4358097145104
 21
-405.5542572609373
 31
0.0
  0
LINE
  5
121
330
1F
100
AcDbEntity
  8
0-0
  6
JWW_DASHED1
 62
   120
370
     5
100
AcDbLine
 10
443.4358097145172
 20
-315.5542572609301
 30
0.0
 11
693.4358097145064
 21
-65.55425726094171
 31
0.0
  0
LINE
  5
122
330
1F
100
AcDbEntity
  8
0-0
  6
JWW_DASHED1
 62
   120
370
     5
100
AcDbLine
 10
103.4358097144973
 20
-648.4831894477188
 30
0.0
 11
353.4358097145019
 21
-398.4831894477145
 31
0.0
  0
LINE
  5
123
330
1F
100
AcDbEntity
  8
0-0
  6
JWW_DASHED1
 62
   120
370
     5
100
AcDbLine
 10
443.4358097145087
 20
-308.4831894477077
 30
0.0
 11
693.4358097144979
 21
-58.48318944771933
 31
0.0
  0
LINE
  5
124
330
1F
100
AcDbEntity
  8
0-0
  6
JWW_DASHED1
 62
   120
370
     5
100
AcDbLine
 10
103.4358097144956
 20
-641.4121216344357
 30
0.0
 11
353.4358097145019
 21
-391.4121216344295
 31
0.0
  0
LINE
  5
125
330
1F
100
AcDbEntity
  8
0-0
  6
JWW_DASHED1
 62
   120
370
     5
100
AcDbLine
 10
443.4358097145104
 20
-301.4121216344213
 30
0.0
 11
693.4358097144996
 21
-51.41212163443086
 31
0.0
  0
LINE
  5
126
330
1F
100
AcDbEntity
  8
0-0
  6
JWW_DASHED1
 62
   120
370
     5
100
AcDbLine
 10
-87.27516878027139
 20
-825.0520323159176
 30
0.0
 11
-86.5641902855004
 21
-824.341053821145
 31
0.0
  0
LINE
  5
127
330
1F
100
AcDbEntity
  8
0-0
  6
JWW_DASHED1
 62
   120
370
     5
100
AcDbLine
 10
103.4358097144905
 20
-634.3410538211542
 30
0.0
 11
353.4358097145138
 21
-384.341053821132
 31
0.0
  0
LINE
  5
128
330
1F
100
AcDbEntity
  8
0-0
  6
JWW_DASHED1
 62
   120
370
     5
100
AcDbLine
 10
443.4358097145053
 20
-294.3410538211401
 30
0.0
 11
693.4358097144961
 21
-44.34105382114922
 31
0.0
  0
LINE
  5
129
330
1F
100
AcDbEntity
  8
0-0
  6
JWW_DASHED1
 62
   120
370
     5
100
AcDbLine
 10
-94.34623659357051
 20
-825.0520323159296
 30
0.0
 11
-86.56419028548846
 21
-817.2699860078479
 31
0.0
  0
LINE
  5
12A
330
1F
100
AcDbEntity
  8
0-0
  6
JWW_DASHED1
 62
   120
370
     5
100
AcDbLine
 10
103.4358097145161
 20
-627.269986007843
 30
0.0
 11
353.4358097145206
 21
-377.2699860078384
 31
0.0
  0
LINE
  5
12B
330
1F
100
AcDbEntity
  8
0-0
  6
JWW_DASHED1
 62
   120
370
     5
100
AcDbLine
 10
443.4358097145121
 20
-287.2699860078478
 30
0.0
 11
693.4358097145166
 21
-37.2699860078437
 31
0.0
  0
LINE
  5
12C
330
1F
100
AcDbEntity
  8
0-0
  6
JWW_DASHED1
 62
   120
370
     5
100
AcDbLine
 10
-101.4173044068509
 20
-825.052032315926
 30
0.0
 11
-86.56419028549188
 21
-810.1989181945668
 31
0.0
  0
LINE
  5
12D
330
1F
100
AcDbEntity
  8
0-0
  6
JWW_DASHED1
 62
   120
370
     5
100
AcDbLine
 10
103.4358097145127
 20
-620.1989181945618
 30
0.0
 11
353.4358097145172
 21
-370.1989181945572
 31
0.0
  0
LINE
  5
12E
330
1F
100
AcDbEntity
  8
0-0
  6
JWW_DASHED1
 62
   120
370
     5
100
AcDbLine
 10
443.4358097145087
 20
-280.1989181945666
 30
0.0
 11
693.4358097145115
 21
-30.19891819456205
 31
0.0
  0
LINE
  5
12F
330
1F
100
AcDbEntity
  8
0-0
  6
JWW_DASHED1
 62
   120
370
     5
100
AcDbLine
 10
-108.4883722201329
 20
-825.0520323159224
 30
0.0
 11
-86.56419028549529
 21
-803.1278503812852
 31
0.0
  0
LINE
  5
130
330
1F
100
AcDbEntity
  8
0-0
  6
JWW_DASHED1
 62
   120
370
     5
100
AcDbLine
 10
103.4358097145093
 20
-613.1278503812804
 30
0.0
 11
353.4358097145138
 21
-363.127850381276
 31
0.0
  0
LINE
  5
131
330
1F
100
AcDbEntity
  8
0-0
  6
JWW_DASHED1
 62
   120
370
     5
100
AcDbLine
 10
443.4358097145189
 20
-273.1278503812696
 30
0.0
 11
693.4358097145081
 21
-23.12785038128084
 31
0.0
  0
LINE
  5
132
330
1F
100
AcDbEntity
  8
0-0
  6
JWW_DASHED1
 62
   120
370
     5
100
AcDbLine
 10
-115.5594400334287
 20
-825.0520323159326
 30
0.0
 11
-86.56419028548505
 21
-796.0567825679881
 31
0.0
  0
LINE
  5
133
330
1F
100
AcDbEntity
  8
0-0
  6
JWW_DASHED1
 62
   120
370
     5
100
AcDbLine
 10
103.4358097145041
 20
-606.0567825679989
 30
0.0
 11
353.4358097145087
 21
-356.0567825679948
 31
0.0
  0
LINE
  5
134
330
1F
100
AcDbEntity
  8
0-0
  6
JWW_DASHED1
 62
   120
370
     5
100
AcDbLine
 10
443.4358097145155
 20
-266.056782567988
 30
0.0
 11
693.4358097145047
 21
-16.05678256799962
 31
0.0
  0
LINE
  5
135
330
1F
100
AcDbEntity
  8
0-0
  6
JWW_DASHED1
 62
   120
370
     5
100
AcDbLine
 10
-122.6305078467107
 20
-825.0520323159283
 30
0.0
 11
-86.56419028548846
 21
-788.9857147547067
 31
0.0
  0
LINE
  5
136
330
1F
100
AcDbEntity
  8
0-0
  6
JWW_DASHED1
 62
   120
370
     5
100
AcDbLine
 10
103.4358097145007
 20
-598.9857147547175
 30
0.0
 11
353.4358097145053
 21
-348.9857147547132
 31
0.0
  0
LINE
  5
137
330
1F
100
AcDbEntity
  8
0-0
  6
JWW_DASHED1
 62
   120
370
     5
100
AcDbLine
 10
443.4358097145121
 20
-258.9857147547067
 30
0.0
 11
693.4358097144996
 21
-8.985714754717975
 31
0.0
  0
LINE
  5
138
330
1F
100
AcDbEntity
  8
0-0
  6
JWW_DASHED1
 62
   120
370
     5
100
AcDbLine
 10
-129.7015756599911
 20
-825.0520323159241
 30
0.0
 11
-86.56419028549188
 21
-781.9146469414248
 31
0.0
  0
LINE
  5
139
330
1F
100
AcDbEntity
  8
0-0
  6
JWW_DASHED1
 62
   120
370
     5
100
AcDbLine
 10
103.435809714499
 20
-591.914646941434
 30
0.0
 11
353.4358097145053
 21
-341.9146469414272
 31
0.0
  0
LINE
  5
13A
330
1F
100
AcDbEntity
  8
0-0
  6
JWW_DASHED1
 62
   120
370
     5
100
AcDbLine
 10
443.4358097145121
 20
-251.91464694142
 30
0.0
 11
693.435809714503
 21
-1.914646941428657
 31
0.0
  0
LINE
  5
13B
330
1F
100
AcDbEntity
  8
0-0
  6
JWW_DASHED1
 62
   120
370
     5
100
AcDbLine
 10
-136.7726434732322
 20
-825.0520323159345
 30
0.0
 11
-86.56419028548505
 21
-774.8435791281869
 31
0.0
  0
LINE
  5
13C
330
1F
100
AcDbEntity
  8
0-0
  6
JWW_DASHED1
 62
   120
370
     5
100
AcDbLine
 10
103.4358097145041
 20
-584.8435791281979
 30
0.0
 11
353.4358097145241
 21
-334.8435791281776
 31
0.0
  0
LINE
  5
13D
330
1F
100
AcDbEntity
  8
0-0
  6
JWW_DASHED1
 62
   120
370
     5
100
AcDbLine
 10
443.4358097145155
 20
-244.8435791281869
 30
0.0
 11
693.435809714503
 21
5.156420871801402
 31
0.0
  0
LINE
  5
13E
330
1F
100
AcDbEntity
  8
0-0
  6
JWW_DASHED1
 62
   120
370
     5
100
AcDbLine
 10
-143.8437112865143
 20
-825.0520323159309
 30
0.0
 11
-86.56419028548846
 21
-767.7725113149054
 31
0.0
  0
LINE
  5
13F
330
1F
100
AcDbEntity
  8
0-0
  6
JWW_DASHED1
 62
   120
370
     5
100
AcDbLine
 10
103.4358097145161
 20
-577.7725113149005
 30
0.0
 11
353.4358097145206
 21
-327.7725113148963
 31
0.0
  0
LINE
  5
140
330
1F
100
AcDbEntity
  8
0-0
  6
JWW_DASHED1
 62
   120
370
     5
100
AcDbLine
 10
443.4358097145104
 20
-237.7725113149057
 30
0.0
 11
693.4358097145149
 21
12.22748868509882
 31
0.0
  0
LINE
  5
141
330
1F
100
AcDbEntity
  8
0-0
  6
JWW_DASHED1
 62
   120
370
     5
100
AcDbLine
 10
-150.9147790997964
 20
-825.052032315927
 30
0.0
 11
-86.56419028549358
 21
-760.7014435016242
 31
0.0
  0
LINE
  5
142
330
1F
100
AcDbEntity
  8
0-0
  6
JWW_DASHED1
 62
   120
370
     5
100
AcDbLine
 10
103.435809714511
 20
-570.7014435016192
 30
0.0
 11
353.4358097145155
 21
-320.7014435016151
 31
0.0
  0
LINE
  5
143
330
1F
100
AcDbEntity
  8
0-0
  6
JWW_DASHED1
 62
   120
370
     5
100
AcDbLine
 10
443.435809714507
 20
-230.7014435016237
 30
0.0
 11
693.4358097145115
 21
19.29855649838046
 31
0.0
  0
LINE
  5
144
330
1F
100
AcDbEntity
  8
0-0
  6
JWW_DASHED1
 62
   120
370
     5
100
AcDbLine
 10
-157.9858469130784
 20
-825.0520323159232
 30
0.0
 11
-86.56419028549699
 21
-753.6303756883428
 31
0.0
  0
LINE
  5
145
330
1F
100
AcDbEntity
  8
0-0
  6
JWW_DASHED1
 62
   120
370
     5
100
AcDbLine
 10
103.4358097145076
 20
-563.6303756883376
 30
0.0
 11
353.4358097145121
 21
-313.6303756883331
 31
0.0
  0
LINE
  5
146
330
1F
100
AcDbEntity
  8
0-0
  6
JWW_DASHED1
 62
   120
370
     5
100
AcDbLine
 10
443.4358097145189
 20
-223.6303756883271
 30
0.0
 11
693.4358097145064
 21
26.36962431166168
 31
0.0
  0
LINE
  5
147
330
1F
100
AcDbEntity
  8
0-0
  6
JWW_DASHED1
 62
   120
370
     5
100
AcDbLine
 10
-165.0569147263707
 20
-825.0520323159304
 30
0.0
 11
-86.56419028548505
 21
-746.5593078750455
 31
0.0
  0
LINE
  5
148
330
1F
100
AcDbEntity
  8
0-0
  6
JWW_DASHED1
 62
   120
370
     5
100
AcDbLine
 10
103.4358097145024
 20
-556.5593078750564
 30
0.0
 11
353.435809714507
 21
-306.5593078750522
 31
0.0
  0
LINE
  5
149
330
1F
100
AcDbEntity
  8
0-0
  6
JWW_DASHED1
 62
   120
370
     5
100
AcDbLine
 10
443.4358097145138
 20
-216.5593078750454
 30
0.0
 11
693.435809714503
 21
33.4406921249429
 31
0.0
  0
LINE
  5
14A
330
1F
100
AcDbEntity
  8
0-0
  6
JWW_DASHED1
 62
   120
370
     5
100
AcDbLine
 10
-172.1279825396528
 20
-825.0520323159262
 30
0.0
 11
-86.56419028549017
 21
-739.4882400617641
 31
0.0
  0
LINE
  5
14B
330
1F
100
AcDbEntity
  8
0-0
  6
JWW_DASHED1
 62
   120
370
     5
100
AcDbLine
 10
103.435809714499
 20
-549.488240061775
 30
0.0
 11
353.4358097145036
 21
-299.4882400617706
 31
0.0
  0
LINE
  5
14C
330
1F
100
AcDbEntity
  8
0-0
  6
JWW_DASHED1
 62
   120
370
     5
100
AcDbLine
 10
443.4358097145104
 20
-209.4882400617642
 30
0.0
 11
693.4358097144979
 21
40.51175993822454
 31
0.0
  0
LINE
  5
14D
330
1F
100
AcDbEntity
  8
0-0
  6
JWW_DASHED1
 62
   120
370
     5
100
AcDbLine
 10
-179.1990503529383
 20
-825.0520323159278
 30
0.0
 11
-86.56419028549358
 21
-732.4171722484818
 31
0.0
  0
LINE
  5
14E
330
1F
100
AcDbEntity
  8
0-0
  6
JWW_DASHED1
 62
   120
370
     5
100
AcDbLine
 10
103.4358097144973
 20
-542.4171722484909
 30
0.0
 11
353.4358097145053
 21
-292.4171722484843
 31
0.0
  0
LINE
  5
14F
330
1F
100
AcDbEntity
  8
0-0
  6
JWW_DASHED1
 62
   120
370
     5
100
AcDbLine
 10
443.4358097145121
 20
-202.417172248477
 30
0.0
 11
693.435809714503
 21
47.58282775151429
 31
0.0
  0
LINE
  5
150
330
1F
100
AcDbEntity
  8
0-0
  6
JWW_DASHED1
 62
   120
370
     5
100
AcDbLine
 10
-186.2701181662204
 20
-825.0520323159241
 30
0.0
 11
-86.56419028549699
 21
-725.3461044352005
 31
0.0
  0
LINE
  5
151
330
1F
100
AcDbEntity
  8
0-0
  6
JWW_DASHED1
 62
   120
370
     5
100
AcDbLine
 10
103.4358097144939
 20
-535.3461044352096
 30
0.0
 11
353.4358097145155
 21
-285.3461044351873
 31
0.0
  0
LINE
  5
152
330
1F
100
AcDbEntity
  8
0-0
  6
JWW_DASHED1
 62
   120
370
     5
100
AcDbLine
 10
443.4358097145087
 20
-195.3461044351954
 30
0.0
 11
693.4358097144979
 21
54.6538955647955
 31
0.0
  0
LINE
  5
153
330
1F
100
AcDbEntity
  8
0-0
  6
JWW_DASHED1
 62
   120
370
     5
100
AcDbLine
 10
-193.3411859795178
 20
-825.052032315936
 30
0.0
 11
-86.56419028548676
 21
-718.2750366219041
 31
0.0
  0
LINE
  5
154
330
1F
100
AcDbEntity
  8
0-0
  6
JWW_DASHED1
 62
   120
370
     5
100
AcDbLine
 10
103.4358097145024
 20
-528.2750366219149
 30
0.0
 11
353.4358097145223
 21
-278.275036621895
 31
0.0
  0
LINE
  5
155
330
1F
100
AcDbEntity
  8
0-0
  6
JWW_DASHED1
 62
   120
370
     5
100
AcDbLine
 10
443.4358097145138
 20
-188.275036621904
 30
0.0
 11
693.4358097145183
 21
61.7249633781006
 31
0.0
  0
LINE
  5
156
330
1F
100
AcDbEntity
  8
0-0
  6
JWW_DASHED1
 62
   120
370
     5
100
AcDbLine
 10
-200.4122537927998
 20
-825.0520323159324
 30
0.0
 11
-86.56419028549017
 21
-711.2039688086229
 31
0.0
  0
LINE
  5
157
330
1F
100
AcDbEntity
  8
0-0
  6
JWW_DASHED1
 62
   120
370
     5
100
AcDbLine
 10
103.4358097145144
 20
-521.2039688086179
 30
0.0
 11
353.4358097145189
 21
-271.2039688086134
 31
0.0
  0
LINE
  5
158
330
1F
100
AcDbEntity
  8
0-0
  6
JWW_DASHED1
 62
   120
370
     5
100
AcDbLine
 10
443.4358097145104
 20
-181.2039688086227
 30
0.0
 11
693.4358097145149
 21
68.79603119138181
 31
0.0
  0
LINE
  5
159
330
1F
100
AcDbEntity
  8
0-0
  6
JWW_DASHED1
 62
   120
370
     5
100
AcDbLine
 10
-207.4833216060308
 20
-825.0520323159324
 30
0.0
 11
-86.56419028548335
 21
-704.1329009953843
 31
0.0
  0
LINE
  5
15A
330
1F
100
AcDbEntity
  8
0-0
  6
JWW_DASHED1
 62
   120
370
     5
100
AcDbLine
 10
103.4358097145059
 20
-514.1329009953953
 30
0.0
 11
353.4358097145104
 21
-264.132900995391
 31
0.0
  0
LINE
  5
15B
330
1F
100
AcDbEntity
  8
0-0
  6
JWW_DASHED1
 62
   120
370
     5
100
AcDbLine
 10
443.4358097145172
 20
-174.1329009953846
 30
0.0
 11
693.4358097145047
 21
75.8670990046042
 31
0.0
  0
LINE
  5
15C
330
1F
100
AcDbEntity
  8
0-0
  6
JWW_DASHED1
 62
   120
370
     5
100
AcDbLine
 10
-214.5543894193128
 20
-825.0520323159283
 30
0.0
 11
-86.56419028548676
 21
-697.0618331821031
 31
0.0
  0
LINE
  5
15D
330
1F
100
AcDbEntity
  8
0-0
  6
JWW_DASHED1
 62
   120
370
     5
100
AcDbLine
 10
103.4358097145024
 20
-507.0618331821139
 30
0.0
 11
353.435809714507
 21
-257.0618331821098
 31
0.0
  0
LINE
  5
15E
330
1F
100
AcDbEntity
  8
0-0
  6
JWW_DASHED1
 62
   120
370
     5
100
AcDbLine
 10
443.4358097145138
 20
-167.0618331821029
 30
0.0
 11
693.4358097145013
 21
82.93816681788542
 31
0.0
  0
LINE
  5
15F
330
1F
100
AcDbEntity
  8
0-0
  6
JWW_DASHED1
 62
   120
370
     5
100
AcDbLine
 10
-221.6254572325932
 20
-825.0520323159241
 30
0.0
 11
-86.56419028549188
 21
-689.9907653688216
 31
0.0
  0
LINE
  5
160
330
1F
100
AcDbEntity
  8
0-0
  6
JWW_DASHED1
 62
   120
370
     5
100
AcDbLine
 10
103.4358097144973
 20
-499.9907653688325
 30
0.0
 11
353.4358097145019
 21
-249.9907653688281
 31
0.0
  0
LINE
  5
161
330
1F
100
AcDbEntity
  8
0-0
  6
JWW_DASHED1
 62
   120
370
     5
100
AcDbLine
 10
443.4358097145087
 20
-159.9907653688217
 30
0.0
 11
693.4358097144979
 21
90.00923463116663
 31
0.0
  0
LINE
  5
162
330
1F
100
AcDbEntity
  8
0-0
  6
JWW_DASHED1
 62
   120
370
     5
100
AcDbLine
 10
-228.6965250458838
 20
-825.052032315929
 30
0.0
 11
-86.56419028549358
 21
-682.919697555539
 31
0.0
  0
LINE
  5
163
330
1F
100
AcDbEntity
  8
0-0
  6
JWW_DASHED1
 62
   120
370
     5
100
AcDbLine
 10
103.4358097144973
 20
-492.9196975555481
 30
0.0
 11
353.4358097145036
 21
-242.9196975555413
 31
0.0
  0
LINE
  5
164
330
1F
100
AcDbEntity
  8
0-0
  6
JWW_DASHED1
 62
   120
370
     5
100
AcDbLine
 10
443.4358097145104
 20
-152.9196975555341
 30
0.0
 11
693.4358097145013
 21
97.08030244445723
 31
0.0
  0
LINE
  5
165
330
1F
100
AcDbEntity
  8
0-0
  6
JWW_DASHED1
 62
   120
370
     5
100
AcDbLine
 10
-235.7675928591659
 20
-825.0520323159249
 30
0.0
 11
-86.5641902854987
 21
-675.8486297422575
 31
0.0
  0
LINE
  5
166
330
1F
100
AcDbEntity
  8
0-0
  6
JWW_DASHED1
 62
   120
370
     5
100
AcDbLine
 10
103.4358097144922
 20
-485.8486297422668
 30
0.0
 11
353.4358097145155
 21
-235.8486297422444
 31
0.0
  0
LINE
  5
167
330
1F
100
AcDbEntity
  8
0-0
  6
JWW_DASHED1
 62
   120
370
     5
100
AcDbLine
 10
443.435809714507
 20
-145.8486297422525
 30
0.0
 11
693.4358097144979
 21
104.1513702577384
 31
0.0
  0
LINE
  5
168
330
1F
100
AcDbEntity
  8
0-0
  6
JWW_DASHED1
 62
   120
370
     5
100
AcDbLine
 10
-242.8386606724633
 20
-825.052032315937
 30
0.0
 11
-86.56419028548846
 21
-668.7775619289616
 31
0.0
  0
LINE
  5
169
330
1F
100
AcDbEntity
  8
0-0
  6
JWW_DASHED1
 62
   120
370
     5
100
AcDbLine
 10
103.4358097145024
 20
-478.7775619289724
 30
0.0
 11
353.4358097145223
 21
-228.7775619289525
 31
0.0
  0
LINE
  5
16A
330
1F
100
AcDbEntity
  8
0-0
  6
JWW_DASHED1
 62
   120
370
     5
100
AcDbLine
 10
443.4358097145121
 20
-138.7775619289619
 30
0.0
 11
693.4358097145166
 21
111.2224380710427
 31
0.0
  0
LINE
  5
16B
330
1F
100
AcDbEntity
  8
0-0
  6
JWW_DASHED1
 62
   120
370
     5
100
AcDbLine
 10
-249.9097284857453
 20
-825.0520323159334
 30
0.0
 11
-86.56419028549188
 21
-661.7064941156804
 31
0.0
  0
LINE
  5
16C
330
1F
100
AcDbEntity
  8
0-0
  6
JWW_DASHED1
 62
   120
370
     5
100
AcDbLine
 10
103.4358097145127
 20
-471.7064941156754
 30
0.0
 11
353.4358097145172
 21
-221.7064941156713
 31
0.0
  0
LINE
  5
16D
330
1F
100
AcDbEntity
  8
0-0
  6
JWW_DASHED1
 62
   120
370
     5
100
AcDbLine
 10
443.4358097145087
 20
-131.7064941156802
 30
0.0
 11
693.4358097145132
 21
118.2935058843243
 31
0.0
  0
LINE
  5
16E
330
1F
100
AcDbEntity
  8
0-0
  6
JWW_DASHED1
 62
   120
370
     5
100
AcDbLine
 10
-256.9807962990274
 20
-825.0520323159296
 30
0.0
 11
-86.56419028549529
 21
-654.635426302399
 31
0.0
  0
LINE
  5
16F
330
1F
100
AcDbEntity
  8
0-0
  6
JWW_DASHED1
 62
   120
370
     5
100
AcDbLine
 10
103.4358097145093
 20
-464.6354263023942
 30
0.0
 11
353.4358097145138
 21
-214.6354263023892
 31
0.0
  0
LINE
  5
170
330
1F
100
AcDbEntity
  8
0-0
  6
JWW_DASHED1
 62
   120
370
     5
100
AcDbLine
 10
443.4358097145036
 20
-124.635426302399
 30
0.0
 11
693.4358097145081
 21
125.3645736976056
 31
0.0
  0
LINE
  5
171
330
1F
100
AcDbEntity
  8
0-0
  6
JWW_DASHED1
 62
   120
370
     5
100
AcDbLine
 10
-264.0518641123129
 20
-825.0520323159304
 30
0.0
 11
-86.56419028548505
 21
-647.5643584891018
 31
0.0
  0
LINE
  5
172
330
1F
100
AcDbEntity
  8
0-0
  6
JWW_DASHED1
 62
   120
370
     5
100
AcDbLine
 10
103.4358097145059
 20
-457.5643584891125
 30
0.0
 11
353.4358097145087
 21
-207.5643584891084
 31
0.0
  0
LINE
  5
173
330
1F
100
AcDbEntity
  8
0-0
  6
JWW_DASHED1
 62
   120
370
     5
100
AcDbLine
 10
443.4358097145172
 20
-117.5643584891012
 30
0.0
 11
693.4358097145047
 21
132.4356415108872
 31
0.0
  0
LINE
  5
174
330
1F
100
AcDbEntity
  8
0-0
  6
JWW_DASHED1
 62
   120
370
     5
100
AcDbLine
 10
-271.1229319255353
 20
-825.0520323159219
 30
0.0
 11
-86.56419028549188
 21
-640.4932906758792
 31
0.0
  0
LINE
  5
175
330
1F
100
AcDbEntity
  8
0-0
  6
JWW_DASHED1
 62
   120
370
     5
100
AcDbLine
 10
103.4358097144973
 20
-450.4932906758901
 30
0.0
 11
353.4358097145002
 21
-200.493290675886
 31
0.0
  0
LINE
  5
176
330
1F
100
AcDbEntity
  8
0-0
  6
JWW_DASHED1
 62
   120
370
     5
100
AcDbLine
 10
443.435809714507
 20
-110.4932906758792
 30
0.0
 11
693.4358097144961
 21
139.5067093241096
 31
0.0
  0
LINE
  5
177
330
1F
100
AcDbEntity
  8
0-0
  6
JWW_DASHED1
 62
   120
370
     5
100
AcDbLine
 10
-278.1939997388293
 20
-825.0520323159296
 30
0.0
 11
-86.56419028549529
 21
-633.422222862596
 31
0.0
  0
LINE
  5
178
330
1F
100
AcDbEntity
  8
0-0
  6
JWW_DASHED1
 62
   120
370
     5
100
AcDbLine
 10
103.4358097144956
 20
-443.4222228626051
 30
0.0
 11
353.4358097145036
 21
-193.4222228625984
 31
0.0
  0
LINE
  5
179
330
1F
100
AcDbEntity
  8
0-0
  6
JWW_DASHED1
 62
   120
370
     5
100
AcDbLine
 10
443.4358097145104
 20
-103.4222228625912
 30
0.0
 11
693.4358097145013
 21
146.5777771374002
 31
0.0
  0
LINE
  5
17A
330
1F
100
AcDbEntity
  8
0-0
  6
JWW_DASHED1
 62
   120
370
     5
100
AcDbLine
 10
-285.2650675521114
 20
-825.0520323159262
 30
0.0
 11
-86.5641902854987
 21
-626.3511550493146
 31
0.0
  0
LINE
  5
17B
330
1F
100
AcDbEntity
  8
0-0
  6
JWW_DASHED1
 62
   120
370
     5
100
AcDbLine
 10
103.4358097144922
 20
-436.3511550493234
 30
0.0
 11
353.4358097145138
 21
-186.3511550493014
 31
0.0
  0
LINE
  5
17C
330
1F
100
AcDbEntity
  8
0-0
  6
JWW_DASHED1
 62
   120
370
     5
100
AcDbLine
 10
443.435809714507
 20
-96.35115504930951
 30
0.0
 11
693.4358097144979
 21
153.6488449506814
 31
0.0
  0
LINE
  5
17D
330
1F
100
AcDbEntity
  8
0-0
  6
JWW_DASHED1
 62
   120
370
     5
100
AcDbLine
 10
-292.3361353654071
 20
-825.052032315938
 30
0.0
 11
-86.56419028548846
 21
-619.2800872360191
 31
0.0
  0
LINE
  5
17E
330
1F
100
AcDbEntity
  8
0-0
  6
JWW_DASHED1
 62
   120
370
     5
100
AcDbLine
 10
103.4358097145007
 20
-429.2800872360299
 30
0.0
 11
353.4358097145206
 21
-179.28008723601
 31
0.0
  0
LINE
  5
17F
330
1F
100
AcDbEntity
  8
0-0
  6
JWW_DASHED1
 62
   120
370
     5
100
AcDbLine
 10
443.4358097145121
 20
-89.28008723601891
 30
0.0
 11
693.4358097145149
 21
160.7199127639848
 31
0.0
  0
LINE
  5
180
330
1F
100
AcDbEntity
  8
0-0
  6
JWW_DASHED1
 62
   120
370
     5
100
AcDbLine
 10
-299.4072031786891
 20
-825.0520323159345
 30
0.0
 11
-86.56419028549358
 21
-612.2090194227378
 31
0.0
  0
LINE
  5
181
330
1F
100
AcDbEntity
  8
0-0
  6
JWW_DASHED1
 62
   120
370
     5
100
AcDbLine
 10
103.4358097145127
 20
-422.2090194227329
 30
0.0
 11
353.4358097145155
 21
-172.2090194227287
 31
0.0
  0
LINE
  5
182
330
1F
100
AcDbEntity
  8
0-0
  6
JWW_DASHED1
 62
   120
370
     5
100
AcDbLine
 10
443.435809714507
 20
-82.2090194227377
 30
0.0
 11
693.4358097145115
 21
167.7909805772669
 31
0.0
  0
LINE
  5
183
330
1F
100
AcDbEntity
  8
0-0
  6
JWW_DASHED1
 62
   120
370
     5
100
AcDbLine
 10
-306.4782709919712
 20
-825.0520323159307
 30
0.0
 11
-86.56419028549699
 21
-605.1379516094562
 31
0.0
  0
LINE
  5
184
330
1F
100
AcDbEntity
  8
0-0
  6
JWW_DASHED1
 62
   120
370
     5
100
AcDbLine
 10
103.4358097145076
 20
-415.1379516094516
 30
0.0
 11
353.4358097145121
 21
-165.1379516094471
 31
0.0
  0
LINE
  5
185
330
1F
100
AcDbEntity
  8
0-0
  6
JWW_DASHED1
 62
   120
370
     5
100
AcDbLine
 10
443.4358097145036
 20
-75.13795160945648
 30
0.0
 11
693.4358097145081
 21
174.8620483905481
 31
0.0
  0
LINE
  5
186
330
1F
100
AcDbEntity
  8
0-0
  6
JWW_DASHED1
 62
   120
370
     5
100
AcDbLine
 10
-313.549338805255
 20
-825.0520323159283
 30
0.0
 11
-86.56419028548505
 21
-598.0668837961592
 31
0.0
  0
LINE
  5
187
330
1F
100
AcDbEntity
  8
0-0
  6
JWW_DASHED1
 62
   120
370
     5
100
AcDbLine
 10
103.4358097145041
 20
-408.06688379617
 30
0.0
 11
353.4358097145087
 21
-158.0668837961659
 31
0.0
  0
LINE
  5
188
330
1F
100
AcDbEntity
  8
0-0
  6
JWW_DASHED1
 62
   120
370
     5
100
AcDbLine
 10
443.4358097145155
 20
-68.06688379615906
 30
0.0
 11
693.435809714503
 21
181.9331162038293
 31
0.0
  0
LINE
  5
189
330
1F
100
AcDbEntity
  8
0-0
  6
JWW_DASHED1
 62
   120
370
     5
100
AcDbLine
 10
-320.6204066185354
 20
-825.0520323159243
 30
0.0
 11
-86.56419028549017
 21
-590.9958159828777
 31
0.0
  0
LINE
  5
18A
330
1F
100
AcDbEntity
  8
0-0
  6
JWW_DASHED1
 62
   120
370
     5
100
AcDbLine
 10
103.435809714499
 20
-400.9958159828888
 30
0.0
 11
353.4358097145036
 21
-150.9958159828842
 31
0.0
  0
LINE
  5
18B
330
1F
100
AcDbEntity
  8
0-0
  6
JWW_DASHED1
 62
   120
370
     5
100
AcDbLine
 10
443.4358097145104
 20
-60.99581598287784
 30
0.0
 11
693.4358097144996
 21
189.0041840171109
 31
0.0
  0
LINE
  5
18C
330
1F
100
AcDbEntity
  8
0-0
  6
JWW_DASHED1
 62
   120
370
     5
100
AcDbLine
 10
-327.6914744318174
 20
-825.05203231592
 30
0.0
 11
-86.56419028549188
 21
-583.9247481695942
 31
0.0
  0
LINE
  5
18D
330
1F
100
AcDbEntity
  8
0-0
  6
JWW_DASHED1
 62
   120
370
     5
100
AcDbLine
 10
103.435809714499
 20
-393.9247481696029
 30
0.0
 11
353.435809714507
 21
-143.9247481695966
 31
0.0
  0
LINE
  5
18E
330
1F
100
AcDbEntity
  8
0-0
  6
JWW_DASHED1
 62
   120
370
     5
100
AcDbLine
 10
443.4358097145138
 20
-53.92474816958895
 30
0.0
 11
693.4358097145047
 21
196.075251830402
 31
0.0
  0
LINE
  5
18F
330
1F
100
AcDbEntity
  8
0-0
  6
JWW_DASHED1
 62
   120
370
     5
100
AcDbLine
 10
-334.7625422450705
 20
-825.052032315943
 30
0.0
 11
-86.56419028548676
 21
-576.8536803563579
 31
0.0
  0
LINE
  5
190
330
1F
100
AcDbEntity
  8
0-0
  6
JWW_DASHED1
 62
   120
370
     5
100
AcDbLine
 10
103.4358097145024
 20
-386.853680356369
 30
0.0
 11
353.4358097145223
 21
-136.8536803563491
 31
0.0
  0
LINE
  5
191
330
1F
100
AcDbEntity
  8
0-0
  6
JWW_DASHED1
 62
   120
370
     5
100
AcDbLine
 10
443.4358097145138
 20
-46.85368035635804
 30
0.0
 11
693.435809714503
 21
203.1463196436307
 31
0.0
  0
LINE
  5
192
330
1F
100
AcDbEntity
  8
0-0
  6
JWW_DASHED1
 62
   120
370
     5
100
AcDbLine
 10
-336.5641902854794
 20
-819.7826125430657
 30
0.0
 11
-86.56419028549017
 21
-569.7826125430765
 31
0.0
  0
LINE
  5
193
330
1F
100
AcDbEntity
  8
0-0
  6
JWW_DASHED1
 62
   120
370
     5
100
AcDbLine
 10
103.4358097145144
 20
-379.782612543072
 30
0.0
 11
353.4358097145189
 21
-129.7826125430674
 31
0.0
  0
LINE
  5
194
330
1F
100
AcDbEntity
  8
0-0
  6
JWW_DASHED1
 62
   120
370
     5
100
AcDbLine
 10
443.4358097145104
 20
-39.78261254307682
 30
0.0
 11
693.4358097145149
 21
210.2173874569277
 31
0.0
  0
LINE
  5
195
330
1F
100
AcDbEntity
  8
0-0
  6
JWW_DASHED1
 62
   120
370
     5
100
AcDbLine
 10
-336.5641902854828
 20
-812.7115447297841
 30
0.0
 11
-86.56419028549358
 21
-562.7115447297954
 31
0.0
  0
LINE
  5
196
330
1F
100
AcDbEntity
  8
0-0
  6
JWW_DASHED1
 62
   120
370
     5
100
AcDbLine
 10
103.435809714511
 20
-372.7115447297904
 30
0.0
 11
353.4358097145155
 21
-122.7115447297862
 31
0.0
  0
LINE
  5
197
330
1F
100
AcDbEntity
  8
0-0
  6
JWW_DASHED1
 62
   120
370
     5
100
AcDbLine
 10
443.4358097145053
 20
-32.71154472979518
 30
0.0
 11
693.4358097145098
 21
217.2884552702094
 31
0.0
  0
LINE
  5
198
330
1F
100
AcDbEntity
  8
0-0
  6
JWW_DASHED1
 62
   120
370
     5
100
AcDbLine
 10
-336.5641902854879
 20
-805.6404769165028
 30
0.0
 11
-86.5641902854987
 21
-555.6404769165139
 31
0.0
  0
LINE
  5
199
330
1F
100
AcDbEntity
  8
0-0
  6
JWW_DASHED1
 62
   120
370
     5
100
AcDbLine
 10
103.4358097145059
 20
-365.6404769165091
 30
0.0
 11
353.4358097145104
 21
-115.6404769165046
 31
0.0
  0
LINE
  5
19A
330
1F
100
AcDbEntity
  8
0-0
  6
JWW_DASHED1
 62
   120
370
     5
100
AcDbLine
 10
443.4358097145172
 20
-25.64047691649819
 30
0.0
 11
693.4358097145064
 21
224.3595230834906
 31
0.0
  0
LINE
  5
19B
330
1F
100
AcDbEntity
  8
0-0
  6
JWW_DASHED1
 62
   120
370
     5
100
AcDbLine
 10
-336.5641902854913
 20
-798.5694091032215
 30
0.0
 11
-86.56419028548676
 21
-548.5694091032167
 31
0.0
  0
LINE
  5
19C
330
1F
100
AcDbEntity
  8
0-0
  6
JWW_DASHED1
 62
   120
370
     5
100
AcDbLine
 10
103.4358097145024
 20
-358.5694091032275
 30
0.0
 11
353.435809714507
 21
-108.5694091032234
 31
0.0
  0
LINE
  5
19D
330
1F
100
AcDbEntity
  8
0-0
  6
JWW_DASHED1
 62
   120
370
     5
100
AcDbLine
 10
443.4358097145138
 20
-18.56940910321654
 30
0.0
 11
693.4358097145013
 21
231.4305908967722
 31
0.0
  0
LINE
  5
19E
330
1F
100
AcDbEntity
  8
0-0
  6
JWW_DASHED1
 62
   120
370
     5
100
AcDbLine
 10
-336.5641902854964
 20
-791.4983412899401
 30
0.0
 11
-86.56419028549017
 21
-541.4983412899353
 31
0.0
  0
LINE
  5
19F
330
1F
100
AcDbEntity
  8
0-0
  6
JWW_DASHED1
 62
   120
370
     5
100
AcDbLine
 10
103.435809714499
 20
-351.4983412899463
 30
0.0
 11
353.4358097145019
 21
-101.4983412899421
 31
0.0
  0
LINE
  5
1A0
330
1F
100
AcDbEntity
  8
0-0
  6
JWW_DASHED1
 62
   120
370
     5
100
AcDbLine
 10
443.4358097145087
 20
-11.49834128993533
 30
0.0
 11
693.4358097144979
 21
238.5016587100534
 31
0.0
  0
LINE
  5
1A1
330
1F
100
AcDbEntity
  8
0-0
  6
JWW_DASHED1
 62
   120
370
     5
100
AcDbLine
 10
-336.5641902854828
 20
-784.4272734766424
 30
0.0
 11
-86.56419028549188
 21
-534.4272734766513
 31
0.0
  0
LINE
  5
1A2
330
1F
100
AcDbEntity
  8
0-0
  6
JWW_DASHED1
 62
   120
370
     5
100
AcDbLine
 10
103.435809714499
 20
-344.4272734766599
 30
0.0
 11
353.4358097145053
 21
-94.42727347665368
 31
0.0
  0
LINE
  5
1A3
330
1F
100
AcDbEntity
  8
0-0
  6
JWW_DASHED1
 62
   120
370
     5
100
AcDbLine
 10
443.4358097145138
 20
-4.427273476646008
 30
0.0
 11
693.4358097145047
 21
245.5727265233449
 31
0.0
  0
LINE
  5
1A4
330
1F
100
AcDbEntity
  8
0-0
  6
JWW_DASHED1
 62
   120
370
     5
100
AcDbLine
 10
-336.5641902854879
 20
-777.3562056633609
 30
0.0
 11
-86.56419028549529
 21
-527.3562056633696
 31
0.0
  0
LINE
  5
1A5
330
1F
100
AcDbEntity
  8
0-0
  6
JWW_DASHED1
 62
   120
370
     5
100
AcDbLine
 10
103.4358097144956
 20
-337.3562056633787
 30
0.0
 11
353.4358097145019
 21
-87.35620566337204
 31
0.0
  0
LINE
  5
1A6
330
1F
100
AcDbEntity
  8
0-0
  6
JWW_DASHED1
 62
   120
370
     5
100
AcDbLine
 10
443.4358097145087
 20
2.64379433663521
 30
0.0
 11
693.4358097144996
 21
252.6437943366261
 31
0.0
  0
LINE
  5
1A7
330
1F
100
AcDbEntity
  8
0-0
  6
JWW_DASHED1
 62
   120
370
     5
100
AcDbLine
 10
-336.5641902854759
 20
-770.2851378500642
 30
0.0
 11
-86.56419028548676
 21
-520.2851378500752
 31
0.0
  0
LINE
  5
1A8
330
1F
100
AcDbEntity
  8
0-0
  6
JWW_DASHED1
 62
   120
370
     5
100
AcDbLine
 10
103.4358097145024
 20
-330.285137850086
 30
0.0
 11
353.4358097145223
 21
-80.28513785006567
 31
0.0
  0
LINE
  5
1A9
330
1F
100
AcDbEntity
  8
0-0
  6
JWW_DASHED1
 62
   120
370
     5
100
AcDbLine
 10
443.4358097145138
 20
9.714862149924954
 30
0.0
 11
693.4358097145166
 21
259.7148621499291
 31
0.0
  0
LINE
  5
1AA
330
1F
100
AcDbEntity
  8
0-0
  6
JWW_DASHED1
 62
   120
370
     5
100
AcDbLine
 10
-336.5641902854845
 20
-763.2140700368416
 30
0.0
 11
-86.56419028549529
 21
-513.2140700368528
 31
0.0
  0
LINE
  5
1AB
330
1F
100
AcDbEntity
  8
0-0
  6
JWW_DASHED1
 62
   120
370
     5
100
AcDbLine
 10
103.4358097145093
 20
-323.2140700368478
 30
0.0
 11
353.4358097145138
 21
-73.21407003684371
 31
0.0
  0
LINE
  5
1AC
330
1F
100
AcDbEntity
  8
0-0
  6
JWW_DASHED1
 62
   120
370
     5
100
AcDbLine
 10
443.4358097145053
 20
16.78592996314734
 30
0.0
 11
693.4358097145081
 21
266.7859299631519
 31
0.0
  0
LINE
  5
1AD
330
1F
100
AcDbEntity
  8
0-0
  6
JWW_DASHED1
 62
   120
370
     5
100
AcDbLine
 10
-336.5641902854896
 20
-756.1430022235604
 30
0.0
 11
-86.56419028548335
 21
-506.1430022235556
 31
0.0
  0
LINE
  5
1AE
330
1F
100
AcDbEntity
  8
0-0
  6
JWW_DASHED1
 62
   120
370
     5
100
AcDbLine
 10
103.4358097145059
 20
-316.1430022235666
 30
0.0
 11
353.4358097145104
 21
-66.14300222356206
 31
0.0
  0
LINE
  5
1AF
330
1F
100
AcDbEntity
  8
0-0
  6
JWW_DASHED1
 62
   120
370
     5
100
AcDbLine
 10
443.4358097145155
 20
23.85699777644433
 30
0.0
 11
693.4358097145047
 21
273.8569977764331
 31
0.0
  0
LINE
  5
1B0
330
1F
100
AcDbEntity
  8
0-0
  6
JWW_DASHED1
 62
   120
370
     5
100
AcDbLine
 10
-336.564190285493
 20
-749.0719344102789
 30
0.0
 11
-86.56419028548846
 21
-499.0719344102741
 31
0.0
  0
LINE
  5
1B1
330
1F
100
AcDbEntity
  8
0-0
  6
JWW_DASHED1
 62
   120
370
     5
100
AcDbLine
 10
103.4358097145007
 20
-309.0719344102849
 30
0.0
 11
353.4358097145053
 21
-59.07193441028085
 31
0.0
  0
LINE
  5
1B2
330
1F
100
AcDbEntity
  8
0-0
  6
JWW_DASHED1
 62
   120
370
     5
100
AcDbLine
 10
443.4358097145121
 20
30.92806558972597
 30
0.0
 11
693.4358097145013
 21
280.9280655897143
 31
0.0
  0
LINE
  5
1B3
330
1F
100
AcDbEntity
  8
0-0
  6
JWW_DASHED1
 62
   120
370
     5
100
AcDbLine
 10
-336.5641902854964
 20
-742.0008665969975
 30
0.0
 11
-86.56419028549188
 21
-492.000866596993
 31
0.0
  0
LINE
  5
1B4
330
1F
100
AcDbEntity
  8
0-0
  6
JWW_DASHED1
 62
   120
370
     5
100
AcDbLine
 10
103.4358097144973
 20
-302.0008665970038
 30
0.0
 11
353.4358097145019
 21
-52.0008665969992
 31
0.0
  0
LINE
  5
1B5
330
1F
100
AcDbEntity
  8
0-0
  6
JWW_DASHED1
 62
   120
370
     5
100
AcDbLine
 10
443.4358097145087
 20
37.99913340300719
 30
0.0
 11
693.4358097144961
 21
287.999133402996
 31
0.0
  0
LINE
  5
1B6
330
1F
100
AcDbEntity
  8
0-0
  6
JWW_DASHED1
 62
   120
370
     5
100
AcDbLine
 10
-426.6864238177118
 20
-825.0520323159262
 30
0.0
 11
-426.5641902854913
 21
-824.9297987837069
 31
0.0
  0
LINE
  5
1B7
330
1F
100
AcDbEntity
  8
0-0
  6
JWW_DASHED1
 62
   120
370
     5
100
AcDbLine
 10
-336.5641902854845
 20
-734.9297987836994
 30
0.0
 11
-86.56419028549358
 21
-484.9297987837083
 31
0.0
  0
LINE
  5
1B8
330
1F
100
AcDbEntity
  8
0-0
  6
JWW_DASHED1
 62
   120
370
     5
100
AcDbLine
 10
103.4358097144973
 20
-294.9297987837174
 30
0.0
 11
353.4358097145053
 21
-44.92979878371074
 31
0.0
  0
LINE
  5
1B9
330
1F
100
AcDbEntity
  8
0-0
  6
JWW_DASHED1
 62
   120
370
     5
100
AcDbLine
 10
443.4358097145121
 20
45.07020121629694
 30
0.0
 11
693.435809714503
 21
295.0702012162878
 31
0.0
  0
LINE
  5
1BA
330
1F
100
AcDbEntity
  8
0-0
  6
JWW_DASHED1
 62
   120
370
     5
100
AcDbLine
 10
-433.7574916309922
 20
-825.0520323159221
 30
0.0
 11
-426.5641902854964
 21
-817.8587309704253
 31
0.0
  0
LINE
  5
1BB
330
1F
100
AcDbEntity
  8
0-0
  6
JWW_DASHED1
 62
   120
370
     5
100
AcDbLine
 10
-336.5641902854879
 20
-727.858730970418
 30
0.0
 11
-86.56419028549699
 21
-477.8587309704267
 31
0.0
  0
LINE
  5
1BC
330
1F
100
AcDbEntity
  8
0-0
  6
JWW_DASHED1
 62
   120
370
     5
100
AcDbLine
 10
103.4358097144939
 20
-287.8587309704358
 30
0.0
 11
353.4358097145172
 21
-37.85873097041332
 31
0.0
  0
LINE
  5
1BD
330
1F
100
AcDbEntity
  8
0-0
  6
JWW_DASHED1
 62
   120
370
     5
100
AcDbLine
 10
443.4358097145087
 20
52.14126902957815
 30
0.0
 11
693.4358097144996
 21
302.1412690295691
 31
0.0
  0
LINE
  5
1BE
330
1F
100
AcDbEntity
  8
0-0
  6
JWW_DASHED1
 62
   120
370
     5
100
AcDbLine
 10
-440.8285594442896
 20
-825.0520323159336
 30
0.0
 11
-426.5641902854845
 21
-810.7876631571282
 31
0.0
  0
LINE
  5
1BF
330
1F
100
AcDbEntity
  8
0-0
  6
JWW_DASHED1
 62
   120
370
     5
100
AcDbLine
 10
-336.5641902854777
 20
-720.7876631571219
 30
0.0
 11
-86.56419028548846
 21
-470.7876631571327
 31
0.0
  0
LINE
  5
1C0
330
1F
100
AcDbEntity
  8
0-0
  6
JWW_DASHED1
 62
   120
370
     5
100
AcDbLine
 10
103.4358097145007
 20
-280.7876631571439
 30
0.0
 11
353.4358097145206
 21
-30.78766315712357
 31
0.0
  0
LINE
  5
1C1
330
1F
100
AcDbEntity
  8
0-0
  6
JWW_DASHED1
 62
   120
370
     5
100
AcDbLine
 10
443.4358097145121
 20
59.21233684286705
 30
0.0
 11
693.4358097145166
 21
309.2123368428716
 31
0.0
  0
LINE
  5
1C2
330
1F
100
AcDbEntity
  8
0-0
  6
JWW_DASHED1
 62
   120
370
     5
100
AcDbLine
 10
-447.8996272575717
 20
-825.0520323159296
 30
0.0
 11
-426.5641902854879
 21
-803.7165953438471
 31
0.0
  0
LINE
  5
1C3
330
1F
100
AcDbEntity
  8
0-0
  6
JWW_DASHED1
 62
   120
370
     5
100
AcDbLine
 10
-336.5641902854811
 20
-713.7165953438403
 30
0.0
 11
-86.56419028549188
 21
-463.7165953438515
 31
0.0
  0
LINE
  5
1C4
330
1F
100
AcDbEntity
  8
0-0
  6
JWW_DASHED1
 62
   120
370
     5
100
AcDbLine
 10
103.4358097145127
 20
-273.7165953438465
 30
0.0
 11
353.4358097145172
 21
-23.71659534384236
 31
0.0
  0
LINE
  5
1C5
330
1F
100
AcDbEntity
  8
0-0
  6
JWW_DASHED1
 62
   120
370
     5
100
AcDbLine
 10
443.435809714507
 20
66.28340465614869
 30
0.0
 11
693.4358097145115
 21
316.2834046561528
 31
0.0
  0
LINE
  5
1C6
330
1F
100
AcDbEntity
  8
0-0
  6
JWW_DASHED1
 62
   120
370
     5
100
AcDbLine
 10
-454.9706950708657
 20
-825.0520323159392
 30
0.0
 11
-426.5641902854759
 21
-796.6455275305497
 31
0.0
  0
LINE
  5
1C7
330
1F
100
AcDbEntity
  8
0-0
  6
JWW_DASHED1
 62
   120
370
     5
100
AcDbLine
 10
-336.5641902854862
 20
-706.645527530559
 30
0.0
 11
-86.56419028549699
 21
-456.6455275305698
 31
0.0
  0
LINE
  5
1C8
330
1F
100
AcDbEntity
  8
0-0
  6
JWW_DASHED1
 62
   120
370
     5
100
AcDbLine
 10
103.4358097145076
 20
-266.6455275305652
 30
0.0
 11
353.4358097145121
 21
-16.64552753056071
 31
0.0
  0
LINE
  5
1C9
330
1F
100
AcDbEntity
  8
0-0
  6
JWW_DASHED1
 62
   120
370
     5
100
AcDbLine
 10
443.4358097145036
 20
73.35447246943033
 30
0.0
 11
693.4358097145081
 21
323.354472469434
 31
0.0
  0
LINE
  5
1CA
330
1F
100
AcDbEntity
  8
0-0
  6
JWW_DASHED1
 62
   120
370
     5
100
AcDbLine
 10
-462.0417628840898
 20
-825.0520323159326
 30
0.0
 11
-426.5641902854845
 21
-789.5744597173273
 31
0.0
  0
LINE
  5
1CB
330
1F
100
AcDbEntity
  8
0-0
  6
JWW_DASHED1
 62
   120
370
     5
100
AcDbLine
 10
-336.5641902854947
 20
-699.5744597173364
 30
0.0
 11
-86.56419028548846
 21
-449.5744597173316
 31
0.0
  0
LINE
  5
1CC
330
1F
100
AcDbEntity
  8
0-0
  6
JWW_DASHED1
 62
   120
370
     5
100
AcDbLine
 10
103.435809714499
 20
-259.5744597173424
 30
0.0
 11
353.4358097145036
 21
-9.574459717338328
 31
0.0
  0
LINE
  5
1CD
330
1F
100
AcDbEntity
  8
0-0
  6
JWW_DASHED1
 62
   120
370
     5
100
AcDbLine
 10
443.4358097145104
 20
80.42554028266849
 30
0.0
 11
693.4358097144996
 21
330.4255402826568
 31
0.0
  0
LINE
  5
1CE
330
1F
100
AcDbEntity
  8
0-0
  6
JWW_DASHED1
 62
   120
370
     5
100
AcDbLine
 10
-469.1128306973719
 20
-825.0520323159283
 30
0.0
 11
-426.5641902854896
 21
-782.503391904046
 31
0.0
  0
LINE
  5
1CF
330
1F
100
AcDbEntity
  8
0-0
  6
JWW_DASHED1
 62
   120
370
     5
100
AcDbLine
 10
-336.5641902854981
 20
-692.5033919040552
 30
0.0
 11
-86.56419028549358
 21
-442.5033919040504
 31
0.0
  0
LINE
  5
1D0
330
1F
100
AcDbEntity
  8
0-0
  6
JWW_DASHED1
 62
   120
370
     5
100
AcDbLine
 10
103.4358097144956
 20
-252.5033919040612
 30
0.0
 11
353.4358097145002
 21
-2.503391904056684
 31
0.0
  0
LINE
  5
1D1
330
1F
100
AcDbEntity
  8
0-0
  6
JWW_DASHED1
 62
   120
370
     5
100
AcDbLine
 10
443.435809714507
 20
87.49660809594971
 30
0.0
 11
693.4358097144944
 21
337.4966080959385
 31
0.0
  0
LINE
  5
1D2
330
1F
100
AcDbEntity
  8
0-0
  6
JWW_DASHED1
 62
   120
370
     5
100
AcDbLine
 10
-476.1838985106522
 20
-825.0520323159243
 30
0.0
 11
-426.564190285493
 21
-775.4323240907639
 31
0.0
  0
LINE
  5
1D3
330
1F
100
AcDbEntity
  8
0-0
  6
JWW_DASHED1
 62
   120
370
     5
100
AcDbLine
 10
-336.5641902854845
 20
-685.4323240907565
 30
0.0
 11
-86.56419028549358
 21
-435.432324090765
 31
0.0
  0
LINE
  5
1D4
330
1F
100
AcDbEntity
  8
0-0
  6
JWW_DASHED1
 62
   120
370
     5
100
AcDbLine
 10
103.4358097144973
 20
-245.4323240907745
 30
0.0
 11
353.4358097145036
 21
4.567675909232207
 31
0.0
  0
LINE
  5
1D5
330
1F
100
AcDbEntity
  8
0-0
  6
JWW_DASHED1
 62
   120
370
     5
100
AcDbLine
 10
443.4358097145104
 20
94.56767590923988
 30
0.0
 11
693.4358097145013
 21
344.5676759092308
 31
0.0
  0
LINE
  5
1D6
330
1F
100
AcDbEntity
  8
0-0
  6
JWW_DASHED1
 62
   120
370
     5
100
AcDbLine
 10
-483.2549663239343
 20
-825.05203231592
 30
0.0
 11
-426.5641902854964
 21
-768.3612562774825
 31
0.0
  0
LINE
  5
1D7
330
1F
100
AcDbEntity
  8
0-0
  6
JWW_DASHED1
 62
   120
370
     5
100
AcDbLine
 10
-336.5641902854896
 20
-678.361256277475
 30
0.0
 11
-86.5641902854987
 21
-428.3612562774837
 31
0.0
  0
LINE
  5
1D8
330
1F
100
AcDbEntity
  8
0-0
  6
JWW_DASHED1
 62
   120
370
     5
100
AcDbLine
 10
103.4358097144922
 20
-238.3612562774928
 30
0.0
 11
353.4358097145155
 21
11.63874372252963
 31
0.0
  0
LINE
  5
1D9
330
1F
100
AcDbEntity
  8
0-0
  6
JWW_DASHED1
 62
   120
370
     5
100
AcDbLine
 10
443.435809714507
 20
101.6387437225211
 30
0.0
 11
693.4358097144979
 21
351.638743722512
 31
0.0
  0
LINE
  5
1DA
330
1F
100
AcDbEntity
  8
0-0
  6
JWW_DASHED1
 62
   120
370
     5
100
AcDbLine
 10
-490.3260341372317
 20
-825.0520323159313
 30
0.0
 11
-426.5641902854862
 21
-761.2901884641858
 31
0.0
  0
LINE
  5
1DB
330
1F
100
AcDbEntity
  8
0-0
  6
JWW_DASHED1
 62
   120
370
     5
100
AcDbLine
 10
-336.5641902854794
 20
-671.2901884641793
 30
0.0
 11
-86.56419028549017
 21
-421.2901884641906
 31
0.0
  0
LINE
  5
1DC
330
1F
100
AcDbEntity
  8
0-0
  6
JWW_DASHED1
 62
   120
370
     5
100
AcDbLine
 10
103.435809714499
 20
-231.2901884642014
 30
0.0
 11
353.4358097145189
 21
18.70981153581894
 31
0.0
  0
LINE
  5
1DD
330
1F
100
AcDbEntity
  8
0-0
  6
JWW_DASHED1
 62
   120
370
     5
100
AcDbLine
 10
443.4358097145104
 20
108.7098115358096
 30
0.0
 11
693.4358097145149
 21
358.7098115358141
 31
0.0
  0
LINE
  5
1DE
330
1F
100
AcDbEntity
  8
0-0
  6
JWW_DASHED1
 62
   120
370
     5
100
AcDbLine
 10
-497.3971019505121
 20
-825.0520323159275
 30
0.0
 11
-426.5641902854896
 21
-754.2191206509045
 31
0.0
  0
LINE
  5
1DF
330
1F
100
AcDbEntity
  8
0-0
  6
JWW_DASHED1
 62
   120
370
     5
100
AcDbLine
 10
-336.5641902854828
 20
-664.2191206508979
 30
0.0
 11
-86.56419028549358
 21
-414.219120650909
 31
0.0
  0
LINE
  5
1E0
330
1F
100
AcDbEntity
  8
0-0
  6
JWW_DASHED1
 62
   120
370
     5
100
AcDbLine
 10
103.435809714511
 20
-224.219120650904
 30
0.0
 11
353.4358097145155
 21
25.78087934910059
 31
0.0
  0
LINE
  5
1E1
330
1F
100
AcDbEntity
  8
0-0
  6
JWW_DASHED1
 62
   120
370
     5
100
AcDbLine
 10
443.435809714507
 20
115.7808793490912
 30
0.0
 11
693.4358097145115
 21
365.7808793490958
 31
0.0
  0
LINE
  5
1E2
330
1F
100
AcDbEntity
  8
0-0
  6
JWW_DASHED1
 62
   120
370
     5
100
AcDbLine
 10
-504.4681697638044
 20
-825.0520323159341
 30
0.0
 11
-426.5641902854777
 21
-747.1480528376073
 31
0.0
  0
LINE
  5
1E3
330
1F
100
AcDbEntity
  8
0-0
  6
JWW_DASHED1
 62
   120
370
     5
100
AcDbLine
 10
-336.5641902854862
 20
-657.1480528376164
 30
0.0
 11
-86.5641902854987
 21
-407.1480528376273
 31
0.0
  0
LINE
  5
1E4
330
1F
100
AcDbEntity
  8
0-0
  6
JWW_DASHED1
 62
   120
370
     5
100
AcDbLine
 10
103.4358097145076
 20
-217.1480528376227
 30
0.0
 11
353.4358097145104
 21
32.8519471623818
 31
0.0
  0
LINE
  5
1E5
330
1F
100
AcDbEntity
  8
0-0
  6
JWW_DASHED1
 62
   120
370
     5
100
AcDbLine
 10
443.4358097145019
 20
122.8519471623724
 30
0.0
 11
693.4358097145064
 21
372.851947162377
 31
0.0
  0
LINE
  5
1E6
330
1F
100
AcDbEntity
  8
0-0
  6
JWW_DASHED1
 62
   120
370
     5
100
AcDbLine
 10
-511.5392375770865
 20
-825.0520323159294
 30
0.0
 11
-426.5641902854828
 21
-740.076985024326
 31
0.0
  0
LINE
  5
1E7
330
1F
100
AcDbEntity
  8
0-0
  6
JWW_DASHED1
 62
   120
370
     5
100
AcDbLine
 10
-336.5641902854913
 20
-650.076985024335
 30
0.0
 11
-86.56419028548676
 21
-400.0769850243303
 31
0.0
  0
LINE
  5
1E8
330
1F
100
AcDbEntity
  8
0-0
  6
JWW_DASHED1
 62
   120
370
     5
100
AcDbLine
 10
103.4358097145024
 20
-210.0769850243411
 30
0.0
 11
353.435809714507
 21
39.92301497566302
 31
0.0
  0
LINE
  5
1E9
330
1F
100
AcDbEntity
  8
0-0
  6
JWW_DASHED1
 62
   120
370
     5
100
AcDbLine
 10
443.4358097145138
 20
129.9230149756698
 30
0.0
 11
693.435809714503
 21
379.9230149756582
 31
0.0
  0
LINE
  5
1EA
330
1F
100
AcDbEntity
  8
0-0
  6
JWW_DASHED1
 62
   120
370
     5
100
AcDbLine
 10
-518.610305390372
 20
-825.0520323159307
 30
0.0
 11
-426.5641902854862
 21
-733.0059172110444
 31
0.0
  0
LINE
  5
1EB
330
1F
100
AcDbEntity
  8
0-0
  6
JWW_DASHED1
 62
   120
370
     5
100
AcDbLine
 10
-336.5641902854947
 20
-643.0059172110537
 30
0.0
 11
-86.56419028549017
 21
-393.0059172110491
 31
0.0
  0
LINE
  5
1EC
330
1F
100
AcDbEntity
  8
0-0
  6
JWW_DASHED1
 62
   120
370
     5
100
AcDbLine
 10
103.435809714499
 20
-203.0059172110595
 30
0.0
 11
353.4358097145036
 21
46.99408278894467
 31
0.0
  0
LINE
  5
1ED
330
1F
100
AcDbEntity
  8
0-0
  6
JWW_DASHED1
 62
   120
370
     5
100
AcDbLine
 10
443.4358097145104
 20
136.9940827889511
 30
0.0
 11
693.4358097144979
 21
386.9940827889394
 31
0.0
  0
LINE
  5
1EE
330
1F
100
AcDbEntity
  8
0-0
  6
JWW_DASHED1
 62
   120
370
     5
100
AcDbLine
 10
-525.6813732035944
 20
-825.0520323159221
 30
0.0
 11
-426.564190285493
 21
-725.9348493978213
 31
0.0
  0
LINE
  5
1EF
330
1F
100
AcDbEntity
  8
0-0
  6
JWW_DASHED1
 62
   120
370
     5
100
AcDbLine
 10
-336.5641902854862
 20
-635.9348493978138
 30
0.0
 11
-86.56419028549529
 21
-385.9348493978224
 31
0.0
  0
LINE
  5
1F0
330
1F
100
AcDbEntity
  8
0-0
  6
JWW_DASHED1
 62
   120
370
     5
100
AcDbLine
 10
103.4358097144956
 20
-195.9348493978315
 30
0.0
 11
353.4358097145036
 21
54.06515060217515
 31
0.0
  0
LINE
  5
1F1
330
1F
100
AcDbEntity
  8
0-0
  6
JWW_DASHED1
 62
   120
370
     5
100
AcDbLine
 10
443.4358097145104
 20
144.0651506021828
 30
0.0
 11
693.4358097145013
 21
394.0651506021737
 31
0.0
  0
LINE
  5
1F2
330
1F
100
AcDbEntity
  8
0-0
  6
JWW_DASHED1
 62
   120
370
     5
100
AcDbLine
 10
-532.7524410168918
 20
-825.0520323159336
 30
0.0
 11
-426.5641902854828
 21
-718.8637815845249
 31
0.0
  0
LINE
  5
1F3
330
1F
100
AcDbEntity
  8
0-0
  6
JWW_DASHED1
 62
   120
370
     5
100
AcDbLine
 10
-336.5641902854759
 20
-628.863781584518
 30
0.0
 11
-86.56419028548676
 21
-378.8637815845293
 31
0.0
  0
LINE
  5
1F4
330
1F
100
AcDbEntity
  8
0-0
  6
JWW_DASHED1
 62
   120
370
     5
100
AcDbLine
 10
103.4358097145024
 20
-188.8637815845401
 30
0.0
 11
353.4358097145223
 21
61.13621841548024
 31
0.0
  0
LINE
  5
1F5
330
1F
100
AcDbEntity
  8
0-0
  6
JWW_DASHED1
 62
   120
370
     5
100
AcDbLine
 10
443.4358097145138
 20
151.1362184154709
 30
0.0
 11
693.4358097145013
 21
401.1362184154592
 31
0.0
  0
LINE
  5
1F6
330
1F
100
AcDbEntity
  8
0-0
  6
JWW_DASHED1
 62
   120
370
     5
100
AcDbLine
 10
-539.8235088301739
 20
-825.0520323159296
 30
0.0
 11
-426.5641902854862
 21
-711.7927137712433
 31
0.0
  0
LINE
  5
1F7
330
1F
100
AcDbEntity
  8
0-0
  6
JWW_DASHED1
 62
   120
370
     5
100
AcDbLine
 10
-336.5641902854794
 20
-621.7927137712368
 30
0.0
 11
-86.56419028549188
 21
-371.7927137712476
 31
0.0
  0
LINE
  5
1F8
330
1F
100
AcDbEntity
  8
0-0
  6
JWW_DASHED1
 62
   120
370
     5
100
AcDbLine
 10
103.4358097145144
 20
-181.7927137712431
 30
0.0
 11
353.4358097145189
 21
68.20728622876146
 31
0.0
  0
LINE
  5
1F9
330
1F
100
AcDbEntity
  8
0-0
  6
JWW_DASHED1
 62
   120
370
     5
100
AcDbLine
 10
443.4358097145087
 20
158.2072862287521
 30
0.0
 11
693.4358097145132
 21
408.2072862287566
 31
0.0
  0
LINE
  5
1FA
330
1F
100
AcDbEntity
  8
0-0
  6
JWW_DASHED1
 62
   120
370
     5
100
AcDbLine
 10
-546.8945766434542
 20
-825.0520323159253
 30
0.0
 11
-426.5641902854913
 21
-704.721645957962
 31
0.0
  0
LINE
  5
1FB
330
1F
100
AcDbEntity
  8
0-0
  6
JWW_DASHED1
 62
   120
370
     5
100
AcDbLine
 10
-336.5641902854845
 20
-614.7216459579552
 30
0.0
 11
-86.56419028549529
 21
-364.7216459579664
 31
0.0
  0
LINE
  5
1FC
330
1F
100
AcDbEntity
  8
0-0
  6
JWW_DASHED1
 62
   120
370
     5
100
AcDbLine
 10
103.4358097145093
 20
-174.7216459579614
 30
0.0
 11
353.4358097145138
 21
75.27835404204268
 31
0.0
  0
LINE
  5
1FD
330
1F
100
AcDbEntity
  8
0-0
  6
JWW_DASHED1
 62
   120
370
     5
100
AcDbLine
 10
443.4358097145053
 20
165.2783540420333
 30
0.0
 11
693.4358097145098
 21
415.2783540420378
 31
0.0
  0
LINE
  5
1FE
330
1F
100
AcDbEntity
  8
0-0
  6
JWW_DASHED1
 62
   120
370
     5
100
AcDbLine
 10
-553.9656444567431
 20
-825.0520323159287
 30
0.0
 11
-426.5641902854794
 21
-697.6505781446648
 31
0.0
  0
LINE
  5
1FF
330
1F
100
AcDbEntity
  8
0-0
  6
JWW_DASHED1
 62
   120
370
     5
100
AcDbLine
 10
-336.5641902854879
 20
-607.650578144674
 30
0.0
 11
-86.5641902854987
 21
-357.6505781446852
 31
0.0
  0
LINE
  5
200
330
1F
100
AcDbEntity
  8
0-0
  6
JWW_DASHED1
 62
   120
370
     5
100
AcDbLine
 10
103.4358097145059
 20
-167.6505781446798
 30
0.0
 11
353.4358097145104
 21
82.34942185532432
 31
0.0
  0
LINE
  5
201
330
1F
100
AcDbEntity
  8
0-0
  6
JWW_DASHED1
 62
   120
370
     5
100
AcDbLine
 10
443.4358097145172
 20
172.3494218553307
 30
0.0
 11
693.4358097145047
 21
422.3494218553191
 31
0.0
  0
LINE
  5
202
330
1F
100
AcDbEntity
  8
0-0
  6
JWW_DASHED1
 62
   120
370
     5
100
AcDbLine
 10
-561.0367122700235
 20
-825.0520323159243
 30
0.0
 11
-426.5641902854828
 21
-690.5795103313834
 31
0.0
  0
LINE
  5
203
330
1F
100
AcDbEntity
  8
0-0
  6
JWW_DASHED1
 62
   120
370
     5
100
AcDbLine
 10
-336.564190285493
 20
-600.5795103313925
 30
0.0
 11
-86.56419028548846
 21
-350.5795103313878
 31
0.0
  0
LINE
  5
204
330
1F
100
AcDbEntity
  8
0-0
  6
JWW_DASHED1
 62
   120
370
     5
100
AcDbLine
 10
103.4358097145024
 20
-160.5795103313986
 30
0.0
 11
353.4358097145053
 21
89.42048966860554
 31
0.0
  0
LINE
  5
205
330
1F
100
AcDbEntity
  8
0-0
  6
JWW_DASHED1
 62
   120
370
     5
100
AcDbLine
 10
443.4358097145121
 20
179.4204896686124
 30
0.0
 11
693.4358097145013
 21
429.4204896686011
 31
0.0
  0
LINE
  5
206
330
1F
100
AcDbEntity
  8
0-0
  6
JWW_DASHED1
 62
   120
370
     5
100
AcDbLine
 10
-568.1077800833141
 20
-825.0520323159285
 30
0.0
 11
-426.5641902854879
 21
-683.5084425181021
 31
0.0
  0
LINE
  5
207
330
1F
100
AcDbEntity
  8
0-0
  6
JWW_DASHED1
 62
   120
370
     5
100
AcDbLine
 10
-336.5641902854964
 20
-593.5084425181111
 30
0.0
 11
-86.56419028549188
 21
-343.5084425181066
 31
0.0
  0
LINE
  5
208
330
1F
100
AcDbEntity
  8
0-0
  6
JWW_DASHED1
 62
   120
370
     5
100
AcDbLine
 10
103.4358097144973
 20
-153.5084425181174
 30
0.0
 11
353.4358097145019
 21
96.49155748188718
 31
0.0
  0
LINE
  5
209
330
1F
100
AcDbEntity
  8
0-0
  6
JWW_DASHED1
 62
   120
370
     5
100
AcDbLine
 10
443.4358097145087
 20
186.4915574818936
 30
0.0
 11
693.4358097144979
 21
436.4915574818824
 31
0.0
  0
LINE
  5
20A
330
1F
100
AcDbEntity
  8
0-0
  6
JWW_DASHED1
 62
   120
370
     5
100
AcDbLine
 10
-575.1788478965944
 20
-825.0520323159244
 30
0.0
 11
-426.5641902854896
 21
-676.4373747048193
 31
0.0
  0
LINE
  5
20B
330
1F
100
AcDbEntity
  8
0-0
  6
JWW_DASHED1
 62
   120
370
     5
100
AcDbLine
 10
-336.5641902854828
 20
-586.4373747048118
 30
0.0
 11
-86.56419028549188
 21
-336.4373747048202
 31
0.0
  0
LINE
  5
20C
330
1F
100
AcDbEntity
  8
0-0
  6
JWW_DASHED1
 62
   120
370
     5
100
AcDbLine
 10
103.435809714499
 20
-146.4373747048293
 30
0.0
 11
353.435809714507
 21
103.5626252951769
 31
0.0
  0
LINE
  5
20D
330
1F
100
AcDbEntity
  8
0-0
  6
JWW_DASHED1
 62
   120
370
     5
100
AcDbLine
 10
443.4358097145138
 20
193.5626252951846
 30
0.0
 11
693.4358097145047
 21
443.5626252951755
 31
0.0
  0
LINE
  5
20E
330
1F
100
AcDbEntity
  8
0-0
  6
JWW_DASHED1
 62
   120
370
     5
100
AcDbLine
 10
-582.2499157098765
 20
-825.0520323159202
 30
0.0
 11
-426.564190285493
 21
-669.3663068915375
 31
0.0
  0
LINE
  5
20F
330
1F
100
AcDbEntity
  8
0-0
  6
JWW_DASHED1
 62
   120
370
     5
100
AcDbLine
 10
-336.5641902854862
 20
-579.3663068915304
 30
0.0
 11
-86.56419028549529
 21
-329.366306891539
 31
0.0
  0
LINE
  5
210
330
1F
100
AcDbEntity
  8
0-0
  6
JWW_DASHED1
 62
   120
370
     5
100
AcDbLine
 10
103.4358097144956
 20
-139.3663068915481
 30
0.0
 11
353.4358097145019
 21
110.6336931084586
 31
0.0
  0
LINE
  5
211
330
1F
100
AcDbEntity
  8
0-0
  6
JWW_DASHED1
 62
   120
370
     5
100
AcDbLine
 10
443.4358097145104
 20
200.6336931084658
 30
0.0
 11
693.4358097145013
 21
450.6336931084567
 31
0.0
  0
LINE
  5
212
330
1F
100
AcDbEntity
  8
0-0
  6
JWW_DASHED1
 62
   120
370
     5
100
AcDbLine
 10
-589.320983523145
 20
-825.0520323159296
 30
0.0
 11
-426.5641902854862
 21
-662.2952390782715
 31
0.0
  0
LINE
  5
213
330
1F
100
AcDbEntity
  8
0-0
  6
JWW_DASHED1
 62
   120
370
     5
100
AcDbLine
 10
-336.5641902854794
 20
-572.2952390782649
 30
0.0
 11
-86.56419028549017
 21
-322.2952390782757
 31
0.0
  0
LINE
  5
214
330
1F
100
AcDbEntity
  8
0-0
  6
JWW_DASHED1
 62
   120
370
     5
100
AcDbLine
 10
103.4358097145144
 20
-132.2952390782712
 30
0.0
 11
353.4358097145189
 21
117.7047609217334
 31
0.0
  0
LINE
  5
215
330
1F
100
AcDbEntity
  8
0-0
  6
JWW_DASHED1
 62
   120
370
     5
100
AcDbLine
 10
443.4358097145104
 20
207.704760921724
 30
0.0
 11
693.4358097145149
 21
457.7047609217286
 31
0.0
  0
LINE
  5
216
330
1F
100
AcDbEntity
  8
0-0
  6
JWW_DASHED1
 62
   120
370
     5
100
AcDbLine
 10
-596.3920513363963
 20
-825.0520323159232
 30
0.0
 11
-426.564190285493
 21
-655.2241712650195
 31
0.0
  0
LINE
  5
217
330
1F
100
AcDbEntity
  8
0-0
  6
JWW_DASHED1
 62
   120
370
     5
100
AcDbLine
 10
-336.5641902854862
 20
-565.2241712650128
 30
0.0
 11
-86.56419028549699
 21
-315.2241712650239
 31
0.0
  0
LINE
  5
218
330
1F
100
AcDbEntity
  8
0-0
  6
JWW_DASHED1
 62
   120
370
     5
100
AcDbLine
 10
103.4358097145093
 20
-125.2241712650189
 30
0.0
 11
353.4358097145121
 21
124.7758287349856
 31
0.0
  0
LINE
  5
219
330
1F
100
AcDbEntity
  8
0-0
  6
JWW_DASHED1
 62
   120
370
     5
100
AcDbLine
 10
443.4358097145036
 20
214.7758287349762
 30
0.0
 11
693.4358097145081
 21
464.7758287349808
 31
0.0
  0
LINE
  5
21A
330
1F
100
AcDbEntity
  8
0-0
  6
JWW_DASHED1
 62
   120
370
     5
100
AcDbLine
 10
-603.4631191496818
 20
-825.0520323159236
 30
0.0
 11
-426.5641902854811
 21
-648.1531034517222
 31
0.0
  0
LINE
  5
21B
330
1F
100
AcDbEntity
  8
0-0
  6
JWW_DASHED1
 62
   120
370
     5
100
AcDbLine
 10
-336.5641902854896
 20
-558.1531034517315
 30
0.0
 11
-86.5641902855004
 21
-308.1531034517423
 31
0.0
  0
LINE
  5
21C
330
1F
100
AcDbEntity
  8
0-0
  6
JWW_DASHED1
 62
   120
370
     5
100
AcDbLine
 10
103.4358097145041
 20
-118.1531034517377
 30
0.0
 11
353.4358097145087
 21
131.8468965482668
 31
0.0
  0
LINE
  5
21D
330
1F
100
AcDbEntity
  8
0-0
  6
JWW_DASHED1
 62
   120
370
     5
100
AcDbLine
 10
443.4358097145155
 20
221.8468965482737
 30
0.0
 11
693.4358097145047
 21
471.846896548262
 31
0.0
  0
LINE
  5
21E
330
1F
100
AcDbEntity
  8
0-0
  6
JWW_DASHED1
 62
   120
370
     5
100
AcDbLine
 10
-610.5341869629741
 20
-825.0520323159307
 30
0.0
 11
-426.5641902854845
 21
-641.0820356384411
 31
0.0
  0
LINE
  5
21F
330
1F
100
AcDbEntity
  8
0-0
  6
JWW_DASHED1
 62
   120
370
     5
100
AcDbLine
 10
-336.564190285493
 20
-551.0820356384501
 30
0.0
 11
-86.56419028548846
 21
-301.0820356384453
 31
0.0
  0
LINE
  5
220
330
1F
100
AcDbEntity
  8
0-0
  6
JWW_DASHED1
 62
   120
370
     5
100
AcDbLine
 10
103.4358097145007
 20
-111.0820356384561
 30
0.0
 11
353.4358097145053
 21
138.9179643615481
 31
0.0
  0
LINE
  5
221
330
1F
100
AcDbEntity
  8
0-0
  6
JWW_DASHED1
 62
   120
370
     5
100
AcDbLine
 10
443.4358097145104
 20
228.9179643615549
 30
0.0
 11
693.4358097144996
 21
478.9179643615432
 31
0.0
  0
LINE
  5
222
330
1F
100
AcDbEntity
  8
0-0
  6
JWW_DASHED1
 62
   120
370
     5
100
AcDbLine
 10
-617.6052547762562
 20
-825.0520323159262
 30
0.0
 11
-426.5641902854879
 21
-634.0109678251597
 31
0.0
  0
LINE
  5
223
330
1F
100
AcDbEntity
  8
0-0
  6
JWW_DASHED1
 62
   120
370
     5
100
AcDbLine
 10
-336.5641902854981
 20
-544.0109678251686
 30
0.0
 11
-86.56419028549358
 21
-294.010967825164
 31
0.0
  0
LINE
  5
224
330
1F
100
AcDbEntity
  8
0-0
  6
JWW_DASHED1
 62
   120
370
     5
100
AcDbLine
 10
103.4358097144956
 20
-104.0109678251748
 30
0.0
 11
353.4358097145002
 21
145.9890321748293
 31
0.0
  0
LINE
  5
225
330
1F
100
AcDbEntity
  8
0-0
  6
JWW_DASHED1
 62
   120
370
     5
100
AcDbLine
 10
443.435809714507
 20
235.9890321748361
 30
0.0
 11
693.4358097144961
 21
485.9890321748244
 31
0.0
  0
LINE
  5
226
330
1F
100
AcDbEntity
  8
0-0
  6
JWW_DASHED1
 62
   120
370
     5
100
AcDbLine
 10
-624.6763225895365
 20
-825.0520323159221
 30
0.0
 11
-426.5641902854913
 21
-626.9399000118763
 31
0.0
  0
LINE
  5
227
330
1F
100
AcDbEntity
  8
0-0
  6
JWW_DASHED1
 62
   120
370
     5
100
AcDbLine
 10
-336.5641902854828
 20
-536.9399000118689
 30
0.0
 11
-86.56419028549188
 21
-286.9399000118773
 31
0.0
  0
LINE
  5
228
330
1F
100
AcDbEntity
  8
0-0
  6
JWW_DASHED1
 62
   120
370
     5
100
AcDbLine
 10
103.435809714499
 20
-96.9399000118868
 30
0.0
 11
353.4358097145053
 21
153.0600999881199
 31
0.0
  0
LINE
  5
229
330
1F
100
AcDbEntity
  8
0-0
  6
JWW_DASHED1
 62
   120
370
     5
100
AcDbLine
 10
443.4358097145138
 20
243.0600999881275
 30
0.0
 11
693.4358097145047
 21
493.0600999881185
 31
0.0
  0
LINE
  5
22A
330
1F
100
AcDbEntity
  8
0-0
  6
JWW_DASHED1
 62
   120
370
     5
100
AcDbLine
 10
-631.7473904028186
 20
-825.0520323159177
 30
0.0
 11
-426.5641902854947
 21
-619.8688321985949
 31
0.0
  0
LINE
  5
22B
330
1F
100
AcDbEntity
  8
0-0
  6
JWW_DASHED1
 62
   120
370
     5
100
AcDbLine
 10
-336.5641902854879
 20
-529.8688321985874
 30
0.0
 11
-86.56419028549529
 21
-279.8688321985961
 31
0.0
  0
LINE
  5
22C
330
1F
100
AcDbEntity
  8
0-0
  6
JWW_DASHED1
 62
   120
370
     5
100
AcDbLine
 10
103.4358097144956
 20
-89.86883219860516
 30
0.0
 11
353.4358097145172
 21
160.1311678014173
 31
0.0
  0
LINE
  5
22D
330
1F
100
AcDbEntity
  8
0-0
  6
JWW_DASHED1
 62
   120
370
     5
100
AcDbLine
 10
443.4358097145087
 20
250.1311678014088
 30
0.0
 11
693.4358097144996
 21
500.1311678014001
 31
0.0
  0
LINE
  5
22E
330
1F
100
AcDbEntity
  8
0-0
  6
JWW_DASHED1
 62
   120
370
     5
100
AcDbLine
 10
-638.818458216116
 20
-825.0520323159296
 30
0.0
 11
-426.5641902854845
 21
-612.7977643852996
 31
0.0
  0
LINE
  5
22F
330
1F
100
AcDbEntity
  8
0-0
  6
JWW_DASHED1
 62
   120
370
     5
100
AcDbLine
 10
-336.5641902854794
 20
-522.797764385293
 30
0.0
 11
-86.56419028548846
 21
-272.7977643853038
 31
0.0
  0
LINE
  5
230
330
1F
100
AcDbEntity
  8
0-0
  6
JWW_DASHED1
 62
   120
370
     5
100
AcDbLine
 10
103.435809714499
 20
-82.79776438531457
 30
0.0
 11
353.4358097145206
 21
167.2022356147053
 31
0.0
  0
LINE
  5
231
330
1F
100
AcDbEntity
  8
0-0
  6
JWW_DASHED1
 62
   120
370
     5
100
AcDbLine
 10
443.4358097145104
 20
257.202235614696
 30
0.0
 11
693.4358097145149
 21
507.2022356147005
 31
0.0
  0
LINE
  5
232
330
1F
100
AcDbEntity
  8
0-0
  6
JWW_DASHED1
 62
   120
370
     5
100
AcDbLine
 10
-645.8895260293964
 20
-825.0520323159253
 30
0.0
 11
-426.5641902854896
 21
-605.7266965720181
 31
0.0
  0
LINE
  5
233
330
1F
100
AcDbEntity
  8
0-0
  6
JWW_DASHED1
 62
   120
370
     5
100
AcDbLine
 10
-336.5641902854828
 20
-515.7266965720115
 30
0.0
 11
-86.56419028549358
 21
-265.7266965720225
 31
0.0
  0
LINE
  5
234
330
1F
100
AcDbEntity
  8
0-0
  6
JWW_DASHED1
 62
   120
370
     5
100
AcDbLine
 10
103.435809714511
 20
-75.72669657201757
 30
0.0
 11
353.4358097145155
 21
174.2733034279865
 31
0.0
  0
LINE
  5
235
330
1F
100
AcDbEntity
  8
0-0
  6
JWW_DASHED1
 62
   120
370
     5
100
AcDbLine
 10
443.435809714507
 20
264.2733034279772
 30
0.0
 11
693.4358097145115
 21
514.2733034279818
 31
0.0
  0
LINE
  5
236
330
1F
100
AcDbEntity
  8
0-0
  6
JWW_DASHED1
 62
   120
370
     5
100
AcDbLine
 10
-652.9605938426802
 20
-825.0520323159228
 30
0.0
 11
-426.5641902854777
 21
-598.6556287587209
 31
0.0
  0
LINE
  5
237
330
1F
100
AcDbEntity
  8
0-0
  6
JWW_DASHED1
 62
   120
370
     5
100
AcDbLine
 10
-336.5641902854862
 20
-508.6556287587301
 30
0.0
 11
-86.56419028549699
 21
-258.6556287587413
 31
0.0
  0
LINE
  5
238
330
1F
100
AcDbEntity
  8
0-0
  6
JWW_DASHED1
 62
   120
370
     5
100
AcDbLine
 10
103.4358097145076
 20
-68.65562875873636
 30
0.0
 11
353.4358097145121
 21
181.3443712412682
 31
0.0
  0
LINE
  5
239
330
1F
100
AcDbEntity
  8
0-0
  6
JWW_DASHED1
 62
   120
370
     5
100
AcDbLine
 10
443.4358097145019
 20
271.3443712412588
 30
0.0
 11
693.4358097145064
 21
521.3443712412629
 31
0.0
  0
LINE
  5
23A
330
1F
100
AcDbEntity
  8
0-0
  6
JWW_DASHED1
 62
   120
370
     5
100
AcDbLine
 10
-660.0316616559162
 20
-825.0520323159285
 30
0.0
 11
-426.5641902854862
 21
-591.5845609454983
 31
0.0
  0
LINE
  5
23B
330
1F
100
AcDbEntity
  8
0-0
  6
JWW_DASHED1
 62
   120
370
     5
100
AcDbLine
 10
-336.5641902854947
 20
-501.5845609455077
 30
0.0
 11
-86.56419028549017
 21
-251.5845609455027
 31
0.0
  0
LINE
  5
23C
330
1F
100
AcDbEntity
  8
0-0
  6
JWW_DASHED1
 62
   120
370
     5
100
AcDbLine
 10
103.435809714499
 20
-61.58456094551354
 30
0.0
 11
353.4358097145036
 21
188.4154390544906
 31
0.0
  0
LINE
  5
23D
330
1F
100
AcDbEntity
  8
0-0
  6
JWW_DASHED1
 62
   120
370
     5
100
AcDbLine
 10
443.4358097145104
 20
278.4154390544974
 30
0.0
 11
693.4358097144979
 21
528.4154390544861
 31
0.0
  0
LINE
  5
23E
330
1F
100
AcDbEntity
  8
0-0
  6
JWW_DASHED1
 62
   120
370
     5
100
AcDbLine
 10
-667.1027294691966
 20
-825.0520323159243
 30
0.0
 11
-426.5641902854896
 21
-584.5134931322171
 31
0.0
  0
LINE
  5
23F
330
1F
100
AcDbEntity
  8
0-0
  6
JWW_DASHED1
 62
   120
370
     5
100
AcDbLine
 10
-336.5641902854998
 20
-494.5134931322263
 30
0.0
 11
-86.56419028549529
 21
-244.5134931322215
 31
0.0
  0
LINE
  5
240
330
1F
100
AcDbEntity
  8
0-0
  6
JWW_DASHED1
 62
   120
370
     5
100
AcDbLine
 10
103.4358097144956
 20
-54.51349313223233
 30
0.0
 11
353.4358097144985
 21
195.4865068677718
 31
0.0
  0
LINE
  5
241
330
1F
100
AcDbEntity
  8
0-0
  6
JWW_DASHED1
 62
   120
370
     5
100
AcDbLine
 10
443.4358097145053
 20
285.4865068677786
 30
0.0
 11
693.4358097144944
 21
535.4865068677674
 31
0.0
  0
LINE
  5
242
330
1F
100
AcDbEntity
  8
0-0
  6
JWW_DASHED1
 62
   120
370
     5
100
AcDbLine
 10
-674.1737972824786
 20
-825.05203231592
 30
0.0
 11
-426.5641902854913
 21
-577.4424253189334
 31
0.0
  0
LINE
  5
243
330
1F
100
AcDbEntity
  8
0-0
  6
JWW_DASHED1
 62
   120
370
     5
100
AcDbLine
 10
-336.5641902854845
 20
-487.4424253189261
 30
0.0
 11
-86.56419028549188
 21
-237.4424253189343
 31
0.0
  0
LINE
  5
244
330
1F
100
AcDbEntity
  8
0-0
  6
JWW_DASHED1
 62
   120
370
     5
100
AcDbLine
 10
103.4358097144973
 20
-47.44242531894344
 30
0.0
 11
353.4358097145053
 21
202.5575746810628
 31
0.0
  0
LINE
  5
245
330
1F
100
AcDbEntity
  8
0-0
  6
JWW_DASHED1
 62
   120
370
     5
100
AcDbLine
 10
443.4358097145121
 20
292.5575746810705
 30
0.0
 11
693.435809714503
 21
542.5575746810614
 31
0.0
  0
LINE
  5
246
330
1F
100
AcDbEntity
  8
0-0
  6
JWW_DASHED1
 62
   120
370
     5
100
AcDbLine
 10
-676.5641902855027
 20
-820.3713575056588
 30
0.0
 11
-426.5641902854964
 21
-570.3713575056519
 31
0.0
  0
LINE
  5
247
330
1F
100
AcDbEntity
  8
0-0
  6
JWW_DASHED1
 62
   120
370
     5
100
AcDbLine
 10
-336.5641902854879
 20
-480.3713575056445
 30
0.0
 11
-86.56419028549699
 21
-230.3713575056531
 31
0.0
  0
LINE
  5
248
330
1F
100
AcDbEntity
  8
0-0
  6
JWW_DASHED1
 62
   120
370
     5
100
AcDbLine
 10
103.4358097144939
 20
-40.37135750566222
 30
0.0
 11
353.4358097145172
 21
209.6286424943602
 31
0.0
  0
LINE
  5
249
330
1F
100
AcDbEntity
  8
0-0
  6
JWW_DASHED1
 62
   120
370
     5
100
AcDbLine
 10
443.4358097145087
 20
299.6286424943517
 30
0.0
 11
693.4358097144996
 21
549.628642494343
 31
0.0
  0
LINE
  5
24A
330
1F
100
AcDbEntity
  8
0-0
  6
JWW_DASHED1
 62
   120
370
     5
100
AcDbLine
 10
-676.5641902854908
 20
-813.3002896923618
 30
0.0
 11
-426.5641902854862
 21
-563.3002896923571
 31
0.0
  0
LINE
  5
24B
330
1F
100
AcDbEntity
  8
0-0
  6
JWW_DASHED1
 62
   120
370
     5
100
AcDbLine
 10
-336.5641902854794
 20
-473.30028969235
 30
0.0
 11
-86.56419028549017
 21
-223.3002896923617
 31
0.0
  0
LINE
  5
24C
330
1F
100
AcDbEntity
  8
0-0
  6
JWW_DASHED1
 62
   120
370
     5
100
AcDbLine
 10
103.435809714499
 20
-33.30028969237247
 30
0.0
 11
353.4358097145189
 21
216.6997103076483
 31
0.0
  0
LINE
  5
24D
330
1F
100
AcDbEntity
  8
0-0
  6
JWW_DASHED1
 62
   120
370
     5
100
AcDbLine
 10
443.4358097145087
 20
306.6997103076385
 30
0.0
 11
693.4358097145132
 21
556.6997103076426
 31
0.0
  0
LINE
  5
24E
330
1F
100
AcDbEntity
  8
0-0
  6
JWW_DASHED1
 62
   120
370
     5
100
AcDbLine
 10
-676.5641902854959
 20
-806.2292218790802
 30
0.0
 11
-426.5641902854896
 21
-556.2292218790756
 31
0.0
  0
LINE
  5
24F
330
1F
100
AcDbEntity
  8
0-0
  6
JWW_DASHED1
 62
   120
370
     5
100
AcDbLine
 10
-336.5641902854845
 20
-466.2292218790688
 30
0.0
 11
-86.56419028549529
 21
-216.22922187908
 31
0.0
  0
LINE
  5
250
330
1F
100
AcDbEntity
  8
0-0
  6
JWW_DASHED1
 62
   120
370
     5
100
AcDbLine
 10
103.4358097145093
 20
-26.22922187907506
 30
0.0
 11
353.4358097145138
 21
223.7707781209291
 31
0.0
  0
LINE
  5
251
330
1F
100
AcDbEntity
  8
0-0
  6
JWW_DASHED1
 62
   120
370
     5
100
AcDbLine
 10
443.4358097145053
 20
313.7707781209201
 30
0.0
 11
693.4358097145098
 21
563.7707781209247
 31
0.0
  0
LINE
  5
252
330
1F
100
AcDbEntity
  8
0-0
  6
JWW_DASHED1
 62
   120
370
     5
100
AcDbLine
 10
-676.5641902854993
 20
-799.158154065799
 30
0.0
 11
-426.5641902854794
 21
-549.1581540657784
 31
0.0
  0
LINE
  5
253
330
1F
100
AcDbEntity
  8
0-0
  6
JWW_DASHED1
 62
   120
370
     5
100
AcDbLine
 10
-336.5641902854879
 20
-459.1581540657876
 30
0.0
 11
-86.5641902854987
 21
-209.1581540657988
 31
0.0
  0
LINE
  5
254
330
1F
100
AcDbEntity
  8
0-0
  6
JWW_DASHED1
 62
   120
370
     5
100
AcDbLine
 10
103.4358097145059
 20
-19.15815406579384
 30
0.0
 11
353.4358097145104
 21
230.8418459342107
 31
0.0
  0
LINE
  5
255
330
1F
100
AcDbEntity
  8
0-0
  6
JWW_DASHED1
 62
   120
370
     5
100
AcDbLine
 10
443.4358097145019
 20
320.8418459342013
 30
0.0
 11
693.4358097145047
 21
570.8418459342058
 31
0.0
  0
LINE
  5
256
330
1F
100
AcDbEntity
  8
0-0
  6
JWW_DASHED1
 62
   120
370
     5
100
AcDbLine
 10
-676.5641902855044
 20
-792.0870862525178
 30
0.0
 11
-426.5641902854828
 21
-542.087086252497
 31
0.0
  0
LINE
  5
257
330
1F
100
AcDbEntity
  8
0-0
  6
JWW_DASHED1
 62
   120
370
     5
100
AcDbLine
 10
-336.5641902854913
 20
-452.0870862525064
 30
0.0
 11
-86.56419028548676
 21
-202.0870862525014
 31
0.0
  0
LINE
  5
258
330
1F
100
AcDbEntity
  8
0-0
  6
JWW_DASHED1
 62
   120
370
     5
100
AcDbLine
 10
103.4358097145024
 20
-12.08708625251219
 30
0.0
 11
353.435809714507
 21
237.9129137474919
 31
0.0
  0
LINE
  5
259
330
1F
100
AcDbEntity
  8
0-0
  6
JWW_DASHED1
 62
   120
370
     5
100
AcDbLine
 10
443.4358097145138
 20
327.9129137474987
 30
0.0
 11
693.4358097145013
 21
577.9129137474871
 31
0.0
  0
LINE
  5
25A
330
1F
100
AcDbEntity
  8
0-0
  6
JWW_DASHED1
 62
   120
370
     5
100
AcDbLine
 10
-676.5641902854925
 20
-785.0160184392203
 30
0.0
 11
-426.5641902854862
 21
-535.0160184392156
 31
0.0
  0
LINE
  5
25B
330
1F
100
AcDbEntity
  8
0-0
  6
JWW_DASHED1
 62
   120
370
     5
100
AcDbLine
 10
-336.5641902854964
 20
-445.0160184392247
 30
0.0
 11
-86.56419028549188
 21
-195.0160184392202
 31
0.0
  0
LINE
  5
25C
330
1F
100
AcDbEntity
  8
0-0
  6
JWW_DASHED1
 62
   120
370
     5
100
AcDbLine
 10
103.4358097144973
 20
-5.016018439230976
 30
0.0
 11
353.4358097145019
 21
244.9839815607736
 31
0.0
  0
LINE
  5
25D
330
1F
100
AcDbEntity
  8
0-0
  6
JWW_DASHED1
 62
   120
370
     5
100
AcDbLine
 10
443.4358097145087
 20
334.98398156078
 30
0.0
 11
693.4358097144979
 21
584.9839815607684
 31
0.0
  0
LINE
  5
25E
330
1F
100
AcDbEntity
  8
0-0
  6
JWW_DASHED1
 62
   120
370
     5
100
AcDbLine
 10
-676.5641902854993
 20
-777.9449506259975
 30
0.0
 11
-426.564190285493
 21
-527.9449506259904
 31
0.0
  0
LINE
  5
25F
330
1F
100
AcDbEntity
  8
0-0
  6
JWW_DASHED1
 62
   120
370
     5
100
AcDbLine
 10
-336.5641902854845
 20
-437.9449506259832
 30
0.0
 11
-86.56419028549358
 21
-187.9449506259918
 31
0.0
  0
LINE
  5
260
330
1F
100
AcDbEntity
  8
0-0
  6
JWW_DASHED1
 62
   120
370
     5
100
AcDbLine
 10
103.4358097144973
 20
2.055049373999509
 30
0.0
 11
353.4358097145036
 21
252.0550493740058
 31
0.0
  0
LINE
  5
261
330
1F
100
AcDbEntity
  8
0-0
  6
JWW_DASHED1
 62
   120
370
     5
100
AcDbLine
 10
443.4358097145121
 20
342.0550493740134
 30
0.0
 11
693.4358097145013
 21
592.0550493740043
 31
0.0
  0
LINE
  5
262
330
1F
100
AcDbEntity
  8
0-0
  6
JWW_DASHED1
 62
   120
370
     5
100
AcDbLine
 10
-676.5641902855044
 20
-770.8738828127159
 30
0.0
 11
-426.5641902854964
 21
-520.873882812709
 31
0.0
  0
LINE
  5
263
330
1F
100
AcDbEntity
  8
0-0
  6
JWW_DASHED1
 62
   120
370
     5
100
AcDbLine
 10
-336.5641902854896
 20
-430.8738828127015
 30
0.0
 11
-86.5641902854987
 21
-180.8738828127102
 31
0.0
  0
LINE
  5
264
330
1F
100
AcDbEntity
  8
0-0
  6
JWW_DASHED1
 62
   120
370
     5
100
AcDbLine
 10
103.4358097144922
 20
9.126117187280727
 30
0.0
 11
353.4358097145155
 21
259.1261171873032
 31
0.0
  0
LINE
  5
265
330
1F
100
AcDbEntity
  8
0-0
  6
JWW_DASHED1
 62
   120
370
     5
100
AcDbLine
 10
443.435809714507
 20
349.1261171872947
 30
0.0
 11
693.4358097144979
 21
599.1261171872856
 31
0.0
  0
LINE
  5
266
330
1F
100
AcDbEntity
  8
0-0
  6
JWW_DASHED1
 62
   120
370
     5
100
AcDbLine
 10
-676.5641902854925
 20
-763.8028149994193
 30
0.0
 11
-426.5641902854879
 21
-513.8028149994145
 31
0.0
  0
LINE
  5
267
330
1F
100
AcDbEntity
  8
0-0
  6
JWW_DASHED1
 62
   120
370
     5
100
AcDbLine
 10
-336.5641902854811
 20
-423.8028149994079
 30
0.0
 11
-86.56419028549188
 21
-173.8028149994187
 31
0.0
  0
LINE
  5
268
330
1F
100
AcDbEntity
  8
0-0
  6
JWW_DASHED1
 62
   120
370
     5
100
AcDbLine
 10
103.4358097145127
 20
16.19718500058582
 30
0.0
 11
353.4358097145172
 21
266.1971850005904
 31
0.0
  0
LINE
  5
269
330
1F
100
AcDbEntity
  8
0-0
  6
JWW_DASHED1
 62
   120
370
     5
100
AcDbLine
 10
443.4358097145087
 20
356.197185000581
 30
0.0
 11
693.4358097145115
 21
606.1971850005855
 31
0.0
  0
LINE
  5
26A
330
1F
100
AcDbEntity
  8
0-0
  6
JWW_DASHED1
 62
   120
370
     5
100
AcDbLine
 10
-676.5641902854959
 20
-756.7317471861379
 30
0.0
 11
-426.5641902854913
 21
-506.7317471861331
 31
0.0
  0
LINE
  5
26B
330
1F
100
AcDbEntity
  8
0-0
  6
JWW_DASHED1
 62
   120
370
     5
100
AcDbLine
 10
-336.5641902854845
 20
-416.7317471861267
 30
0.0
 11
-86.56419028549529
 21
-166.7317471861375
 31
0.0
  0
LINE
  5
26C
330
1F
100
AcDbEntity
  8
0-0
  6
JWW_DASHED1
 62
   120
370
     5
100
AcDbLine
 10
103.4358097145093
 20
23.26825281386746
 30
0.0
 11
353.4358097145138
 21
273.2682528138716
 31
0.0
  0
LINE
  5
26D
330
1F
100
AcDbEntity
  8
0-0
  6
JWW_DASHED1
 62
   120
370
     5
100
AcDbLine
 10
443.4358097145036
 20
363.2682528138622
 30
0.0
 11
693.4358097145081
 21
613.2682528138668
 31
0.0
  0
LINE
  5
26E
330
1F
100
AcDbEntity
  8
0-0
  6
JWW_DASHED1
 62
   120
370
     5
100
AcDbLine
 10
-676.564190285501
 20
-749.6606793728564
 30
0.0
 11
-426.5641902854794
 21
-499.6606793728359
 31
0.0
  0
LINE
  5
26F
330
1F
100
AcDbEntity
  8
0-0
  6
JWW_DASHED1
 62
   120
370
     5
100
AcDbLine
 10
-336.5641902854896
 20
-409.660679372845
 30
0.0
 11
-86.5641902855004
 21
-159.6606793728563
 31
0.0
  0
LINE
  5
270
330
1F
100
AcDbEntity
  8
0-0
  6
JWW_DASHED1
 62
   120
370
     5
100
AcDbLine
 10
103.4358097145041
 20
30.33932062714868
 30
0.0
 11
353.4358097145087
 21
280.3393206271533
 31
0.0
  0
LINE
  5
271
330
1F
100
AcDbEntity
  8
0-0
  6
JWW_DASHED1
 62
   120
370
     5
100
AcDbLine
 10
443.4358097145155
 20
370.3393206271596
 30
0.0
 11
693.4358097145047
 21
620.339320627148
 31
0.0
  0
LINE
  5
272
330
1F
100
AcDbEntity
  8
0-0
  6
JWW_DASHED1
 62
   120
370
     5
100
AcDbLine
 10
-676.5641902855044
 20
-742.589611559575
 30
0.0
 11
-426.5641902854845
 21
-492.5896115595544
 31
0.0
  0
LINE
  5
273
330
1F
100
AcDbEntity
  8
0-0
  6
JWW_DASHED1
 62
   120
370
     5
100
AcDbLine
 10
-336.564190285493
 20
-402.5896115595634
 30
0.0
 11
-86.56419028548846
 21
-152.5896115595589
 31
0.0
  0
LINE
  5
274
330
1F
100
AcDbEntity
  8
0-0
  6
JWW_DASHED1
 62
   120
370
     5
100
AcDbLine
 10
103.4358097145007
 20
37.41038844043032
 30
0.0
 11
353.4358097145053
 21
287.4103884404344
 31
0.0
  0
LINE
  5
275
330
1F
100
AcDbEntity
  8
0-0
  6
JWW_DASHED1
 62
   120
370
     5
100
AcDbLine
 10
443.4358097145121
 20
377.4103884404412
 30
0.0
 11
693.4358097144996
 21
627.4103884404296
 31
0.0
  0
LINE
  5
276
330
1F
100
AcDbEntity
  8
0-0
  6
JWW_DASHED1
 62
   120
370
     5
100
AcDbLine
 10
-676.5641902854925
 20
-735.5185437462778
 30
0.0
 11
-426.5641902854879
 21
-485.5185437462733
 31
0.0
  0
LINE
  5
277
330
1F
100
AcDbEntity
  8
0-0
  6
JWW_DASHED1
 62
   120
370
     5
100
AcDbLine
 10
-336.5641902854981
 20
-395.5185437462822
 30
0.0
 11
-86.56419028549188
 21
-145.5185437462777
 31
0.0
  0
LINE
  5
278
330
1F
100
AcDbEntity
  8
0-0
  6
JWW_DASHED1
 62
   120
370
     5
100
AcDbLine
 10
103.4358097144973
 20
44.48145625371154
 30
0.0
 11
353.4358097145002
 21
294.4814562537161
 31
0.0
  0
LINE
  5
279
330
1F
100
AcDbEntity
  8
0-0
  6
JWW_DASHED1
 62
   120
370
     5
100
AcDbLine
 10
443.435809714507
 20
384.4814562537229
 30
0.0
 11
693.4358097144961
 21
634.4814562537113
 31
0.0
  0
LINE
  5
27A
330
1F
100
AcDbEntity
  8
0-0
  6
JWW_DASHED1
 62
   120
370
     5
100
AcDbLine
 10
-676.5641902854959
 20
-728.4474759329958
 30
0.0
 11
-426.5641902854896
 21
-478.4474759329886
 31
0.0
  0
LINE
  5
27B
330
1F
100
AcDbEntity
  8
0-0
  6
JWW_DASHED1
 62
   120
370
     5
100
AcDbLine
 10
-336.5641902854981
 20
-388.4474759329971
 30
0.0
 11
-86.56419028549017
 21
-138.4474759329896
 31
0.0
  0
LINE
  5
27C
330
1F
100
AcDbEntity
  8
0-0
  6
JWW_DASHED1
 62
   120
370
     5
100
AcDbLine
 10
103.4358097145007
 20
51.55252406700129
 30
0.0
 11
353.435809714507
 21
301.552524067008
 31
0.0
  0
LINE
  5
27D
330
1F
100
AcDbEntity
  8
0-0
  6
JWW_DASHED1
 62
   120
370
     5
100
AcDbLine
 10
443.4358097145155
 20
391.5525240670152
 30
0.0
 11
693.4358097145047
 21
641.5525240670061
 31
0.0
  0
LINE
  5
27E
330
1F
100
AcDbEntity
  8
0-0
  6
JWW_DASHED1
 62
   120
370
     5
100
AcDbLine
 10
-676.564190285501
 20
-721.3764081197141
 30
0.0
 11
-426.564190285493
 21
-471.3764081197074
 31
0.0
  0
LINE
  5
27F
330
1F
100
AcDbEntity
  8
0-0
  6
JWW_DASHED1
 62
   120
370
     5
100
AcDbLine
 10
-336.5641902854862
 20
-381.3764081196997
 30
0.0
 11
-86.56419028549358
 21
-131.3764081197084
 31
0.0
  0
LINE
  5
280
330
1F
100
AcDbEntity
  8
0-0
  6
JWW_DASHED1
 62
   120
370
     5
100
AcDbLine
 10
103.4358097144973
 20
58.6235918802825
 30
0.0
 11
353.4358097145036
 21
308.6235918802892
 31
0.0
  0
LINE
  5
281
330
1F
100
AcDbEntity
  8
0-0
  6
JWW_DASHED1
 62
   120
370
     5
100
AcDbLine
 10
443.4358097145104
 20
398.6235918802969
 30
0.0
 11
693.4358097145013
 21
648.6235918802873
 31
0.0
  0
LINE
  5
282
330
1F
100
AcDbEntity
  8
0-0
  6
JWW_DASHED1
 62
   120
370
     5
100
AcDbLine
 10
-676.5641902854942
 20
-714.3053403064768
 30
0.0
 11
-426.5641902854896
 21
-464.3053403064722
 31
0.0
  0
LINE
  5
283
330
1F
100
AcDbEntity
  8
0-0
  6
JWW_DASHED1
 62
   120
370
     5
100
AcDbLine
 10
-336.5641902854828
 20
-374.3053403064654
 30
0.0
 11
-86.56419028549358
 21
-124.3053403064766
 31
0.0
  0
LINE
  5
284
330
1F
100
AcDbEntity
  8
0-0
  6
JWW_DASHED1
 62
   120
370
     5
100
AcDbLine
 10
103.4358097145127
 20
65.69465969352876
 30
0.0
 11
353.4358097145155
 21
315.6946596935329
 31
0.0
  0
LINE
  5
285
330
1F
100
AcDbEntity
  8
0-0
  6
JWW_DASHED1
 62
   120
370
     5
100
AcDbLine
 10
443.435809714507
 20
405.6946596935235
 30
0.0
 11
693.4358097145115
 21
655.694659693528
 31
0.0
  0
LINE
  5
286
330
1F
100
AcDbEntity
  8
0-0
  6
JWW_DASHED1
 62
   120
370
     5
100
AcDbLine
 10
-676.5641902854976
 20
-707.2342724931954
 30
0.0
 11
-426.564190285493
 21
-457.2342724931906
 31
0.0
  0
LINE
  5
287
330
1F
100
AcDbEntity
  8
0-0
  6
JWW_DASHED1
 62
   120
370
     5
100
AcDbLine
 10
-336.5641902854862
 20
-367.2342724931842
 30
0.0
 11
-86.56419028549699
 21
-117.234272493195
 31
0.0
  0
LINE
  5
288
330
1F
100
AcDbEntity
  8
0-0
  6
JWW_DASHED1
 62
   120
370
     5
100
AcDbLine
 10
103.4358097145076
 20
72.76572750680998
 30
0.0
 11
353.4358097145121
 21
322.7657275068141
 31
0.0
  0
LINE
  5
289
330
1F
100
AcDbEntity
  8
0-0
  6
JWW_DASHED1
 62
   120
370
     5
100
AcDbLine
 10
443.4358097145036
 20
412.7657275068051
 30
0.0
 11
693.4358097145064
 21
662.7657275068093
 31
0.0
  0
LINE
  5
28A
330
1F
100
AcDbEntity
  8
0-0
  6
JWW_DASHED1
 62
   120
370
     5
100
AcDbLine
 10
-676.564190285501
 20
-700.1632046799139
 30
0.0
 11
-426.5641902854811
 21
-450.1632046798936
 31
0.0
  0
LINE
  5
28B
330
1F
100
AcDbEntity
  8
0-0
  6
JWW_DASHED1
 62
   120
370
     5
100
AcDbLine
 10
-336.5641902854913
 20
-360.1632046799029
 30
0.0
 11
-86.56419028550211
 21
-110.1632046799133
 31
0.0
  0
LINE
  5
28C
330
1F
100
AcDbEntity
  8
0-0
  6
JWW_DASHED1
 62
   120
370
     5
100
AcDbLine
 10
103.4358097145041
 20
79.8367953200912
 30
0.0
 11
353.435809714507
 21
329.8367953200957
 31
0.0
  0
LINE
  5
28D
330
1F
100
AcDbEntity
  8
0-0
  6
JWW_DASHED1
 62
   120
370
     5
100
AcDbLine
 10
443.4358097145138
 20
419.8367953201022
 30
0.0
 11
693.435809714503
 21
669.8367953200909
 31
0.0
  0
LINE
  5
28E
330
1F
100
AcDbEntity
  8
0-0
  6
JWW_DASHED1
 62
   120
370
     5
100
AcDbLine
 10
-676.5641902854908
 20
-693.0921368666167
 30
0.0
 11
-426.5641902854862
 21
-443.0921368666123
 31
0.0
  0
LINE
  5
28F
330
1F
100
AcDbEntity
  8
0-0
  6
JWW_DASHED1
 62
   120
370
     5
100
AcDbLine
 10
-336.5641902854947
 20
-353.0921368666213
 30
0.0
 11
-86.56419028549017
 21
-103.0921368666164
 31
0.0
  0
LINE
  5
290
330
1F
100
AcDbEntity
  8
0-0
  6
JWW_DASHED1
 62
   120
370
     5
100
AcDbLine
 10
103.435809714499
 20
86.90786313337284
 30
0.0
 11
353.4358097145036
 21
336.907863133377
 31
0.0
  0
LINE
  5
291
330
1F
100
AcDbEntity
  8
0-0
  6
JWW_DASHED1
 62
   120
370
     5
100
AcDbLine
 10
443.4358097145104
 20
426.9078631333838
 30
0.0
 11
693.4358097144979
 21
676.9078631333721
 31
0.0
  0
LINE
  5
292
330
1F
100
AcDbEntity
  8
0-0
  6
JWW_DASHED1
 62
   120
370
     5
100
AcDbLine
 10
-676.5641902854942
 20
-686.0210690533353
 30
0.0
 11
-426.5641902854896
 21
-436.0210690533307
 31
0.0
  0
LINE
  5
293
330
1F
100
AcDbEntity
  8
0-0
  6
JWW_DASHED1
 62
   120
370
     5
100
AcDbLine
 10
-336.5641902854981
 20
-346.0210690533401
 30
0.0
 11
-86.56419028549358
 21
-96.02106905333514
 31
0.0
  0
LINE
  5
294
330
1F
100
AcDbEntity
  8
0-0
  6
JWW_DASHED1
 62
   120
370
     5
100
AcDbLine
 10
103.4358097144956
 20
93.97893094665406
 30
0.0
 11
353.4358097145002
 21
343.9789309466582
 31
0.0
  0
LINE
  5
295
330
1F
100
AcDbEntity
  8
0-0
  6
JWW_DASHED1
 62
   120
370
     5
100
AcDbLine
 10
443.435809714507
 20
433.978930946665
 30
0.0
 11
693.4358097144944
 21
683.9789309466533
 31
0.0
  0
LINE
  5
296
330
1F
100
AcDbEntity
  8
0-0
  6
JWW_DASHED1
 62
   120
370
     5
100
AcDbLine
 10
-676.5641902854976
 20
-678.9500012400528
 30
0.0
 11
-426.5641902854896
 21
-428.9500012400453
 31
0.0
  0
LINE
  5
297
330
1F
100
AcDbEntity
  8
0-0
  6
JWW_DASHED1
 62
   120
370
     5
100
AcDbLine
 10
-336.5641902854828
 20
-338.950001240038
 30
0.0
 11
-86.56419028549188
 21
-88.95000124004667
 31
0.0
  0
LINE
  5
298
330
1F
100
AcDbEntity
  8
0-0
  6
JWW_DASHED1
 62
   120
370
     5
100
AcDbLine
 10
103.435809714499
 20
101.0499987599442
 30
0.0
 11
353.435809714507
 21
351.0499987599505
 31
0.0
  0
LINE
  5
299
330
1F
100
AcDbEntity
  8
0-0
  6
JWW_DASHED1
 62
   120
370
     5
100
AcDbLine
 10
443.4358097145138
 20
441.0499987599582
 30
0.0
 11
693.4358097145047
 21
691.0499987599491
 31
0.0
  0
LINE
  5
29A
330
1F
100
AcDbEntity
  8
0-0
  6
JWW_DASHED1
 62
   120
370
     5
100
AcDbLine
 10
-676.564190285501
 20
-671.8789334267711
 30
0.0
 11
-426.564190285493
 21
-421.878933426764
 31
0.0
  0
LINE
  5
29B
330
1F
100
AcDbEntity
  8
0-0
  6
JWW_DASHED1
 62
   120
370
     5
100
AcDbLine
 10
-336.5641902854862
 20
-331.8789334267568
 30
0.0
 11
-86.56419028549529
 21
-81.87893342676546
 31
0.0
  0
LINE
  5
29C
330
1F
100
AcDbEntity
  8
0-0
  6
JWW_DASHED1
 62
   120
370
     5
100
AcDbLine
 10
103.4358097144956
 20
108.1210665732254
 30
0.0
 11
353.4358097145189
 21
358.1210665732479
 31
0.0
  0
LINE
  5
29D
330
1F
100
AcDbEntity
  8
0-0
  6
JWW_DASHED1
 62
   120
370
     5
100
AcDbLine
 10
443.4358097145104
 20
448.1210665732394
 30
0.0
 11
693.4358097145013
 21
698.1210665732303
 31
0.0
  0
LINE
  5
29E
330
1F
100
AcDbEntity
  8
0-0
  6
JWW_DASHED1
 62
   120
370
     5
100
AcDbLine
 10
-676.5641902854908
 20
-664.8078656134754
 30
0.0
 11
-426.5641902854862
 21
-414.8078656134709
 31
0.0
  0
LINE
  5
29F
330
1F
100
AcDbEntity
  8
0-0
  6
JWW_DASHED1
 62
   120
370
     5
100
AcDbLine
 10
-336.5641902854794
 20
-324.8078656134641
 30
0.0
 11
-86.56419028549017
 21
-74.80786561347486
 31
0.0
  0
LINE
  5
2A0
330
1F
100
AcDbEntity
  8
0-0
  6
JWW_DASHED1
 62
   120
370
     5
100
AcDbLine
 10
103.435809714499
 20
115.1921343865143
 30
0.0
 11
353.4358097145189
 21
365.1921343865342
 31
0.0
  0
LINE
  5
2A1
330
1F
100
AcDbEntity
  8
0-0
  6
JWW_DASHED1
 62
   120
370
     5
100
AcDbLine
 10
443.4358097145104
 20
455.1921343865249
 30
0.0
 11
693.4358097145149
 21
705.1921343865295
 31
0.0
  0
LINE
  5
2A2
330
1F
100
AcDbEntity
  8
0-0
  6
JWW_DASHED1
 62
   120
370
     5
100
AcDbLine
 10
-676.5641902854942
 20
-657.736797800194
 30
0.0
 11
-426.5641902854896
 21
-407.7367978001893
 31
0.0
  0
LINE
  5
2A3
330
1F
100
AcDbEntity
  8
0-0
  6
JWW_DASHED1
 62
   120
370
     5
100
AcDbLine
 10
-336.5641902854828
 20
-317.7367978001828
 30
0.0
 11
-86.56419028549529
 21
-67.73679780019364
 31
0.0
  0
LINE
  5
2A4
330
1F
100
AcDbEntity
  8
0-0
  6
JWW_DASHED1
 62
   120
370
     5
100
AcDbLine
 10
103.435809714511
 20
122.2632021998113
 30
0.0
 11
353.4358097145155
 21
372.2632021998155
 31
0.0
  0
LINE
  5
2A5
330
1F
100
AcDbEntity
  8
0-0
  6
JWW_DASHED1
 62
   120
370
     5
100
AcDbLine
 10
443.4358097145053
 20
462.2632021998065
 30
0.0
 11
693.4358097145098
 21
712.2632021998106
 31
0.0
  0
LINE
  5
2A6
330
1F
100
AcDbEntity
  8
0-0
  6
JWW_DASHED1
 62
   120
370
     5
100
AcDbLine
 10
-676.5641902855027
 20
-650.6657299869714
 30
0.0
 11
-426.5641902854828
 21
-400.6657299869511
 31
0.0
  0
LINE
  5
2A7
330
1F
100
AcDbEntity
  8
0-0
  6
JWW_DASHED1
 62
   120
370
     5
100
AcDbLine
 10
-336.5641902854913
 20
-310.6657299869601
 30
0.0
 11
-86.56419028548676
 21
-60.66572998695548
 31
0.0
  0
LINE
  5
2A8
330
1F
100
AcDbEntity
  8
0-0
  6
JWW_DASHED1
 62
   120
370
     5
100
AcDbLine
 10
103.4358097145024
 20
129.3342700130337
 30
0.0
 11
353.435809714507
 21
379.3342700130378
 31
0.0
  0
LINE
  5
2A9
330
1F
100
AcDbEntity
  8
0-0
  6
JWW_DASHED1
 62
   120
370
     5
100
AcDbLine
 10
443.4358097145138
 20
469.3342700130447
 30
0.0
 11
693.4358097145013
 21
719.334270013033
 31
0.0
  0
LINE
  5
2AA
330
1F
100
AcDbEntity
  8
0-0
  6
JWW_DASHED1
 62
   120
370
     5
100
AcDbLine
 10
-676.5641902854908
 20
-643.5946621736744
 30
0.0
 11
-426.5641902854862
 21
-393.5946621736699
 31
0.0
  0
LINE
  5
2AB
330
1F
100
AcDbEntity
  8
0-0
  6
JWW_DASHED1
 62
   120
370
     5
100
AcDbLine
 10
-336.5641902854964
 20
-303.5946621736788
 30
0.0
 11
-86.56419028549188
 21
-53.59466217367384
 31
0.0
  0
LINE
  5
2AC
330
1F
100
AcDbEntity
  8
0-0
  6
JWW_DASHED1
 62
   120
370
     5
100
AcDbLine
 10
103.435809714499
 20
136.4053378263154
 30
0.0
 11
353.4358097145019
 21
386.4053378263195
 31
0.0
  0
LINE
  5
2AD
330
1F
100
AcDbEntity
  8
0-0
  6
JWW_DASHED1
 62
   120
370
     5
100
AcDbLine
 10
443.4358097145087
 20
476.4053378263259
 30
0.0
 11
693.4358097144979
 21
726.4053378263146
 31
0.0
  0
LINE
  5
2AE
330
1F
100
AcDbEntity
  8
0-0
  6
JWW_DASHED1
 62
   120
370
     5
100
AcDbLine
 10
-676.5641902854959
 20
-636.5235943603927
 30
0.0
 11
-426.5641902854913
 21
-386.5235943603882
 31
0.0
  0
LINE
  5
2AF
330
1F
100
AcDbEntity
  8
0-0
  6
JWW_DASHED1
 62
   120
370
     5
100
AcDbLine
 10
-336.5641902854998
 20
-296.5235943603976
 30
0.0
 11
-86.56419028549529
 21
-46.52359436039262
 31
0.0
  0
LINE
  5
2B0
330
1F
100
AcDbEntity
  8
0-0
  6
JWW_DASHED1
 62
   120
370
     5
100
AcDbLine
 10
103.4358097144939
 20
143.4764056395966
 30
0.0
 11
353.4358097144985
 21
393.4764056396011
 31
0.0
  0
LINE
  5
2B1
330
1F
100
AcDbEntity
  8
0-0
  6
JWW_DASHED1
 62
   120
370
     5
100
AcDbLine
 10
443.4358097145053
 20
483.4764056396075
 30
0.0
 11
693.4358097144944
 21
733.4764056395964
 31
0.0
  0
LINE
  5
2B2
330
1F
100
AcDbEntity
  8
0-0
  6
JWW_DASHED1
 62
   120
370
     5
100
AcDbLine
 10
-676.5641902854976
 20
-629.4525265471096
 30
0.0
 11
-426.5641902854913
 21
-379.4525265471023
 31
0.0
  0
LINE
  5
2B3
330
1F
100
AcDbEntity
  8
0-0
  6
JWW_DASHED1
 62
   120
370
     5
100
AcDbLine
 10
-336.5641902854828
 20
-289.4525265470951
 30
0.0
 11
-86.56419028549188
 21
-39.45252654710373
 31
0.0
  0
LINE
  5
2B4
330
1F
100
AcDbEntity
  8
0-0
  6
JWW_DASHED1
 62
   120
370
     5
100
AcDbLine
 10
103.435809714499
 20
150.5474734528872
 30
0.0
 11
353.4358097145053
 21
400.5474734528939
 31
0.0
  0
LINE
  5
2B5
330
1F
100
AcDbEntity
  8
0-0
  6
JWW_DASHED1
 62
   120
370
     5
100
AcDbLine
 10
443.4358097145138
 20
490.5474734529011
 30
0.0
 11
693.4358097145047
 21
740.5474734528921
 31
0.0
  0
LINE
  5
2B6
330
1F
100
AcDbEntity
  8
0-0
  6
JWW_DASHED1
 62
   120
370
     5
100
AcDbLine
 10
-676.564190285501
 20
-622.3814587338281
 30
0.0
 11
-426.5641902854947
 21
-372.3814587338211
 31
0.0
  0
LINE
  5
2B7
330
1F
100
AcDbEntity
  8
0-0
  6
JWW_DASHED1
 62
   120
370
     5
100
AcDbLine
 10
-336.5641902854879
 20
-282.3814587338134
 30
0.0
 11
-86.56419028549529
 21
-32.38145873382251
 31
0.0
  0
LINE
  5
2B8
330
1F
100
AcDbEntity
  8
0-0
  6
JWW_DASHED1
 62
   120
370
     5
100
AcDbLine
 10
103.4358097144956
 20
157.6185412661684
 30
0.0
 11
353.4358097145172
 21
407.6185412661908
 31
0.0
  0
LINE
  5
2B9
330
1F
100
AcDbEntity
  8
0-0
  6
JWW_DASHED1
 62
   120
370
     5
100
AcDbLine
 10
443.4358097145087
 20
497.6185412661823
 30
0.0
 11
693.4358097144996
 21
747.6185412661732
 31
0.0
  0
LINE
  5
2BA
330
1F
100
AcDbEntity
  8
0-0
  6
JWW_DASHED1
 62
   120
370
     5
100
AcDbLine
 10
-676.5641902854925
 20
-615.3103909205329
 30
0.0
 11
-426.5641902854879
 21
-365.3103909205283
 31
0.0
  0
LINE
  5
2BB
330
1F
100
AcDbEntity
  8
0-0
  6
JWW_DASHED1
 62
   120
370
     5
100
AcDbLine
 10
-336.5641902854811
 20
-275.3103909205215
 30
0.0
 11
-86.56419028549188
 21
-25.31039092053277
 31
0.0
  0
LINE
  5
2BC
330
1F
100
AcDbEntity
  8
0-0
  6
JWW_DASHED1
 62
   120
370
     5
100
AcDbLine
 10
103.4358097144973
 20
164.6896090794564
 30
0.0
 11
353.4358097145172
 21
414.6896090794768
 31
0.0
  0
LINE
  5
2BD
330
1F
100
AcDbEntity
  8
0-0
  6
JWW_DASHED1
 62
   120
370
     5
100
AcDbLine
 10
443.4358097145087
 20
504.6896090794673
 30
0.0
 11
693.4358097145132
 21
754.6896090794719
 31
0.0
  0
LINE
  5
2BE
330
1F
100
AcDbEntity
  8
0-0
  6
JWW_DASHED1
 62
   120
370
     5
100
AcDbLine
 10
-676.5641902854959
 20
-608.2393231072515
 30
0.0
 11
-426.5641902854913
 21
-358.2393231072467
 31
0.0
  0
LINE
  5
2BF
330
1F
100
AcDbEntity
  8
0-0
  6
JWW_DASHED1
 62
   120
370
     5
100
AcDbLine
 10
-336.5641902854845
 20
-268.2393231072404
 30
0.0
 11
-86.56419028549529
 21
-18.23932310725112
 31
0.0
  0
LINE
  5
2C0
330
1F
100
AcDbEntity
  8
0-0
  6
JWW_DASHED1
 62
   120
370
     5
100
AcDbLine
 10
103.4358097145093
 20
171.7606768927538
 30
0.0
 11
353.4358097145138
 21
421.7606768927579
 31
0.0
  0
LINE
  5
2C1
330
1F
100
AcDbEntity
  8
0-0
  6
JWW_DASHED1
 62
   120
370
     5
100
AcDbLine
 10
443.4358097145036
 20
511.760676892749
 30
0.0
 11
693.4358097145098
 21
761.7606768927535
 31
0.0
  0
LINE
  5
2C2
330
1F
100
AcDbEntity
  8
0-0
  6
JWW_DASHED1
 62
   120
370
     5
100
AcDbLine
 10
-676.564190285501
 20
-601.1682552939701
 30
0.0
 11
-426.5641902854794
 21
-351.1682552939498
 31
0.0
  0
LINE
  5
2C3
330
1F
100
AcDbEntity
  8
0-0
  6
JWW_DASHED1
 62
   120
370
     5
100
AcDbLine
 10
-336.5641902854896
 20
-261.1682552939587
 30
0.0
 11
-86.5641902854987
 21
-11.16825529396948
 31
0.0
  0
LINE
  5
2C4
330
1F
100
AcDbEntity
  8
0-0
  6
JWW_DASHED1
 62
   120
370
     5
100
AcDbLine
 10
103.4358097145059
 20
178.8317447060351
 30
0.0
 11
353.4358097145104
 21
428.8317447060396
 31
0.0
  0
LINE
  5
2C5
330
1F
100
AcDbEntity
  8
0-0
  6
JWW_DASHED1
 62
   120
370
     5
100
AcDbLine
 10
443.4358097145002
 20
518.8317447060302
 30
0.0
 11
693.4358097145047
 21
768.8317447060348
 31
0.0
  0
LINE
  5
2C6
330
1F
100
AcDbEntity
  8
0-0
  6
JWW_DASHED1
 62
   120
370
     5
100
AcDbLine
 10
-676.5641902855044
 20
-594.0971874806888
 30
0.0
 11
-426.5641902854845
 21
-344.0971874806685
 31
0.0
  0
LINE
  5
2C7
330
1F
100
AcDbEntity
  8
0-0
  6
JWW_DASHED1
 62
   120
370
     5
100
AcDbLine
 10
-336.564190285493
 20
-254.0971874806775
 30
0.0
 11
-86.56419028548846
 21
-4.097187480672488
 31
0.0
  0
LINE
  5
2C8
330
1F
100
AcDbEntity
  8
0-0
  6
JWW_DASHED1
 62
   120
370
     5
100
AcDbLine
 10
103.4358097145007
 20
185.9028125193167
 30
0.0
 11
353.4358097145053
 21
435.9028125193208
 31
0.0
  0
LINE
  5
2C9
330
1F
100
AcDbEntity
  8
0-0
  6
JWW_DASHED1
 62
   120
370
     5
100
AcDbLine
 10
443.4358097145121
 20
525.9028125193277
 30
0.0
 11
693.4358097145013
 21
775.9028125193161
 31
0.0
  0
LINE
  5
2CA
330
1F
100
AcDbEntity
  8
0-0
  6
JWW_DASHED1
 62
   120
370
     5
100
AcDbLine
 10
-676.5641902854942
 20
-587.0261196674481
 30
0.0
 11
-426.5641902854879
 21
-337.0261196674414
 31
0.0
  0
LINE
  5
2CB
330
1F
100
AcDbEntity
  8
0-0
  6
JWW_DASHED1
 62
   120
370
     5
100
AcDbLine
 10
-336.5641902854964
 20
-247.0261196674491
 30
0.0
 11
-86.56419028548846
 21
2.97388033255757
 31
0.0
  0
LINE
  5
2CC
330
1F
100
AcDbEntity
  8
0-0
  6
JWW_DASHED1
 62
   120
370
     5
100
AcDbLine
 10
103.4358097145024
 20
192.9738803325485
 30
0.0
 11
353.4358097145087
 21
442.9738803325552
 31
0.0
  0
LINE
  5
2CD
330
1F
100
AcDbEntity
  8
0-0
  6
JWW_DASHED1
 62
   120
370
     5
100
AcDbLine
 10
443.4358097145172
 20
532.9738803325629
 30
0.0
 11
693.4358097145081
 21
782.9738803325538
 31
0.0
  0
LINE
  5
2CE
330
1F
100
AcDbEntity
  8
0-0
  6
JWW_DASHED1
 62
   120
370
     5
100
AcDbLine
 10
-676.5641902854993
 20
-579.9550518541666
 30
0.0
 11
-426.5641902854913
 21
-329.9550518541598
 31
0.0
  0
LINE
  5
2CF
330
1F
100
AcDbEntity
  8
0-0
  6
JWW_DASHED1
 62
   120
370
     5
100
AcDbLine
 10
-336.5641902854845
 20
-239.9550518541521
 30
0.0
 11
-86.56419028549188
 21
10.04494814583921
 31
0.0
  0
LINE
  5
2D0
330
1F
100
AcDbEntity
  8
0-0
  6
JWW_DASHED1
 62
   120
370
     5
100
AcDbLine
 10
103.435809714499
 20
200.0449481458301
 30
0.0
 11
353.4358097145053
 21
450.0449481458364
 31
0.0
  0
LINE
  5
2D1
330
1F
100
AcDbEntity
  8
0-0
  6
JWW_DASHED1
 62
   120
370
     5
100
AcDbLine
 10
443.4358097145121
 20
540.044948145844
 30
0.0
 11
693.435809714503
 21
790.044948145835
 31
0.0
  0
LINE
  5
2D2
330
1F
100
AcDbEntity
  8
0-0
  6
JWW_DASHED1
 62
   120
370
     5
100
AcDbLine
 10
-676.5641902855027
 20
-572.8839840408853
 30
0.0
 11
-426.5641902854964
 21
-322.8839840408781
 31
0.0
  0
LINE
  5
2D3
330
1F
100
AcDbEntity
  8
0-0
  6
JWW_DASHED1
 62
   120
370
     5
100
AcDbLine
 10
-336.5641902854879
 20
-232.8839840408709
 30
0.0
 11
-86.56419028549699
 21
17.11601595912043
 31
0.0
  0
LINE
  5
2D4
330
1F
100
AcDbEntity
  8
0-0
  6
JWW_DASHED1
 62
   120
370
     5
100
AcDbLine
 10
103.4358097144939
 20
207.1160159591113
 30
0.0
 11
353.4358097145172
 21
457.1160159591338
 31
0.0
  0
LINE
  5
2D5
330
1F
100
AcDbEntity
  8
0-0
  6
JWW_DASHED1
 62
   120
370
     5
100
AcDbLine
 10
443.4358097145087
 20
547.1160159591252
 30
0.0
 11
693.4358097144996
 21
797.1160159591161
 31
0.0
  0
LINE
  5
2D6
330
1F
100
AcDbEntity
  8
0-0
  6
JWW_DASHED1
 62
   120
370
     5
100
AcDbLine
 10
-676.5641902854942
 20
-565.8129162275904
 30
0.0
 11
-426.5641902854879
 21
-315.8129162275858
 31
0.0
  0
LINE
  5
2D7
330
1F
100
AcDbEntity
  8
0-0
  6
JWW_DASHED1
 62
   120
370
     5
100
AcDbLine
 10
-336.5641902854828
 20
-225.812916227579
 30
0.0
 11
-86.56419028549358
 21
24.18708377240975
 31
0.0
  0
LINE
  5
2D8
330
1F
100
AcDbEntity
  8
0-0
  6
JWW_DASHED1
 62
   120
370
     5
100
AcDbLine
 10
103.4358097145127
 20
214.1870837724147
 30
0.0
 11
353.4358097145172
 21
464.1870837724193
 31
0.0
  0
LINE
  5
2D9
330
1F
100
AcDbEntity
  8
0-0
  6
JWW_DASHED1
 62
   120
370
     5
100
AcDbLine
 10
443.435809714507
 20
554.1870837724099
 30
0.0
 11
693.4358097145115
 21
804.1870837724144
 31
0.0
  0
LINE
  5
2DA
330
1F
100
AcDbEntity
  8
0-0
  6
JWW_DASHED1
 62
   120
370
     5
100
AcDbLine
 10
-676.5641902854976
 20
-558.741848414309
 30
0.0
 11
-426.564190285493
 21
-308.7418484143046
 31
0.0
  0
LINE
  5
2DB
330
1F
100
AcDbEntity
  8
0-0
  6
JWW_DASHED1
 62
   120
370
     5
100
AcDbLine
 10
-336.5641902854862
 20
-218.7418484142978
 30
0.0
 11
-86.56419028549699
 21
31.25815158569139
 31
0.0
  0
LINE
  5
2DC
330
1F
100
AcDbEntity
  8
0-0
  6
JWW_DASHED1
 62
   120
370
     5
100
AcDbLine
 10
103.4358097145076
 20
221.2581515856964
 30
0.0
 11
353.4358097145121
 21
471.2581515857005
 31
0.0
  0
LINE
  5
2DD
330
1F
100
AcDbEntity
  8
0-0
  6
JWW_DASHED1
 62
   120
370
     5
100
AcDbLine
 10
443.4358097145036
 20
561.2581515856912
 30
0.0
 11
693.4358097145081
 21
811.2581515856957
 31
0.0
  0
LINE
  5
2DE
330
1F
100
AcDbEntity
  8
0-0
  6
JWW_DASHED1
 62
   120
370
     5
100
AcDbLine
 10
-676.564190285501
 20
-551.6707806010276
 30
0.0
 11
-426.5641902854811
 21
-301.6707806010072
 31
0.0
  0
LINE
  5
2DF
330
1F
100
AcDbEntity
  8
0-0
  6
JWW_DASHED1
 62
   120
370
     5
100
AcDbLine
 10
-336.5641902854896
 20
-211.6707806010162
 30
0.0
 11
-86.5641902855004
 21
38.32921939897261
 31
0.0
  0
LINE
  5
2E0
330
1F
100
AcDbEntity
  8
0-0
  6
JWW_DASHED1
 62
   120
370
     5
100
AcDbLine
 10
103.4358097145041
 20
228.3292193989772
 30
0.0
 11
353.4358097145087
 21
478.3292193989821
 31
0.0
  0
LINE
  5
2E1
330
1F
100
AcDbEntity
  8
0-0
  6
JWW_DASHED1
 62
   120
370
     5
100
AcDbLine
 10
443.4358097145155
 20
568.3292193989885
 30
0.0
 11
693.435809714503
 21
818.3292193989773
 31
0.0
  0
LINE
  5
2E2
330
1F
100
AcDbEntity
  8
0-0
  6
JWW_DASHED1
 62
   120
370
     5
100
AcDbLine
 10
-676.5641902855061
 20
-544.5997127877463
 30
0.0
 11
-426.5641902854845
 21
-294.5997127877256
 31
0.0
  0
LINE
  5
2E3
330
1F
100
AcDbEntity
  8
0-0
  6
JWW_DASHED1
 62
   120
370
     5
100
AcDbLine
 10
-336.5641902854947
 20
-204.5997127877345
 30
0.0
 11
-86.56419028548846
 21
45.40028721227003
 31
0.0
  0
LINE
  5
2E4
330
1F
100
AcDbEntity
  8
0-0
  6
JWW_DASHED1
 62
   120
370
     5
100
AcDbLine
 10
103.435809714499
 20
235.4002872122592
 30
0.0
 11
353.4358097145036
 21
485.4002872122638
 31
0.0
  0
LINE
  5
2E5
330
1F
100
AcDbEntity
  8
0-0
  6
JWW_DASHED1
 62
   120
370
     5
100
AcDbLine
 10
443.4358097145104
 20
575.4002872122702
 30
0.0
 11
693.4358097144996
 21
825.400287212258
 31
0.0
  0
LINE
  5
2E6
330
1F
100
AcDbEntity
  8
0-0
  6
JWW_DASHED1
 62
   120
370
     5
100
AcDbLine
 10
-676.5641902854942
 20
-537.5286449744491
 30
0.0
 11
-426.5641902854896
 21
-287.5286449744439
 31
0.0
  0
LINE
  5
2E7
330
1F
100
AcDbEntity
  8
0-0
  6
JWW_DASHED1
 62
   120
370
     5
100
AcDbLine
 10
-336.5641902854981
 20
-197.5286449744533
 30
0.0
 11
-86.56419028549358
 21
52.47135502555125
 31
0.0
  0
LINE
  5
2E8
330
1F
100
AcDbEntity
  8
0-0
  6
JWW_DASHED1
 62
   120
370
     5
100
AcDbLine
 10
103.4358097144956
 20
242.4713550255404
 30
0.0
 11
353.4358097145002
 21
492.4713550255445
 31
0.0
  0
LINE
  5
2E9
330
1F
100
AcDbEntity
  8
0-0
  6
JWW_DASHED1
 62
   120
370
     5
100
AcDbLine
 10
443.435809714507
 20
582.4713550255518
 30
0.0
 11
693.4358097144961
 21
832.4713550255401
 31
0.0
  0
LINE
  5
2EA
330
1F
100
AcDbEntity
  8
0-0
  6
JWW_DASHED1
 62
   120
370
     5
100
AcDbLine
 10
-676.5641902854959
 20
-530.4575771611649
 30
0.0
 11
-426.5641902854879
 21
-280.4575771611576
 31
0.0
  0
LINE
  5
2EB
330
1F
100
AcDbEntity
  8
0-0
  6
JWW_DASHED1
 62
   120
370
     5
100
AcDbLine
 10
-336.5641902854964
 20
-190.4575771611661
 30
0.0
 11
-86.56419028548846
 21
59.54242283884099
 31
0.0
  0
LINE
  5
2EC
330
1F
100
AcDbEntity
  8
0-0
  6
JWW_DASHED1
 62
   120
370
     5
100
AcDbLine
 10
103.4358097145024
 20
249.5424228388319
 30
0.0
 11
353.4358097145087
 21
499.5424228388381
 31
0.0
  0
LINE
  5
2ED
330
1F
100
AcDbEntity
  8
0-0
  6
JWW_DASHED1
 62
   120
370
     5
100
AcDbLine
 10
443.4358097145155
 20
589.5424228388458
 30
0.0
 11
693.4358097145064
 21
839.5424228388372
 31
0.0
  0
LINE
  5
2EE
330
1F
100
AcDbEntity
  8
0-0
  6
JWW_DASHED1
 62
   120
370
     5
100
AcDbLine
 10
-676.5641902854908
 20
-523.3865093479293
 30
0.0
 11
-426.5641902854862
 21
-273.3865093479245
 31
0.0
  0
LINE
  5
2EF
330
1F
100
AcDbEntity
  8
0-0
  6
JWW_DASHED1
 62
   120
370
     5
100
AcDbLine
 10
-336.5641902854794
 20
-183.3865093479181
 30
0.0
 11
-86.56419028549017
 21
66.61349065207105
 31
0.0
  0
LINE
  5
2F0
330
1F
100
AcDbEntity
  8
0-0
  6
JWW_DASHED1
 62
   120
370
     5
100
AcDbLine
 10
103.435809714499
 20
256.6134906520602
 30
0.0
 11
353.4358097145189
 21
506.6134906520801
 31
0.0
  0
LINE
  5
2F1
330
1F
100
AcDbEntity
  8
0-0
  6
JWW_DASHED1
 62
   120
370
     5
100
AcDbLine
 10
443.4358097145104
 20
596.6134906520712
 30
0.0
 11
693.4358097144979
 21
846.6134906520599
 31
0.0
  0
LINE
  5
2F2
330
1F
100
AcDbEntity
  8
0-0
  6
JWW_DASHED1
 62
   120
370
     5
100
AcDbLine
 10
-676.5641902854942
 20
-516.3154415346479
 30
0.0
 11
-426.5641902854896
 21
-266.3154415346429
 31
0.0
  0
LINE
  5
2F3
330
1F
100
AcDbEntity
  8
0-0
  6
JWW_DASHED1
 62
   120
370
     5
100
AcDbLine
 10
-336.5641902854828
 20
-176.3154415346365
 30
0.0
 11
-86.56419028549358
 21
73.68455846535227
 31
0.0
  0
LINE
  5
2F4
330
1F
100
AcDbEntity
  8
0-0
  6
JWW_DASHED1
 62
   120
370
     5
100
AcDbLine
 10
103.435809714511
 20
263.6845584653572
 30
0.0
 11
353.4358097145155
 21
513.6845584653618
 31
0.0
  0
LINE
  5
2F5
330
1F
100
AcDbEntity
  8
0-0
  6
JWW_DASHED1
 62
   120
370
     5
100
AcDbLine
 10
443.4358097145053
 20
603.6845584653524
 30
0.0
 11
693.4358097145098
 21
853.6845584653565
 31
0.0
  0
LINE
  5
2F6
330
1F
100
AcDbEntity
  8
0-0
  6
JWW_DASHED1
 62
   120
370
     5
100
AcDbLine
 10
-676.5641902854993
 20
-509.2443737213666
 30
0.0
 11
-426.564190285493
 21
-259.2443737213617
 31
0.0
  0
LINE
  5
2F7
330
1F
100
AcDbEntity
  8
0-0
  6
JWW_DASHED1
 62
   120
370
     5
100
AcDbLine
 10
-336.5641902854879
 20
-169.2443737213553
 30
0.0
 11
-86.5641902854987
 21
80.75562627863391
 31
0.0
  0
LINE
  5
2F8
330
1F
100
AcDbEntity
  8
0-0
  6
JWW_DASHED1
 62
   120
370
     5
100
AcDbLine
 10
103.4358097145059
 20
270.7556262786389
 30
0.0
 11
353.4358097145104
 21
520.755626278643
 31
0.0
  0
LINE
  5
2F9
330
1F
100
AcDbEntity
  8
0-0
  6
JWW_DASHED1
 62
   120
370
     5
100
AcDbLine
 10
443.4358097145019
 20
610.755626278634
 30
0.0
 11
693.4358097145064
 21
860.7556262786377
 31
0.0
  0
LINE
  5
2FA
330
1F
100
AcDbEntity
  8
0-0
  6
JWW_DASHED1
 62
   120
370
     5
100
AcDbLine
 10
-676.5641902855027
 20
-502.173305908085
 30
0.0
 11
-426.5641902854828
 21
-252.1733059080647
 31
0.0
  0
LINE
  5
2FB
330
1F
100
AcDbEntity
  8
0-0
  6
JWW_DASHED1
 62
   120
370
     5
100
AcDbLine
 10
-336.5641902854913
 20
-162.1733059080736
 30
0.0
 11
-86.56419028550211
 21
87.82669409191556
 31
0.0
  0
LINE
  5
2FC
330
1F
100
AcDbEntity
  8
0-0
  6
JWW_DASHED1
 62
   120
370
     5
100
AcDbLine
 10
103.4358097145024
 20
277.8266940919201
 30
0.0
 11
353.435809714507
 21
527.8266940919247
 31
0.0
  0
LINE
  5
2FD
330
1F
100
AcDbEntity
  8
0-0
  6
JWW_DASHED1
 62
   120
370
     5
100
AcDbLine
 10
443.4358097145138
 20
617.826694091931
 30
0.0
 11
693.435809714503
 21
867.8266940919198
 31
0.0
  0
LINE
  5
2FE
330
1F
100
AcDbEntity
  8
0-0
  6
JWW_DASHED1
 62
   120
370
     5
100
AcDbLine
 10
-676.5641902854908
 20
-495.102238094788
 30
0.0
 11
-426.5641902854862
 21
-245.1022380947835
 31
0.0
  0
LINE
  5
2FF
330
1F
100
AcDbEntity
  8
0-0
  6
JWW_DASHED1
 62
   120
370
     5
100
AcDbLine
 10
-336.5641902854947
 20
-155.1022380947924
 30
0.0
 11
-86.56419028549017
 21
94.89776190521255
 31
0.0
  0
LINE
  5
300
330
1F
100
AcDbEntity
  8
0-0
  6
JWW_DASHED1
 62
   120
370
     5
100
AcDbLine
 10
103.435809714499
 20
284.8977619052017
 30
0.0
 11
353.4358097145036
 21
534.8977619052059
 31
0.0
  0
LINE
  5
301
330
1F
100
AcDbEntity
  8
0-0
  6
JWW_DASHED1
 62
   120
370
     5
100
AcDbLine
 10
443.4358097145104
 20
624.8977619052127
 30
0.0
 11
691.4860154933807
 21
872.9479676840839
 31
0.0
  0
LINE
  5
302
330
1F
100
AcDbEntity
  8
0-0
  6
JWW_DASHED1
 62
   120
370
     5
100
AcDbLine
 10
-676.5641902854959
 20
-488.0311702815064
 30
0.0
 11
-426.5641902854896
 21
-238.0311702815018
 31
0.0
  0
LINE
  5
303
330
1F
100
AcDbEntity
  8
0-0
  6
JWW_DASHED1
 62
   120
370
     5
100
AcDbLine
 10
-336.5641902854998
 20
-148.0311702815112
 30
0.0
 11
-86.56419028549529
 21
101.9688297184938
 31
0.0
  0
LINE
  5
304
330
1F
100
AcDbEntity
  8
0-0
  6
JWW_DASHED1
 62
   120
370
     5
100
AcDbLine
 10
103.4358097144939
 20
291.968829718483
 30
0.0
 11
353.4358097144985
 21
541.9688297184871
 31
0.0
  0
LINE
  5
305
330
1F
100
AcDbEntity
  8
0-0
  6
JWW_DASHED1
 62
   120
370
     5
100
AcDbLine
 10
443.4358097145053
 20
631.9688297184939
 30
0.0
 11
684.4149476800986
 21
872.9479676840873
 31
0.0
  0
LINE
  5
306
330
1F
100
AcDbEntity
  8
0-0
  6
JWW_DASHED1
 62
   120
370
     5
100
AcDbLine
 10
-676.5641902854959
 20
-480.9601024682222
 30
0.0
 11
-426.5641902854896
 21
-230.9601024682146
 31
0.0
  0
LINE
  5
307
330
1F
100
AcDbEntity
  8
0-0
  6
JWW_DASHED1
 62
   120
370
     5
100
AcDbLine
 10
-336.5641902854811
 20
-140.9601024682074
 30
0.0
 11
-86.56419028549017
 21
109.0398975317839
 31
0.0
  0
LINE
  5
308
330
1F
100
AcDbEntity
  8
0-0
  6
JWW_DASHED1
 62
   120
370
     5
100
AcDbLine
 10
103.4358097145007
 20
299.0398975317748
 30
0.0
 11
353.435809714507
 21
549.0398975317815
 31
0.0
  0
LINE
  5
309
330
1F
100
AcDbEntity
  8
0-0
  6
JWW_DASHED1
 62
   120
370
     5
100
AcDbLine
 10
443.4358097145155
 20
639.0398975317887
 30
0.0
 11
677.3438798668012
 21
872.9479676840754
 31
0.0
  0
LINE
  5
30A
330
1F
100
AcDbEntity
  8
0-0
  6
JWW_DASHED1
 62
   120
370
     5
100
AcDbLine
 10
-676.564190285501
 20
-473.8890346549405
 30
0.0
 11
-426.564190285493
 21
-223.8890346549334
 31
0.0
  0
LINE
  5
30B
330
1F
100
AcDbEntity
  8
0-0
  6
JWW_DASHED1
 62
   120
370
     5
100
AcDbLine
 10
-336.5641902854862
 20
-133.8890346549262
 30
0.0
 11
-86.56419028549358
 21
116.1109653450652
 31
0.0
  0
LINE
  5
30C
330
1F
100
AcDbEntity
  8
0-0
  6
JWW_DASHED1
 62
   120
370
     5
100
AcDbLine
 10
103.4358097144973
 20
306.1109653450565
 30
0.0
 11
353.4358097145189
 21
556.1109653450785
 31
0.0
  0
LINE
  5
30D
330
1F
100
AcDbEntity
  8
0-0
  6
JWW_DASHED1
 62
   120
370
     5
100
AcDbLine
 10
443.4358097145104
 20
646.1109653450704
 30
0.0
 11
670.2728120535191
 21
872.9479676840788
 31
0.0
  0
LINE
  5
30E
330
1F
100
AcDbEntity
  8
0-0
  6
JWW_DASHED1
 62
   120
370
     5
100
AcDbLine
 10
-676.5641902854908
 20
-466.8179668416465
 30
0.0
 11
-426.5641902854862
 21
-216.817966841642
 31
0.0
  0
LINE
  5
30F
330
1F
100
AcDbEntity
  8
0-0
  6
JWW_DASHED1
 62
   120
370
     5
100
AcDbLine
 10
-336.5641902854794
 20
-126.8179668416352
 30
0.0
 11
-86.56419028549188
 21
123.1820331583536
 31
0.0
  0
LINE
  5
310
330
1F
100
AcDbEntity
  8
0-0
  6
JWW_DASHED1
 62
   120
370
     5
100
AcDbLine
 10
103.435809714499
 20
313.1820331583428
 30
0.0
 11
353.4358097145172
 21
563.1820331583631
 31
0.0
  0
LINE
  5
311
330
1F
100
AcDbEntity
  8
0-0
  6
JWW_DASHED1
 62
   120
370
     5
100
AcDbLine
 10
443.4358097145087
 20
653.1820331583538
 30
0.0
 11
663.2017442402234
 21
872.9479676840685
 31
0.0
  0
LINE
  5
312
330
1F
100
AcDbEntity
  8
0-0
  6
JWW_DASHED1
 62
   120
370
     5
100
AcDbLine
 10
-676.5641902854976
 20
-459.7468990283943
 30
0.0
 11
-426.564190285493
 21
-209.7468990283897
 31
0.0
  0
LINE
  5
313
330
1F
100
AcDbEntity
  8
0-0
  6
JWW_DASHED1
 62
   120
370
     5
100
AcDbLine
 10
-336.5641902854862
 20
-119.7468990283834
 30
0.0
 11
-86.56419028549699
 21
130.2531009716058
 31
0.0
  0
LINE
  5
314
330
1F
100
AcDbEntity
  8
0-0
  6
JWW_DASHED1
 62
   120
370
     5
100
AcDbLine
 10
103.4358097145076
 20
320.2531009716108
 30
0.0
 11
353.4358097145121
 21
570.2531009716149
 31
0.0
  0
LINE
  5
315
330
1F
100
AcDbEntity
  8
0-0
  6
JWW_DASHED1
 62
   120
370
     5
100
AcDbLine
 10
443.4358097145036
 20
660.253100971606
 30
0.0
 11
656.1306764269721
 21
872.9479676840754
 31
0.0
  0
LINE
  5
316
330
1F
100
AcDbEntity
  8
0-0
  6
JWW_DASHED1
 62
   120
370
     5
100
AcDbLine
 10
-676.5641902855044
 20
-452.6758312151429
 30
0.0
 11
-426.5641902854828
 21
-202.6758312151222
 31
0.0
  0
LINE
  5
317
330
1F
100
AcDbEntity
  8
0-0
  6
JWW_DASHED1
 62
   120
370
     5
100
AcDbLine
 10
-336.564190285493
 20
-112.6758312151311
 30
0.0
 11
-86.56419028548846
 21
137.3241687848734
 31
0.0
  0
LINE
  5
318
330
1F
100
AcDbEntity
  8
0-0
  6
JWW_DASHED1
 62
   120
370
     5
100
AcDbLine
 10
103.4358097145007
 20
327.3241687848626
 30
0.0
 11
353.4358097145053
 21
577.3241687848672
 31
0.0
  0
LINE
  5
319
330
1F
100
AcDbEntity
  8
0-0
  6
JWW_DASHED1
 62
   120
370
     5
100
AcDbLine
 10
443.4358097145121
 20
667.3241687848736
 30
0.0
 11
649.0596086137173
 21
872.9479676840788
 31
0.0
  0
LINE
  5
31A
330
1F
100
AcDbEntity
  8
0-0
  6
JWW_DASHED1
 62
   120
370
     5
100
AcDbLine
 10
-676.5641902854925
 20
-445.6047634018455
 30
0.0
 11
-426.5641902854879
 21
-195.604763401841
 31
0.0
  0
LINE
  5
31B
330
1F
100
AcDbEntity
  8
0-0
  6
JWW_DASHED1
 62
   120
370
     5
100
AcDbLine
 10
-336.5641902854964
 20
-105.6047634018499
 30
0.0
 11
-86.56419028549188
 21
144.3952365981551
 31
0.0
  0
LINE
  5
31C
330
1F
100
AcDbEntity
  8
0-0
  6
JWW_DASHED1
 62
   120
370
     5
100
AcDbLine
 10
103.4358097144973
 20
334.3952365981443
 30
0.0
 11
353.4358097145019
 21
584.3952365981479
 31
0.0
  0
LINE
  5
31D
330
1F
100
AcDbEntity
  8
0-0
  6
JWW_DASHED1
 62
   120
370
     5
100
AcDbLine
 10
443.4358097145087
 20
674.3952365981552
 30
0.0
 11
641.9885408004369
 21
872.9479676840831
 31
0.0
  0
LINE
  5
31E
330
1F
100
AcDbEntity
  8
0-0
  6
JWW_DASHED1
 62
   120
370
     5
100
AcDbLine
 10
-676.5641902854959
 20
-438.5336955885643
 30
0.0
 11
-426.5641902854913
 21
-188.5336955885593
 31
0.0
  0
LINE
  5
31F
330
1F
100
AcDbEntity
  8
0-0
  6
JWW_DASHED1
 62
   120
370
     5
100
AcDbLine
 10
-336.5641902855015
 20
-98.53369558856869
 30
0.0
 11
-86.56419028549529
 21
151.4663044114363
 31
0.0
  0
LINE
  5
320
330
1F
100
AcDbEntity
  8
0-0
  6
JWW_DASHED1
 62
   120
370
     5
100
AcDbLine
 10
103.4358097144922
 20
341.4663044114255
 30
0.0
 11
353.4358097144968
 21
591.4663044114296
 31
0.0
  0
LINE
  5
321
330
1F
100
AcDbEntity
  8
0-0
  6
JWW_DASHED1
 62
   120
370
     5
100
AcDbLine
 10
443.4358097145036
 20
681.466304411436
 30
0.0
 11
634.9174729871548
 21
872.9479676840865
 31
0.0
  0
LINE
  5
322
330
1F
100
AcDbEntity
  8
0-0
  6
JWW_DASHED1
 62
   120
370
     5
100
AcDbLine
 10
-676.5641902854976
 20
-431.4626277752788
 30
0.0
 11
-426.5641902854896
 21
-181.4626277752721
 31
0.0
  0
LINE
  5
323
330
1F
100
AcDbEntity
  8
0-0
  6
JWW_DASHED1
 62
   120
370
     5
100
AcDbLine
 10
-336.5641902854828
 20
-91.46262777526445
 30
0.0
 11
-86.56419028549188
 21
158.5373722247269
 31
0.0
  0
LINE
  5
324
330
1F
100
AcDbEntity
  8
0-0
  6
JWW_DASHED1
 62
   120
370
     5
100
AcDbLine
 10
103.435809714499
 20
348.5373722247178
 30
0.0
 11
353.435809714507
 21
598.5373722247244
 31
0.0
  0
LINE
  5
325
330
1F
100
AcDbEntity
  8
0-0
  6
JWW_DASHED1
 62
   120
370
     5
100
AcDbLine
 10
443.4358097145138
 20
688.5373722247317
 30
0.0
 11
627.8464051738557
 21
872.9479676840745
 31
0.0
  0
LINE
  5
326
330
1F
100
AcDbEntity
  8
0-0
  6
JWW_DASHED1
 62
   120
370
     5
100
AcDbLine
 10
-676.564190285501
 20
-424.3915599619976
 30
0.0
 11
-426.564190285493
 21
-174.3915599619905
 31
0.0
  0
LINE
  5
327
330
1F
100
AcDbEntity
  8
0-0
  6
JWW_DASHED1
 62
   120
370
     5
100
AcDbLine
 10
-336.5641902854862
 20
-84.39155996198323
 30
0.0
 11
-86.56419028549529
 21
165.6084400380085
 31
0.0
  0
LINE
  5
328
330
1F
100
AcDbEntity
  8
0-0
  6
JWW_DASHED1
 62
   120
370
     5
100
AcDbLine
 10
103.4358097144956
 20
355.6084400379995
 30
0.0
 11
353.4358097145189
 21
605.6084400380219
 31
0.0
  0
LINE
  5
329
330
1F
100
AcDbEntity
  8
0-0
  6
JWW_DASHED1
 62
   120
370
     5
100
AcDbLine
 10
443.4358097145104
 20
695.6084400380138
 30
0.0
 11
620.7753373605753
 21
872.9479676840779
 31
0.0
  0
LINE
  5
32A
330
1F
100
AcDbEntity
  8
0-0
  6
JWW_DASHED1
 62
   120
370
     5
100
AcDbLine
 10
-676.5641902854925
 20
-417.320492148704
 30
0.0
 11
-426.5641902854879
 21
-167.3204921486995
 31
0.0
  0
LINE
  5
32B
330
1F
100
AcDbEntity
  8
0-0
  6
JWW_DASHED1
 62
   120
370
     5
100
AcDbLine
 10
-336.5641902854811
 20
-77.32049214869264
 30
0.0
 11
-86.56419028549188
 21
172.6795078512961
 31
0.0
  0
LINE
  5
32C
330
1F
100
AcDbEntity
  8
0-0
  6
JWW_DASHED1
 62
   120
370
     5
100
AcDbLine
 10
103.4358097144956
 20
362.6795078512853
 30
0.0
 11
353.4358097145172
 21
612.6795078513056
 31
0.0
  0
LINE
  5
32D
330
1F
100
AcDbEntity
  8
0-0
  6
JWW_DASHED1
 62
   120
370
     5
100
AcDbLine
 10
443.435809714507
 20
702.6795078512966
 30
0.0
 11
613.704269547283
 21
872.947967684071
 31
0.0
  0
LINE
  5
32E
330
1F
100
AcDbEntity
  8
0-0
  6
JWW_DASHED1
 62
   120
370
     5
100
AcDbLine
 10
-676.5641902854976
 20
-410.2494243354228
 30
0.0
 11
-426.564190285493
 21
-160.2494243354178
 31
0.0
  0
LINE
  5
32F
330
1F
100
AcDbEntity
  8
0-0
  6
JWW_DASHED1
 62
   120
370
     5
100
AcDbLine
 10
-336.5641902854862
 20
-70.24942433541142
 30
0.0
 11
-86.56419028549699
 21
179.7505756645778
 31
0.0
  0
LINE
  5
330
330
1F
100
AcDbEntity
  8
0-0
  6
JWW_DASHED1
 62
   120
370
     5
100
AcDbLine
 10
103.4358097145093
 20
369.7505756645828
 30
0.0
 11
353.4358097145121
 21
619.7505756645869
 31
0.0
  0
LINE
  5
331
330
1F
100
AcDbEntity
  8
0-0
  6
JWW_DASHED1
 62
   120
370
     5
100
AcDbLine
 10
443.4358097145036
 20
709.7505756645779
 30
0.0
 11
606.633201734001
 21
872.9479676840754
 31
0.0
  0
LINE
  5
332
330
1F
100
AcDbEntity
  8
0-0
  6
JWW_DASHED1
 62
   120
370
     5
100
AcDbLine
 10
-676.564190285501
 20
-403.1783565221411
 30
0.0
 11
-426.5641902854811
 21
-153.1783565221208
 31
0.0
  0
LINE
  5
333
330
1F
100
AcDbEntity
  8
0-0
  6
JWW_DASHED1
 62
   120
370
     5
100
AcDbLine
 10
-336.5641902854896
 20
-63.17835652212977
 30
0.0
 11
-86.5641902855004
 21
186.821643477859
 31
0.0
  0
LINE
  5
334
330
1F
100
AcDbEntity
  8
0-0
  6
JWW_DASHED1
 62
   120
370
     5
100
AcDbLine
 10
103.4358097145041
 20
376.821643477864
 30
0.0
 11
353.4358097145087
 21
626.8216434778685
 31
0.0
  0
LINE
  5
335
330
1F
100
AcDbEntity
  8
0-0
  6
JWW_DASHED1
 62
   120
370
     5
100
AcDbLine
 10
443.4358097145002
 20
716.8216434778592
 30
0.0
 11
599.5621339207206
 21
872.9479676840797
 31
0.0
  0
LINE
  5
336
330
1F
100
AcDbEntity
  8
0-0
  6
JWW_DASHED1
 62
   120
370
     5
100
AcDbLine
 10
-676.5641902855044
 20
-396.1072887088599
 30
0.0
 11
-426.5641902854845
 21
-146.1072887088396
 31
0.0
  0
LINE
  5
337
330
1F
100
AcDbEntity
  8
0-0
  6
JWW_DASHED1
 62
   120
370
     5
100
AcDbLine
 10
-336.564190285493
 20
-56.10728870884856
 30
0.0
 11
-86.56419028548846
 21
193.8927112911564
 31
0.0
  0
LINE
  5
338
330
1F
100
AcDbEntity
  8
0-0
  6
JWW_DASHED1
 62
   120
370
     5
100
AcDbLine
 10
103.4358097145007
 20
383.8927112911456
 30
0.0
 11
353.4358097145053
 21
633.8927112911497
 31
0.0
  0
LINE
  5
339
330
1F
100
AcDbEntity
  8
0-0
  6
JWW_DASHED1
 62
   120
370
     5
100
AcDbLine
 10
443.4358097145104
 20
723.8927112911565
 30
0.0
 11
592.4910661074317
 21
872.9479676840771
 31
0.0
  0
LINE
  5
33A
330
1F
100
AcDbEntity
  8
0-0
  6
JWW_DASHED1
 62
   120
370
     5
100
AcDbLine
 10
-676.5641902854976
 20
-389.0362208956213
 30
0.0
 11
-426.564190285493
 21
-139.0362208956168
 31
0.0
  0
LINE
  5
33B
330
1F
100
AcDbEntity
  8
0-0
  6
JWW_DASHED1
 62
   120
370
     5
100
AcDbLine
 10
-336.5641902855015
 20
-49.03622089562617
 30
0.0
 11
-86.56419028549699
 21
200.9637791043788
 31
0.0
  0
LINE
  5
33C
330
1F
100
AcDbEntity
  8
0-0
  6
JWW_DASHED1
 62
   120
370
     5
100
AcDbLine
 10
103.4358097144922
 20
390.963779104368
 30
0.0
 11
353.4358097144968
 21
640.9637791043722
 31
0.0
  0
LINE
  5
33D
330
1F
100
AcDbEntity
  8
0-0
  6
JWW_DASHED1
 62
   120
370
     5
100
AcDbLine
 10
443.4358097145036
 20
730.963779104379
 30
0.0
 11
585.4199982942093
 21
872.9479676840856
 31
0.0
  0
LINE
  5
33E
330
1F
100
AcDbEntity
  8
0-0
  6
JWW_DASHED1
 62
   120
370
     5
100
AcDbLine
 10
-676.5641902854976
 20
-381.9651530823359
 30
0.0
 11
-426.5641902854913
 21
-131.9651530823292
 31
0.0
  0
LINE
  5
33F
330
1F
100
AcDbEntity
  8
0-0
  6
JWW_DASHED1
 62
   120
370
     5
100
AcDbLine
 10
-336.5641902854828
 20
-41.96515308232151
 30
0.0
 11
-86.56419028549188
 21
208.0348469176698
 31
0.0
  0
LINE
  5
340
330
1F
100
AcDbEntity
  8
0-0
  6
JWW_DASHED1
 62
   120
370
     5
100
AcDbLine
 10
103.435809714499
 20
398.0348469176607
 30
0.0
 11
353.4358097145053
 21
648.0348469176674
 31
0.0
  0
LINE
  5
341
330
1F
100
AcDbEntity
  8
0-0
  6
JWW_DASHED1
 62
   120
370
     5
100
AcDbLine
 10
443.4358097145138
 20
738.0348469176747
 30
0.0
 11
578.3489304809119
 21
872.9479676840737
 31
0.0
  0
LINE
  5
342
330
1F
100
AcDbEntity
  8
0-0
  6
JWW_DASHED1
 62
   120
370
     5
100
AcDbLine
 10
-676.564190285501
 20
-374.8940852690546
 30
0.0
 11
-426.5641902854947
 21
-124.8940852690475
 31
0.0
  0
LINE
  5
343
330
1F
100
AcDbEntity
  8
0-0
  6
JWW_DASHED1
 62
   120
370
     5
100
AcDbLine
 10
-336.5641902854879
 20
-34.89408526904029
 30
0.0
 11
-86.56419028549529
 21
215.1059147309515
 31
0.0
  0
LINE
  5
344
330
1F
100
AcDbEntity
  8
0-0
  6
JWW_DASHED1
 62
   120
370
     5
100
AcDbLine
 10
103.4358097144956
 20
405.1059147309423
 30
0.0
 11
353.4358097145172
 21
655.1059147309644
 31
0.0
  0
LINE
  5
345
330
1F
100
AcDbEntity
  8
0-0
  6
JWW_DASHED1
 62
   120
370
     5
100
AcDbLine
 10
443.4358097145087
 20
745.1059147309568
 30
0.0
 11
571.2778626676298
 21
872.9479676840771
 31
0.0
  0
LINE
  5
346
330
1F
100
AcDbEntity
  8
0-0
  6
JWW_DASHED1
 62
   120
370
     5
100
AcDbLine
 10
-676.5641902854942
 20
-367.8230174557615
 30
0.0
 11
-426.5641902854896
 21
-117.8230174557569
 31
0.0
  0
LINE
  5
347
330
1F
100
AcDbEntity
  8
0-0
  6
JWW_DASHED1
 62
   120
370
     5
100
AcDbLine
 10
-336.5641902854828
 20
-27.82301745575012
 30
0.0
 11
-86.56419028549358
 21
222.1769825442391
 31
0.0
  0
LINE
  5
348
330
1F
100
AcDbEntity
  8
0-0
  6
JWW_DASHED1
 62
   120
370
     5
100
AcDbLine
 10
103.4358097144956
 20
412.1769825442278
 30
0.0
 11
353.4358097145155
 21
662.1769825442482
 31
0.0
  0
LINE
  5
349
330
1F
100
AcDbEntity
  8
0-0
  6
JWW_DASHED1
 62
   120
370
     5
100
AcDbLine
 10
443.435809714507
 20
752.1769825442389
 30
0.0
 11
564.206794854341
 21
872.9479676840732
 31
0.0
  0
LINE
  5
34A
330
1F
100
AcDbEntity
  8
0-0
  6
JWW_DASHED1
 62
   120
370
     5
100
AcDbLine
 10
-676.5641902854976
 20
-360.7519496424803
 30
0.0
 11
-426.564190285493
 21
-110.7519496424757
 31
0.0
  0
LINE
  5
34B
330
1F
100
AcDbEntity
  8
0-0
  6
JWW_DASHED1
 62
   120
370
     5
100
AcDbLine
 10
-336.5641902854862
 20
-20.7519496424689
 30
0.0
 11
-86.5641902854987
 21
229.2480503575203
 31
0.0
  0
LINE
  5
34C
330
1F
100
AcDbEntity
  8
0-0
  6
JWW_DASHED1
 62
   120
370
     5
100
AcDbLine
 10
103.4358097145076
 20
419.2480503575248
 30
0.0
 11
353.4358097145121
 21
669.2480503575293
 31
0.0
  0
LINE
  5
34D
330
1F
100
AcDbEntity
  8
0-0
  6
JWW_DASHED1
 62
   120
370
     5
100
AcDbLine
 10
443.4358097145019
 20
759.2480503575205
 30
0.0
 11
557.1357270410589
 21
872.9479676840771
 31
0.0
  0
LINE
  5
34E
330
1F
100
AcDbEntity
  8
0-0
  6
JWW_DASHED1
 62
   120
370
     5
100
AcDbLine
 10
-676.5641902855027
 20
-353.6808818291991
 30
0.0
 11
-426.5641902854811
 21
-103.6808818291783
 31
0.0
  0
LINE
  5
34F
330
1F
100
AcDbEntity
  8
0-0
  6
JWW_DASHED1
 62
   120
370
     5
100
AcDbLine
 10
-336.5641902854913
 20
-13.68088182918726
 30
0.0
 11
-86.56419028550211
 21
236.3191181708015
 31
0.0
  0
LINE
  5
350
330
1F
100
AcDbEntity
  8
0-0
  6
JWW_DASHED1
 62
   120
370
     5
100
AcDbLine
 10
103.4358097145024
 20
426.3191181708065
 30
0.0
 11
353.435809714507
 21
676.3191181708106
 31
0.0
  0
LINE
  5
351
330
1F
100
AcDbEntity
  8
0-0
  6
JWW_DASHED1
 62
   120
370
     5
100
AcDbLine
 10
443.4358097144985
 20
766.3191181708016
 30
0.0
 11
550.0646592277785
 21
872.9479676840822
 31
0.0
  0
LINE
  5
352
330
1F
100
AcDbEntity
  8
0-0
  6
JWW_DASHED1
 62
   120
370
     5
100
AcDbLine
 10
-676.5641902855061
 20
-346.6098140159174
 30
0.0
 11
-426.5641902854862
 21
-96.60981401589709
 31
0.0
  0
LINE
  5
353
330
1F
100
AcDbEntity
  8
0-0
  6
JWW_DASHED1
 62
   120
370
     5
100
AcDbLine
 10
-336.5641902854947
 20
-6.609814015906039
 30
0.0
 11
-86.56419028549017
 21
243.3901859840989
 31
0.0
  0
LINE
  5
354
330
1F
100
AcDbEntity
  8
0-0
  6
JWW_DASHED1
 62
   120
370
     5
100
AcDbLine
 10
103.435809714499
 20
433.3901859840881
 30
0.0
 11
353.4358097145036
 21
683.3901859840922
 31
0.0
  0
LINE
  5
355
330
1F
100
AcDbEntity
  8
0-0
  6
JWW_DASHED1
 62
   120
370
     5
100
AcDbLine
 10
443.4358097145104
 20
773.3901859840987
 30
0.0
 11
542.9935914144879
 21
872.9479676840763
 31
0.0
  0
LINE
  5
356
330
1F
100
AcDbEntity
  8
0-0
  6
JWW_DASHED1
 62
   120
370
     5
100
AcDbLine
 10
-676.5641902854942
 20
-339.5387462026204
 30
0.0
 11
-426.5641902854896
 21
-89.53874620261544
 31
0.0
  0
LINE
  5
357
330
1F
100
AcDbEntity
  8
0-0
  6
JWW_DASHED1
 62
   120
370
     5
100
AcDbLine
 10
-336.5641902854998
 20
0.4612537973751785
 30
0.0
 11
-86.56419028549529
 21
250.4612537973802
 31
0.0
  0
LINE
  5
358
330
1F
100
AcDbEntity
  8
0-0
  6
JWW_DASHED1
 62
   120
370
     5
100
AcDbLine
 10
103.4358097144956
 20
440.4612537973694
 30
0.0
 11
353.4358097144985
 21
690.4612537973735
 31
0.0
  0
LINE
  5
359
330
1F
100
AcDbEntity
  8
0-0
  6
JWW_DASHED1
 62
   120
370
     5
100
AcDbLine
 10
443.4358097145053
 20
780.4612537973803
 30
0.0
 11
535.9225236012059
 21
872.94796768408
 31
0.0
  0
LINE
  5
35A
330
1F
100
AcDbEntity
  8
0-0
  6
JWW_DASHED1
 62
   120
370
     5
100
AcDbLine
 10
-676.5641902854942
 20
-332.4676783893341
 30
0.0
 11
-426.5641902854879
 21
-82.46767838932698
 31
0.0
  0
LINE
  5
35B
330
1F
100
AcDbEntity
  8
0-0
  6
JWW_DASHED1
 62
   120
370
     5
100
AcDbLine
 10
-336.5641902854947
 20
7.532321610664496
 30
0.0
 11
-86.56419028548846
 21
257.5323216106716
 31
0.0
  0
LINE
  5
35C
330
1F
100
AcDbEntity
  8
0-0
  6
JWW_DASHED1
 62
   120
370
     5
100
AcDbLine
 10
103.4358097145024
 20
447.5323216106625
 30
0.0
 11
353.4358097145087
 21
697.5323216106692
 31
0.0
  0
LINE
  5
35D
330
1F
100
AcDbEntity
  8
0-0
  6
JWW_DASHED1
 62
   120
370
     5
100
AcDbLine
 10
443.4358097145172
 20
787.5323216106765
 30
0.0
 11
528.8514557879084
 21
872.9479676840681
 31
0.0
  0
LINE
  5
35E
330
1F
100
AcDbEntity
  8
0-0
  6
JWW_DASHED1
 62
   120
370
     5
100
AcDbLine
 10
-676.5641902854908
 20
-325.3966105761006
 30
0.0
 11
-426.5641902854862
 21
-75.39661057609564
 31
0.0
  0
LINE
  5
35F
330
1F
100
AcDbEntity
  8
0-0
  6
JWW_DASHED1
 62
   120
370
     5
100
AcDbLine
 10
-336.5641902854794
 20
14.60338942391076
 30
0.0
 11
-86.56419028549188
 21
264.6033894239
 31
0.0
  0
LINE
  5
360
330
1F
100
AcDbEntity
  8
0-0
  6
JWW_DASHED1
 62
   120
370
     5
100
AcDbLine
 10
103.435809714499
 20
454.6033894238892
 30
0.0
 11
353.4358097145189
 21
704.603389423909
 31
0.0
  0
LINE
  5
361
330
1F
100
AcDbEntity
  8
0-0
  6
JWW_DASHED1
 62
   120
370
     5
100
AcDbLine
 10
443.4358097145087
 20
794.6033894238997
 30
0.0
 11
521.780387974686
 21
872.9479676840763
 31
0.0
  0
LINE
  5
362
330
1F
100
AcDbEntity
  8
0-0
  6
JWW_DASHED1
 62
   120
370
     5
100
AcDbLine
 10
-676.5641902854959
 20
-318.3255427628189
 30
0.0
 11
-426.5641902854913
 21
-68.325542762814
 31
0.0
  0
LINE
  5
363
330
1F
100
AcDbEntity
  8
0-0
  6
JWW_DASHED1
 62
   120
370
     5
100
AcDbLine
 10
-336.5641902854845
 20
21.6744572371924
 30
0.0
 11
-86.56419028549529
 21
271.6744572371812
 31
0.0
  0
LINE
  5
364
330
1F
100
AcDbEntity
  8
0-0
  6
JWW_DASHED1
 62
   120
370
     5
100
AcDbLine
 10
103.4358097145093
 20
461.6744572371862
 30
0.0
 11
353.4358097145138
 21
711.6744572371907
 31
0.0
  0
LINE
  5
365
330
1F
100
AcDbEntity
  8
0-0
  6
JWW_DASHED1
 62
   120
370
     5
100
AcDbLine
 10
443.4358097145053
 20
801.6744572371817
 30
0.0
 11
514.7093201613989
 21
872.9479676840754
 31
0.0
  0
LINE
  5
366
330
1F
100
AcDbEntity
  8
0-0
  6
JWW_DASHED1
 62
   120
370
     5
100
AcDbLine
 10
-676.5641902854993
 20
-311.2544749495378
 30
0.0
 11
-426.5641902854947
 21
-61.25447494953278
 31
0.0
  0
LINE
  5
367
330
1F
100
AcDbEntity
  8
0-0
  6
JWW_DASHED1
 62
   120
370
     5
100
AcDbLine
 10
-336.5641902854879
 20
28.74552505047404
 30
0.0
 11
-86.5641902854987
 21
278.7455250504628
 31
0.0
  0
LINE
  5
368
330
1F
100
AcDbEntity
  8
0-0
  6
JWW_DASHED1
 62
   120
370
     5
100
AcDbLine
 10
103.4358097145059
 20
468.7455250504678
 30
0.0
 11
353.4358097145104
 21
718.7455250504719
 31
0.0
  0
LINE
  5
369
330
1F
100
AcDbEntity
  8
0-0
  6
JWW_DASHED1
 62
   120
370
     5
100
AcDbLine
 10
443.4358097145019
 20
808.7455250504629
 30
0.0
 11
507.6382523481186
 21
872.9479676840797
 31
0.0
  0
LINE
  5
36A
330
1F
100
AcDbEntity
  8
0-0
  6
JWW_DASHED1
 62
   120
370
     5
100
AcDbLine
 10
-676.5641902855044
 20
-304.1834071362561
 30
0.0
 11
-426.5641902854828
 21
-54.18340713623579
 31
0.0
  0
LINE
  5
36B
330
1F
100
AcDbEntity
  8
0-0
  6
JWW_DASHED1
 62
   120
370
     5
100
AcDbLine
 10
-336.564190285493
 20
35.81659286375483
 30
0.0
 11
-86.56419028550381
 21
285.8165928637441
 31
0.0
  0
LINE
  5
36C
330
1F
100
AcDbEntity
  8
0-0
  6
JWW_DASHED1
 62
   120
370
     5
100
AcDbLine
 10
103.4358097145024
 20
475.816592863749
 30
0.0
 11
353.4358097145053
 21
725.8165928637536
 31
0.0
  0
LINE
  5
36D
330
1F
100
AcDbEntity
  8
0-0
  6
JWW_DASHED1
 62
   120
370
     5
100
AcDbLine
 10
443.4358097145121
 20
815.81659286376
 30
0.0
 11
500.5671845348245
 21
872.947967684072
 31
0.0
  0
LINE
  5
36E
330
1F
100
AcDbEntity
  8
0-0
  6
JWW_DASHED1
 62
   120
370
     5
100
AcDbLine
 10
-676.5641902854925
 20
-297.1123393229591
 30
0.0
 11
-426.5641902854879
 21
-47.11233932295414
 31
0.0
  0
LINE
  5
36F
330
1F
100
AcDbEntity
  8
0-0
  6
JWW_DASHED1
 62
   120
370
     5
100
AcDbLine
 10
-336.5641902854964
 20
42.88766067703648
 30
0.0
 11
-86.56419028549188
 21
292.8876606770415
 31
0.0
  0
LINE
  5
370
330
1F
100
AcDbEntity
  8
0-0
  6
JWW_DASHED1
 62
   120
370
     5
100
AcDbLine
 10
103.4358097144973
 20
482.8876606770302
 30
0.0
 11
353.4358097145019
 21
732.8876606770348
 31
0.0
  0
LINE
  5
371
330
1F
100
AcDbEntity
  8
0-0
  6
JWW_DASHED1
 62
   120
370
     5
100
AcDbLine
 10
443.4358097145087
 20
822.8876606770416
 30
0.0
 11
493.4961167215425
 21
872.9479676840754
 31
0.0
  0
LINE
  5
372
330
1F
100
AcDbEntity
  8
0-0
  6
JWW_DASHED1
 62
   120
370
     5
100
AcDbLine
 10
-676.5641902854959
 20
-290.0412715096775
 30
0.0
 11
-426.5641902854913
 21
-40.04127150967292
 31
0.0
  0
LINE
  5
373
330
1F
100
AcDbEntity
  8
0-0
  6
JWW_DASHED1
 62
   120
370
     5
100
AcDbLine
 10
-336.5641902854998
 20
49.9587284903177
 30
0.0
 11
-86.56419028549529
 21
299.9587284903226
 31
0.0
  0
LINE
  5
374
330
1F
100
AcDbEntity
  8
0-0
  6
JWW_DASHED1
 62
   120
370
     5
100
AcDbLine
 10
103.4358097144939
 20
489.9587284903118
 30
0.0
 11
353.4358097144985
 21
739.9587284903159
 31
0.0
  0
LINE
  5
375
330
1F
100
AcDbEntity
  8
0-0
  6
JWW_DASHED1
 62
   120
370
     5
100
AcDbLine
 10
443.4358097145036
 20
829.9587284903228
 30
0.0
 11
486.4250489082621
 21
872.9479676840797
 31
0.0
  0
LINE
  5
376
330
1F
100
AcDbEntity
  8
0-0
  6
JWW_DASHED1
 62
   120
370
     5
100
AcDbLine
 10
-676.5641902854942
 20
-282.9702036963911
 30
0.0
 11
-426.5641902854879
 21
-32.97020369638403
 31
0.0
  0
LINE
  5
377
330
1F
100
AcDbEntity
  8
0-0
  6
JWW_DASHED1
 62
   120
370
     5
100
AcDbLine
 10
-336.5641902854811
 20
57.02979630362364
 30
0.0
 11
-86.56419028548846
 21
307.0297963036145
 31
0.0
  0
LINE
  5
378
330
1F
100
AcDbEntity
  8
0-0
  6
JWW_DASHED1
 62
   120
370
     5
100
AcDbLine
 10
103.4358097145024
 20
497.0297963036055
 30
0.0
 11
353.4358097145087
 21
747.0297963036121
 31
0.0
  0
LINE
  5
379
330
1F
100
AcDbEntity
  8
0-0
  6
JWW_DASHED1
 62
   120
370
     5
100
AcDbLine
 10
443.4358097145155
 20
837.0297963036194
 30
0.0
 11
479.353981094963
 21
872.9479676840673
 31
0.0
  0
LINE
  5
37A
330
1F
100
AcDbEntity
  8
0-0
  6
JWW_DASHED1
 62
   120
370
     5
100
AcDbLine
 10
-676.5641902854993
 20
-275.8991358831099
 30
0.0
 11
-426.5641902854913
 21
-25.89913588310282
 31
0.0
  0
LINE
  5
37B
330
1F
100
AcDbEntity
  8
0-0
  6
JWW_DASHED1
 62
   120
370
     5
100
AcDbLine
 10
-336.5641902854845
 20
64.10086411690486
 30
0.0
 11
-86.56419028549358
 21
314.1008641168962
 31
0.0
  0
LINE
  5
37C
330
1F
100
AcDbEntity
  8
0-0
  6
JWW_DASHED1
 62
   120
370
     5
100
AcDbLine
 10
103.4358097144973
 20
504.1008641168871
 30
0.0
 11
353.4358097145053
 21
754.1008641168937
 31
0.0
  0
LINE
  5
37D
330
1F
100
AcDbEntity
  8
0-0
  6
JWW_DASHED1
 62
   120
370
     5
100
AcDbLine
 10
443.4358097145121
 20
844.1008641169014
 30
0.0
 11
472.2829132816809
 21
872.947967684071
 31
0.0
  0
LINE
  5
37E
330
1F
100
AcDbEntity
  8
0-0
  6
JWW_DASHED1
 62
   120
370
     5
100
AcDbLine
 10
-676.5641902854925
 20
-268.8280680698176
 30
0.0
 11
-426.5641902854879
 21
-18.82806806981307
 31
0.0
  0
LINE
  5
37F
330
1F
100
AcDbEntity
  8
0-0
  6
JWW_DASHED1
 62
   120
370
     5
100
AcDbLine
 10
-336.5641902854811
 20
71.17193193019375
 30
0.0
 11
-86.56419028549188
 21
321.1719319301825
 31
0.0
  0
LINE
  5
380
330
1F
100
AcDbEntity
  8
0-0
  6
JWW_DASHED1
 62
   120
370
     5
100
AcDbLine
 10
103.4358097144973
 20
511.1719319301717
 30
0.0
 11
353.4358097145172
 21
761.171931930192
 31
0.0
  0
LINE
  5
381
330
1F
100
AcDbEntity
  8
0-0
  6
JWW_DASHED1
 62
   120
370
     5
100
AcDbLine
 10
443.4358097145087
 20
851.1719319301826
 30
0.0
 11
465.2118454683988
 21
872.9479676840732
 31
0.0
  0
LINE
  5
382
330
1F
100
AcDbEntity
  8
0-0
  6
JWW_DASHED1
 62
   120
370
     5
100
AcDbLine
 10
-676.564190285501
 20
-261.7570002565952
 30
0.0
 11
-426.5641902854964
 21
-11.75700025659069
 31
0.0
  0
LINE
  5
383
330
1F
100
AcDbEntity
  8
0-0
  6
JWW_DASHED1
 62
   120
370
     5
100
AcDbLine
 10
-336.5641902854896
 20
78.24299974341614
 30
0.0
 11
-86.5641902855004
 21
328.2429997434053
 31
0.0
  0
LINE
  5
384
330
1F
100
AcDbEntity
  8
0-0
  6
JWW_DASHED1
 62
   120
370
     5
100
AcDbLine
 10
103.4358097145041
 20
518.2429997434103
 30
0.0
 11
353.4358097145087
 21
768.2429997434144
 31
0.0
  0
LINE
  5
385
330
1F
100
AcDbEntity
  8
0-0
  6
JWW_DASHED1
 62
   120
370
     5
100
AcDbLine
 10
443.4358097145002
 20
858.2429997434054
 30
0.0
 11
458.1407776551765
 21
872.9479676840817
 31
0.0
  0
LINE
  5
386
330
1F
100
AcDbEntity
  8
0-0
  6
JWW_DASHED1
 62
   120
370
     5
100
AcDbLine
 10
-676.5641902855044
 20
-254.685932443314
 30
0.0
 11
-426.5641902854845
 21
-4.685932443293268
 31
0.0
  0
LINE
  5
387
330
1F
100
AcDbEntity
  8
0-0
  6
JWW_DASHED1
 62
   120
370
     5
100
AcDbLine
 10
-336.564190285493
 20
85.31406755669735
 30
0.0
 11
-86.56419028548846
 21
335.3140675567019
 31
0.0
  0
LINE
  5
388
330
1F
100
AcDbEntity
  8
0-0
  6
JWW_DASHED1
 62
   120
370
     5
100
AcDbLine
 10
103.4358097145007
 20
525.3140675566915
 30
0.0
 11
353.4358097145053
 21
775.3140675566956
 31
0.0
  0
LINE
  5
389
330
1F
100
AcDbEntity
  8
0-0
  6
JWW_DASHED1
 62
   120
370
     5
100
AcDbLine
 10
443.4358097145121
 20
865.3140675567024
 30
0.0
 11
451.069709841879
 21
872.947967684071
 31
0.0
  0
LINE
  5
38A
330
1F
100
AcDbEntity
  8
0-0
  6
JWW_DASHED1
 62
   120
370
     5
100
AcDbLine
 10
-676.5641902854942
 20
-247.6148646300166
 30
0.0
 11
-426.5641902854879
 21
2.38513536998795
 31
0.0
  0
LINE
  5
38B
330
1F
100
AcDbEntity
  8
0-0
  6
JWW_DASHED1
 62
   120
370
     5
100
AcDbLine
 10
-336.5641902854981
 20
92.385135369979
 30
0.0
 11
-86.56419028549188
 21
342.385135369984
 31
0.0
  0
LINE
  5
38C
330
1F
100
AcDbEntity
  8
0-0
  6
JWW_DASHED1
 62
   120
370
     5
100
AcDbLine
 10
103.4358097144956
 20
532.3851353699731
 30
0.0
 11
353.4358097145002
 21
782.3851353699773
 31
0.0
  0
LINE
  5
38D
330
1F
100
AcDbEntity
  8
0-0
  6
JWW_DASHED1
 62
   120
370
     5
100
AcDbLine
 10
443.435809714507
 20
872.3851353699837
 30
0.0
 11
443.9986420285987
 21
872.9479676840745
 31
0.0
  0
LINE
  5
38E
330
1F
100
AcDbEntity
  8
0-0
  6
JWW_DASHED1
 62
   120
370
     5
100
AcDbLine
 10
-676.5641902854976
 20
-240.5437968167354
 30
0.0
 11
-426.564190285493
 21
9.456203183269594
 31
0.0
  0
LINE
  5
38F
330
1F
100
AcDbEntity
  8
0-0
  6
JWW_DASHED1
 62
   120
370
     5
100
AcDbLine
 10
-336.5641902855015
 20
99.45620318326021
 30
0.0
 11
-86.56419028549699
 21
349.4562031832652
 31
0.0
  0
LINE
  5
390
330
1F
100
AcDbEntity
  8
0-0
  6
JWW_DASHED1
 62
   120
370
     5
100
AcDbLine
 10
103.4358097144922
 20
539.4562031832544
 30
0.0
 11
353.4358097144968
 21
789.4562031832589
 31
0.0
  0
LINE
  5
391
330
1F
100
AcDbEntity
  8
0-0
  6
JWW_DASHED1
 62
   120
370
     5
100
AcDbLine
 10
-676.5641902854959
 20
-233.4727290034482
 30
0.0
 11
-426.5641902854896
 21
16.52727099655891
 31
0.0
  0
LINE
  5
392
330
1F
100
AcDbEntity
  8
0-0
  6
JWW_DASHED1
 62
   120
370
     5
100
AcDbLine
 10
-336.5641902854811
 20
106.5272709965666
 30
0.0
 11
-86.56419028549017
 21
356.5272709965575
 31
0.0
  0
LINE
  5
393
330
1F
100
AcDbEntity
  8
0-0
  6
JWW_DASHED1
 62
   120
370
     5
100
AcDbLine
 10
103.4358097145007
 20
546.5272709965484
 30
0.0
 11
353.435809714507
 21
796.5272709965551
 31
0.0
  0
LINE
  5
394
330
1F
100
AcDbEntity
  8
0-0
  6
JWW_DASHED1
 62
   120
370
     5
100
AcDbLine
 10
-676.5641902854993
 20
-226.401661190167
 30
0.0
 11
-426.564190285493
 21
23.59833880984013
 31
0.0
  0
LINE
  5
395
330
1F
100
AcDbEntity
  8
0-0
  6
JWW_DASHED1
 62
   120
370
     5
100
AcDbLine
 10
-336.5641902854862
 20
113.5983388098478
 30
0.0
 11
-86.56419028549358
 21
363.5983388098391
 31
0.0
  0
LINE
  5
396
330
1F
100
AcDbEntity
  8
0-0
  6
JWW_DASHED1
 62
   120
370
     5
100
AcDbLine
 10
103.4358097144973
 20
553.59833880983
 30
0.0
 11
353.4358097145189
 21
803.5983388098525
 31
0.0
  0
LINE
  5
397
330
1F
100
AcDbEntity
  8
0-0
  6
JWW_DASHED1
 62
   120
370
     5
100
AcDbLine
 10
-676.5641902854942
 20
-219.3305933768751
 30
0.0
 11
-426.5641902854896
 21
30.66940662312945
 31
0.0
  0
LINE
  5
398
330
1F
100
AcDbEntity
  8
0-0
  6
JWW_DASHED1
 62
   120
370
     5
100
AcDbLine
 10
-336.5641902854828
 20
120.6694066231363
 30
0.0
 11
-86.56419028549358
 21
370.669406623125
 31
0.0
  0
LINE
  5
399
330
1F
100
AcDbEntity
  8
0-0
  6
JWW_DASHED1
 62
   120
370
     5
100
AcDbLine
 10
103.4358097144956
 20
560.6694066231142
 30
0.0
 11
353.4358097145155
 21
810.6694066231341
 31
0.0
  0
LINE
  5
39A
330
1F
100
AcDbEntity
  8
0-0
  6
JWW_DASHED1
 62
   120
370
     5
100
AcDbLine
 10
-676.5641902854976
 20
-212.2595255635935
 30
0.0
 11
-426.564190285493
 21
37.74047443641109
 31
0.0
  0
LINE
  5
39B
330
1F
100
AcDbEntity
  8
0-0
  6
JWW_DASHED1
 62
   120
370
     5
100
AcDbLine
 10
-336.5641902854862
 20
127.7404744364175
 30
0.0
 11
-86.56419028549699
 21
377.7404744364067
 31
0.0
  0
LINE
  5
39C
330
1F
100
AcDbEntity
  8
0-0
  6
JWW_DASHED1
 62
   120
370
     5
100
AcDbLine
 10
103.4358097145076
 20
567.7404744364117
 30
0.0
 11
353.4358097145121
 21
817.7404744364162
 31
0.0
  0
LINE
  5
39D
330
1F
100
AcDbEntity
  8
0-0
  6
JWW_DASHED1
 62
   120
370
     5
100
AcDbLine
 10
-676.564190285501
 20
-205.1884577503122
 30
0.0
 11
-426.5641902854811
 21
44.81154224970851
 31
0.0
  0
LINE
  5
39E
330
1F
100
AcDbEntity
  8
0-0
  6
JWW_DASHED1
 62
   120
370
     5
100
AcDbLine
 10
-336.5641902854896
 20
134.8115422496991
 30
0.0
 11
-86.56419028550211
 21
384.8115422496879
 31
0.0
  0
LINE
  5
39F
330
1F
100
AcDbEntity
  8
0-0
  6
JWW_DASHED1
 62
   120
370
     5
100
AcDbLine
 10
103.4358097145024
 20
574.8115422496928
 30
0.0
 11
353.435809714507
 21
824.8115422496974
 31
0.0
  0
LINE
  5
3A0
330
1F
100
AcDbEntity
  8
0-0
  6
JWW_DASHED1
 62
   120
370
     5
100
AcDbLine
 10
-676.5641902854942
 20
-198.1173899370741
 30
0.0
 11
-426.5641902854896
 21
51.88261006293047
 31
0.0
  0
LINE
  5
3A1
330
1F
100
AcDbEntity
  8
0-0
  6
JWW_DASHED1
 62
   120
370
     5
100
AcDbLine
 10
-336.5641902854998
 20
141.8826100629215
 30
0.0
 11
-86.56419028549358
 21
391.8826100629261
 31
0.0
  0
LINE
  5
3A2
330
1F
100
AcDbEntity
  8
0-0
  6
JWW_DASHED1
 62
   120
370
     5
100
AcDbLine
 10
103.4358097144956
 20
581.8826100629153
 30
0.0
 11
353.4358097145002
 21
831.8826100629199
 31
0.0
  0
LINE
  5
3A3
330
1F
100
AcDbEntity
  8
0-0
  6
JWW_DASHED1
 62
   120
370
     5
100
AcDbLine
 10
-676.5641902854993
 20
-191.0463221237924
 30
0.0
 11
-426.564190285493
 21
58.95367787621211
 31
0.0
  0
LINE
  5
3A4
330
1F
100
AcDbEntity
  8
0-0
  6
JWW_DASHED1
 62
   120
370
     5
100
AcDbLine
 10
-336.5641902855032
 20
148.9536778762027
 30
0.0
 11
-86.5641902854987
 21
398.9536778762077
 31
0.0
  0
LINE
  5
3A5
330
1F
100
AcDbEntity
  8
0-0
  6
JWW_DASHED1
 62
   120
370
     5
100
AcDbLine
 10
103.4358097144905
 20
588.9536778761965
 30
0.0
 11
353.4358097144951
 21
838.953677876201
 31
0.0
  0
LINE
  5
3A6
330
1F
100
AcDbEntity
  8
0-0
  6
JWW_DASHED1
 62
   120
370
     5
100
AcDbLine
 10
-676.5641902854976
 20
-183.9752543105052
 30
0.0
 11
-426.5641902854896
 21
66.02474568950186
 31
0.0
  0
LINE
  5
3A7
330
1F
100
AcDbEntity
  8
0-0
  6
JWW_DASHED1
 62
   120
370
     5
100
AcDbLine
 10
-336.5641902854828
 20
156.0247456895091
 30
0.0
 11
-86.56419028549188
 21
406.0247456895004
 31
0.0
  0
LINE
  5
3A8
330
1F
100
AcDbEntity
  8
0-0
  6
JWW_DASHED1
 62
   120
370
     5
100
AcDbLine
 10
103.4358097145007
 20
596.0247456894913
 30
0.0
 11
353.435809714507
 21
846.024745689498
 31
0.0
  0
LINE
  5
3A9
330
1F
100
AcDbEntity
  8
0-0
  6
JWW_DASHED1
 62
   120
370
     5
100
AcDbLine
 10
-676.564190285501
 20
-176.904186497224
 30
0.0
 11
-426.564190285493
 21
73.09581350278307
 31
0.0
  0
LINE
  5
3AA
330
1F
100
AcDbEntity
  8
0-0
  6
JWW_DASHED1
 62
   120
370
     5
100
AcDbLine
 10
-336.5641902854862
 20
163.0958135027907
 30
0.0
 11
-86.56419028549529
 21
413.0958135027821
 31
0.0
  0
LINE
  5
3AB
330
1F
100
AcDbEntity
  8
0-0
  6
JWW_DASHED1
 62
   120
370
     5
100
AcDbLine
 10
103.4358097144956
 20
603.095813502773
 30
0.0
 11
353.4358097145189
 21
853.0958135027954
 31
0.0
  0
LINE
  5
3AC
330
1F
100
AcDbEntity
  8
0-0
  6
JWW_DASHED1
 62
   120
370
     5
100
AcDbLine
 10
-676.5641902854942
 20
-169.8331186839326
 30
0.0
 11
-426.5641902854896
 21
80.16688131607197
 31
0.0
  0
LINE
  5
3AD
330
1F
100
AcDbEntity
  8
0-0
  6
JWW_DASHED1
 62
   120
370
     5
100
AcDbLine
 10
-336.5641902854828
 20
170.1668813160788
 30
0.0
 11
-86.56419028549529
 21
420.1668813160676
 31
0.0
  0
LINE
  5
3AE
330
1F
100
AcDbEntity
  8
0-0
  6
JWW_DASHED1
 62
   120
370
     5
100
AcDbLine
 10
103.4358097144939
 20
610.1668813160568
 30
0.0
 11
353.4358097145138
 21
860.166881316077
 31
0.0
  0
LINE
  5
3AF
330
1F
100
AcDbEntity
  8
0-0
  6
JWW_DASHED1
 62
   120
370
     5
100
AcDbLine
 10
-676.5641902854993
 20
-162.7620508706514
 30
0.0
 11
-426.5641902854947
 21
87.23794912935318
 31
0.0
  0
LINE
  5
3B0
330
1F
100
AcDbEntity
  8
0-0
  6
JWW_DASHED1
 62
   120
370
     5
100
AcDbLine
 10
-336.5641902854879
 20
177.23794912936
 30
0.0
 11
-86.5641902854987
 21
427.2379491293492
 31
0.0
  0
LINE
  5
3B1
330
1F
100
AcDbEntity
  8
0-0
  6
JWW_DASHED1
 62
   120
370
     5
100
AcDbLine
 10
103.4358097145059
 20
617.2379491293538
 30
0.0
 11
353.4358097145104
 21
867.2379491293583
 31
0.0
  0
LINE
  5
3B2
330
1F
100
AcDbEntity
  8
0-0
  6
JWW_DASHED1
 62
   120
370
     5
100
AcDbLine
 10
-676.5641902855027
 20
-155.6909830573701
 30
0.0
 11
-426.5641902854828
 21
94.3090169426506
 31
0.0
  0
LINE
  5
3B3
330
1F
100
AcDbEntity
  8
0-0
  6
JWW_DASHED1
 62
   120
370
     5
100
AcDbLine
 10
-336.5641902854913
 20
184.3090169426412
 30
0.0
 11
-86.56419028550211
 21
434.3090169426304
 31
0.0
  0
LINE
  5
3B4
330
1F
100
AcDbEntity
  8
0-0
  6
JWW_DASHED1
 62
   120
370
     5
100
AcDbLine
 10
103.4358097145024
 20
624.3090169426354
 30
0.0
 11
352.074760455942
 21
872.9479676840754
 31
0.0
  0
LINE
  5
3B5
330
1F
100
AcDbEntity
  8
0-0
  6
JWW_DASHED1
 62
   120
370
     5
100
AcDbLine
 10
-676.5641902855078
 20
-148.6199152440885
 30
0.0
 11
-426.5641902854862
 21
101.3800847559318
 31
0.0
  0
LINE
  5
3B6
330
1F
100
AcDbEntity
  8
0-0
  6
JWW_DASHED1
 62
   120
370
     5
100
AcDbLine
 10
-336.5641902854964
 20
191.3800847559229
 30
0.0
 11
-86.56419028549188
 21
441.3800847559278
 31
0.0
  0
LINE
  5
3B7
330
1F
100
AcDbEntity
  8
0-0
  6
JWW_DASHED1
 62
   120
370
     5
100
AcDbLine
 10
103.435809714499
 20
631.3800847559171
 30
0.0
 11
345.0036926426616
 21
872.9479676840797
 31
0.0
  0
LINE
  5
3B8
330
1F
100
AcDbEntity
  8
0-0
  6
JWW_DASHED1
 62
   120
370
     5
100
AcDbLine
 10
-676.5641902854959
 20
-141.5488474307915
 30
0.0
 11
-426.5641902854913
 21
108.4511525692135
 31
0.0
  0
LINE
  5
3B9
330
1F
100
AcDbEntity
  8
0-0
  6
JWW_DASHED1
 62
   120
370
     5
100
AcDbLine
 10
-336.5641902854998
 20
198.4511525692045
 30
0.0
 11
-86.56419028549529
 21
448.4511525692091
 31
0.0
  0
LINE
  5
3BA
330
1F
100
AcDbEntity
  8
0-0
  6
JWW_DASHED1
 62
   120
370
     5
100
AcDbLine
 10
103.4358097144939
 20
638.4511525691983
 30
0.0
 11
337.9326248293796
 21
872.9479676840839
 31
0.0
  0
LINE
  5
3BB
330
1F
100
AcDbEntity
  8
0-0
  6
JWW_DASHED1
 62
   120
370
     5
100
AcDbLine
 10
-676.5641902854976
 20
-134.4777796175623
 30
0.0
 11
-426.5641902854896
 21
115.5222203824448
 31
0.0
  0
LINE
  5
3BC
330
1F
100
AcDbEntity
  8
0-0
  6
JWW_DASHED1
 62
   120
370
     5
100
AcDbLine
 10
-336.5641902854828
 20
205.522220382452
 30
0.0
 11
-86.56419028549188
 21
455.5222203824434
 31
0.0
  0
LINE
  5
3BD
330
1F
100
AcDbEntity
  8
0-0
  6
JWW_DASHED1
 62
   120
370
     5
100
AcDbLine
 10
103.435809714499
 20
645.5222203824343
 30
0.0
 11
330.8615570161418
 21
872.9479676840766
 31
0.0
  0
LINE
  5
3BE
330
1F
100
AcDbEntity
  8
0-0
  6
JWW_DASHED1
 62
   120
370
     5
100
AcDbLine
 10
-676.5641902854925
 20
-127.4067118042717
 30
0.0
 11
-426.5641902854879
 21
122.5932881957333
 31
0.0
  0
LINE
  5
3BF
330
1F
100
AcDbEntity
  8
0-0
  6
JWW_DASHED1
 62
   120
370
     5
100
AcDbLine
 10
-336.5641902854811
 20
212.5932881957397
 30
0.0
 11
-86.56419028549188
 21
462.5932881957289
 31
0.0
  0
LINE
  5
3C0
330
1F
100
AcDbEntity
  8
0-0
  6
JWW_DASHED1
 62
   120
370
     5
100
AcDbLine
 10
103.4358097144973
 20
652.5932881957181
 30
0.0
 11
323.7904892028461
 21
872.9479676840668
 31
0.0
  0
LINE
  5
3C1
330
1F
100
AcDbEntity
  8
0-0
  6
JWW_DASHED1
 62
   120
370
     5
100
AcDbLine
 10
-676.5641902854959
 20
-120.3356439909901
 30
0.0
 11
-426.5641902854913
 21
129.6643560090145
 31
0.0
  0
LINE
  5
3C2
330
1F
100
AcDbEntity
  8
0-0
  6
JWW_DASHED1
 62
   120
370
     5
100
AcDbLine
 10
-336.5641902854845
 20
219.6643560090213
 30
0.0
 11
-86.56419028549529
 21
469.6643560090101
 31
0.0
  0
LINE
  5
3C3
330
1F
100
AcDbEntity
  8
0-0
  6
JWW_DASHED1
 62
   120
370
     5
100
AcDbLine
 10
103.4358097145093
 20
659.664356009015
 30
0.0
 11
316.719421389564
 21
872.9479676840695
 31
0.0
  0
LINE
  5
3C4
330
1F
100
AcDbEntity
  8
0-0
  6
JWW_DASHED1
 62
   120
370
     5
100
AcDbLine
 10
-676.564190285501
 20
-113.2645761777088
 30
0.0
 11
-426.5641902854964
 21
136.7354238222957
 31
0.0
  0
LINE
  5
3C5
330
1F
100
AcDbEntity
  8
0-0
  6
JWW_DASHED1
 62
   120
370
     5
100
AcDbLine
 10
-336.5641902854896
 20
226.7354238223025
 30
0.0
 11
-86.5641902855004
 21
476.7354238222918
 31
0.0
  0
LINE
  5
3C6
330
1F
100
AcDbEntity
  8
0-0
  6
JWW_DASHED1
 62
   120
370
     5
100
AcDbLine
 10
103.4358097145059
 20
666.7354238222968
 30
0.0
 11
309.648353576282
 21
872.9479676840732
 31
0.0
  0
LINE
  5
3C7
330
1F
100
AcDbEntity
  8
0-0
  6
JWW_DASHED1
 62
   120
370
     5
100
AcDbLine
 10
-676.5641902855044
 20
-106.1935083644272
 30
0.0
 11
-426.5641902854845
 21
143.8064916355931
 31
0.0
  0
LINE
  5
3C8
330
1F
100
AcDbEntity
  8
0-0
  6
JWW_DASHED1
 62
   120
370
     5
100
AcDbLine
 10
-336.564190285493
 20
233.8064916355842
 30
0.0
 11
-86.56419028550381
 21
483.8064916355725
 31
0.0
  0
LINE
  5
3C9
330
1F
100
AcDbEntity
  8
0-0
  6
JWW_DASHED1
 62
   120
370
     5
100
AcDbLine
 10
103.4358097145007
 20
673.8064916355779
 30
0.0
 11
302.5772857629999
 21
872.9479676840779
 31
0.0
  0
LINE
  5
3CA
330
1F
100
AcDbEntity
  8
0-0
  6
JWW_DASHED1
 62
   120
370
     5
100
AcDbLine
 10
-676.5641902855078
 20
-99.12244055114598
 30
0.0
 11
-426.5641902854879
 21
150.8775594488743
 31
0.0
  0
LINE
  5
3CB
330
1F
100
AcDbEntity
  8
0-0
  6
JWW_DASHED1
 62
   120
370
     5
100
AcDbLine
 10
-336.5641902854964
 20
240.8775594488654
 30
0.0
 11
-86.56419028549188
 21
490.8775594488699
 31
0.0
  0
LINE
  5
3CC
330
1F
100
AcDbEntity
  8
0-0
  6
JWW_DASHED1
 62
   120
370
     5
100
AcDbLine
 10
103.4358097144973
 20
680.8775594488591
 30
0.0
 11
295.5062179497195
 21
872.9479676840817
 31
0.0
  0
LINE
  5
3CD
330
1F
100
AcDbEntity
  8
0-0
  6
JWW_DASHED1
 62
   120
370
     5
100
AcDbLine
 10
-676.5641902854976
 20
-92.05137273784857
 30
0.0
 11
-426.564190285493
 21
157.948627262156
 31
0.0
  0
LINE
  5
3CE
330
1F
100
AcDbEntity
  8
0-0
  6
JWW_DASHED1
 62
   120
370
     5
100
AcDbLine
 10
-336.5641902855015
 20
247.9486272621466
 30
0.0
 11
-86.56419028549699
 21
497.9486272621516
 31
0.0
  0
LINE
  5
3CF
330
1F
100
AcDbEntity
  8
0-0
  6
JWW_DASHED1
 62
   120
370
     5
100
AcDbLine
 10
103.4358097144922
 20
687.9486272621403
 30
0.0
 11
288.4351501364375
 21
872.947967684086
 31
0.0
  0
LINE
  5
3D0
330
1F
100
AcDbEntity
  8
0-0
  6
JWW_DASHED1
 62
   120
370
     5
100
AcDbLine
 10
-676.5641902854942
 20
-84.98030492456053
 30
0.0
 11
-426.5641902854862
 21
165.0196950754466
 31
0.0
  0
LINE
  5
3D1
330
1F
100
AcDbEntity
  8
0-0
  6
JWW_DASHED1
 62
   120
370
     5
100
AcDbLine
 10
-336.5641902854794
 20
255.0196950754543
 30
0.0
 11
-86.56419028548846
 21
505.0196950754452
 31
0.0
  0
LINE
  5
3D2
330
1F
100
AcDbEntity
  8
0-0
  6
JWW_DASHED1
 62
   120
370
     5
100
AcDbLine
 10
103.4358097145024
 20
695.0196950754361
 30
0.0
 11
281.3640823231401
 21
872.9479676840745
 31
0.0
  0
LINE
  5
3D3
330
1F
100
AcDbEntity
  8
0-0
  6
JWW_DASHED1
 62
   120
370
     5
100
AcDbLine
 10
-676.5641902854976
 20
-77.90923711127931
 30
0.0
 11
-426.5641902854913
 21
172.0907628887278
 31
0.0
  0
LINE
  5
3D4
330
1F
100
AcDbEntity
  8
0-0
  6
JWW_DASHED1
 62
   120
370
     5
100
AcDbLine
 10
-336.5641902854828
 20
262.0907628887355
 30
0.0
 11
-86.56419028549188
 21
512.0907628887268
 31
0.0
  0
LINE
  5
3D5
330
1F
100
AcDbEntity
  8
0-0
  6
JWW_DASHED1
 62
   120
370
     5
100
AcDbLine
 10
103.435809714499
 20
702.0907628887177
 30
0.0
 11
274.2930145098597
 21
872.9479676840788
 31
0.0
  0
LINE
  5
3D6
330
1F
100
AcDbEntity
  8
0-0
  6
JWW_DASHED1
 62
   120
370
     5
100
AcDbLine
 10
-676.5641902854976
 20
-70.83816929804755
 30
0.0
 11
-426.564190285493
 21
179.161830701957
 31
0.0
  0
LINE
  5
3D7
330
1F
100
AcDbEntity
  8
0-0
  6
JWW_DASHED1
 62
   120
370
     5
100
AcDbLine
 10
-336.5641902854862
 20
269.1618307019638
 30
0.0
 11
-86.56419028549699
 21
519.1618307019526
 31
0.0
  0
LINE
  5
3D8
330
1F
100
AcDbEntity
  8
0-0
  6
JWW_DASHED1
 62
   120
370
     5
100
AcDbLine
 10
103.4358097145076
 20
709.1618307019576
 30
0.0
 11
267.221946696622
 21
872.9479676840715
 31
0.0
  0
LINE
  5
3D9
330
1F
100
AcDbEntity
  8
0-0
  6
JWW_DASHED1
 62
   120
370
     5
100
AcDbLine
 10
-676.564190285501
 20
-63.76710148476633
 30
0.0
 11
-426.5641902854964
 21
186.2328985152382
 31
0.0
  0
LINE
  5
3DA
330
1F
100
AcDbEntity
  8
0-0
  6
JWW_DASHED1
 62
   120
370
     5
100
AcDbLine
 10
-336.5641902854896
 20
276.232898515245
 30
0.0
 11
-86.56419028550211
 21
526.2328985152342
 31
0.0
  0
LINE
  5
3DB
330
1F
100
AcDbEntity
  8
0-0
  6
JWW_DASHED1
 62
   120
370
     5
100
AcDbLine
 10
103.4358097145041
 20
716.2328985152387
 30
0.0
 11
260.1508788833399
 21
872.9479676840754
 31
0.0
  0
LINE
  5
3DC
330
1F
100
AcDbEntity
  8
0-0
  6
JWW_DASHED1
 62
   120
370
     5
100
AcDbLine
 10
-676.5641902855061
 20
-56.69603367148511
 30
0.0
 11
-426.5641902854862
 21
193.3039663285356
 31
0.0
  0
LINE
  5
3DD
330
1F
100
AcDbEntity
  8
0-0
  6
JWW_DASHED1
 62
   120
370
     5
100
AcDbLine
 10
-336.5641902854947
 20
283.3039663285263
 30
0.0
 11
-86.56419028550552
 21
533.3039663285155
 31
0.0
  0
LINE
  5
3DE
330
1F
100
AcDbEntity
  8
0-0
  6
JWW_DASHED1
 62
   120
370
     5
100
AcDbLine
 10
103.435809714499
 20
723.3039663285205
 30
0.0
 11
253.0798110700595
 21
872.9479676840797
 31
0.0
  0
LINE
  5
3DF
330
1F
100
AcDbEntity
  8
0-0
  6
JWW_DASHED1
 62
   120
370
     5
100
AcDbLine
 10
-676.5641902854942
 20
-49.62496585818769
 30
0.0
 11
-426.5641902854896
 21
200.3750341418169
 31
0.0
  0
LINE
  5
3E0
330
1F
100
AcDbEntity
  8
0-0
  6
JWW_DASHED1
 62
   120
370
     5
100
AcDbLine
 10
-336.5641902854981
 20
290.3750341418079
 30
0.0
 11
-86.56419028549358
 21
540.3750341418129
 31
0.0
  0
LINE
  5
3E1
330
1F
100
AcDbEntity
  8
0-0
  6
JWW_DASHED1
 62
   120
370
     5
100
AcDbLine
 10
103.4358097144956
 20
730.3750341418021
 30
0.0
 11
246.0087432567774
 21
872.9479676840839
 31
0.0
  0
LINE
  5
3E2
330
1F
100
AcDbEntity
  8
0-0
  6
JWW_DASHED1
 62
   120
370
     5
100
AcDbLine
 10
-676.5641902854976
 20
-42.55389804490648
 30
0.0
 11
-426.564190285493
 21
207.4461019550985
 31
0.0
  0
LINE
  5
3E3
330
1F
100
AcDbEntity
  8
0-0
  6
JWW_DASHED1
 62
   120
370
     5
100
AcDbLine
 10
-336.5641902855032
 20
297.4461019550895
 30
0.0
 11
-86.5641902854987
 21
547.446101955094
 31
0.0
  0
LINE
  5
3E4
330
1F
100
AcDbEntity
  8
0-0
  6
JWW_DASHED1
 62
   120
370
     5
100
AcDbLine
 10
103.4358097144922
 20
737.4461019550833
 30
0.0
 11
238.9376754434971
 21
872.9479676840881
 31
0.0
  0
LINE
  5
3E5
330
1F
100
AcDbEntity
  8
0-0
  6
JWW_DASHED1
 62
   120
370
     5
100
AcDbLine
 10
-676.5641902854942
 20
-35.48283023161758
 30
0.0
 11
-426.5641902854879
 21
214.5171697683895
 31
0.0
  0
LINE
  5
3E6
330
1F
100
AcDbEntity
  8
0-0
  6
JWW_DASHED1
 62
   120
370
     5
100
AcDbLine
 10
-336.5641902854794
 20
304.5171697683972
 30
0.0
 11
-86.56419028548846
 21
554.5171697683882
 31
0.0
  0
LINE
  5
3E7
330
1F
100
AcDbEntity
  8
0-0
  6
JWW_DASHED1
 62
   120
370
     5
100
AcDbLine
 10
103.4358097145024
 20
744.5171697683791
 30
0.0
 11
231.8666076301997
 21
872.9479676840763
 31
0.0
  0
LINE
  5
3E8
330
1F
100
AcDbEntity
  8
0-0
  6
JWW_DASHED1
 62
   120
370
     5
100
AcDbLine
 10
-676.5641902854993
 20
-28.41176241833594
 30
0.0
 11
-426.5641902854913
 21
221.5882375816707
 31
0.0
  0
LINE
  5
3E9
330
1F
100
AcDbEntity
  8
0-0
  6
JWW_DASHED1
 62
   120
370
     5
100
AcDbLine
 10
-336.5641902854845
 20
311.5882375816784
 30
0.0
 11
-86.56419028549358
 21
561.5882375816698
 31
0.0
  0
LINE
  5
3EA
330
1F
100
AcDbEntity
  8
0-0
  6
JWW_DASHED1
 62
   120
370
     5
100
AcDbLine
 10
103.4358097144973
 20
751.5882375816607
 30
0.0
 11
224.7955398169108
 21
872.9479676840729
 31
0.0
  0
LINE
  5
3EB
330
1F
100
AcDbEntity
  8
0-0
  6
JWW_DASHED1
 62
   120
370
     5
100
AcDbLine
 10
-676.5641902854942
 20
-21.3406946050462
 30
0.0
 11
-426.5641902854896
 21
228.6593053949588
 31
0.0
  0
LINE
  5
3EC
330
1F
100
AcDbEntity
  8
0-0
  6
JWW_DASHED1
 62
   120
370
     5
100
AcDbLine
 10
-336.5641902854828
 20
318.6593053949651
 30
0.0
 11
-86.56419028549529
 21
568.6593053949539
 31
0.0
  0
LINE
  5
3ED
330
1F
100
AcDbEntity
  8
0-0
  6
JWW_DASHED1
 62
   120
370
     5
100
AcDbLine
 10
103.4358097144956
 20
758.6593053949432
 30
0.0
 11
217.7244720036304
 21
872.9479676840779
 31
0.0
  0
LINE
  5
3EE
330
1F
100
AcDbEntity
  8
0-0
  6
JWW_DASHED1
 62
   120
370
     5
100
AcDbLine
 10
-676.5641902854993
 20
-14.26962679176498
 30
0.0
 11
-426.5641902854947
 21
235.7303732082396
 31
0.0
  0
LINE
  5
3EF
330
1F
100
AcDbEntity
  8
0-0
  6
JWW_DASHED1
 62
   120
370
     5
100
AcDbLine
 10
-336.5641902854862
 20
325.7303732082468
 30
0.0
 11
-86.5641902854987
 21
575.7303732082352
 31
0.0
  0
LINE
  5
3F0
330
1F
100
AcDbEntity
  8
0-0
  6
JWW_DASHED1
 62
   120
370
     5
100
AcDbLine
 10
103.4358097145059
 20
765.7303732082405
 30
0.0
 11
210.6534041903398
 21
872.9479676840737
 31
0.0
  0
LINE
  5
3F1
330
1F
100
AcDbEntity
  8
0-0
  6
JWW_DASHED1
 62
   120
370
     5
100
AcDbLine
 10
-676.5641902855044
 20
-7.198558978513176
 30
0.0
 11
-426.5641902854845
 21
242.8014410215076
 31
0.0
  0
LINE
  5
3F2
330
1F
100
AcDbEntity
  8
0-0
  6
JWW_DASHED1
 62
   120
370
     5
100
AcDbLine
 10
-336.564190285493
 20
332.8014410214982
 30
0.0
 11
-86.56419028548846
 21
582.8014410215031
 31
0.0
  0
LINE
  5
3F3
330
1F
100
AcDbEntity
  8
0-0
  6
JWW_DASHED1
 62
   120
370
     5
100
AcDbLine
 10
103.4358097145007
 20
772.8014410214919
 30
0.0
 11
203.5823363770884
 21
872.9479676840797
 31
0.0
  0
LINE
  5
3F4
330
1F
100
AcDbEntity
  8
0-0
  6
JWW_DASHED1
 62
   120
370
     5
100
AcDbLine
 10
-676.5641902854959
 20
-0.1274911652451749
 30
0.0
 11
-426.5641902854913
 21
249.8725088347594
 31
0.0
  0
LINE
  5
3F5
330
1F
100
AcDbEntity
  8
0-0
  6
JWW_DASHED1
 62
   120
370
     5
100
AcDbLine
 10
-336.5641902854998
 20
339.8725088347504
 30
0.0
 11
-86.56419028549529
 21
589.872508834755
 31
0.0
  0
LINE
  5
3F6
330
1F
100
AcDbEntity
  8
0-0
  6
JWW_DASHED1
 62
   120
370
     5
100
AcDbLine
 10
103.4358097144939
 20
779.8725088347442
 30
0.0
 11
196.5112685638354
 21
872.947967684086
 31
0.0
  0
LINE
  5
3F7
330
1F
100
AcDbEntity
  8
0-0
  6
JWW_DASHED1
 62
   120
370
     5
100
AcDbLine
 10
-676.5641902854993
 20
6.943576648036469
 30
0.0
 11
-426.5641902854947
 21
256.943576648041
 31
0.0
  0
LINE
  5
3F8
330
1F
100
AcDbEntity
  8
0-0
  6
JWW_DASHED1
 62
   120
370
     5
100
AcDbLine
 10
-336.5641902855032
 20
346.9435766480316
 30
0.0
 11
-86.5641902854987
 21
596.9435766480366
 31
0.0
  0
LINE
  5
3F9
330
1F
100
AcDbEntity
  8
0-0
  6
JWW_DASHED1
 62
   120
370
     5
100
AcDbLine
 10
103.4358097144905
 20
786.9435766480253
 30
0.0
 11
189.440200750555
 21
872.9479676840907
 31
0.0
  0
LINE
  5
3FA
330
1F
100
AcDbEntity
  8
0-0
  6
JWW_DASHED1
 62
   120
370
     5
100
AcDbLine
 10
-676.5641902854959
 20
14.01464446132536
 30
0.0
 11
-426.5641902854896
 21
264.0146444613325
 31
0.0
  0
LINE
  5
3FB
330
1F
100
AcDbEntity
  8
0-0
  6
JWW_DASHED1
 62
   120
370
     5
100
AcDbLine
 10
-336.5641902854811
 20
354.0146444613397
 30
0.0
 11
-86.56419028549017
 21
604.0146444613315
 31
0.0
  0
LINE
  5
3FC
330
1F
100
AcDbEntity
  8
0-0
  6
JWW_DASHED1
 62
   120
370
     5
100
AcDbLine
 10
103.4358097145007
 20
794.014644461322
 30
0.0
 11
182.3691329372576
 21
872.9479676840788
 31
0.0
  0
LINE
  5
3FD
330
1F
100
AcDbEntity
  8
0-0
  6
JWW_DASHED1
 62
   120
370
     5
100
AcDbLine
 10
-676.5641902854993
 20
21.085712274607
 30
0.0
 11
-426.564190285493
 21
271.0857122746137
 31
0.0
  0
LINE
  5
3FE
330
1F
100
AcDbEntity
  8
0-0
  6
JWW_DASHED1
 62
   120
370
     5
100
AcDbLine
 10
-336.5641902854845
 20
361.0857122746214
 30
0.0
 11
-86.56419028549358
 21
611.0857122746122
 31
0.0
  0
LINE
  5
3FF
330
1F
100
AcDbEntity
  8
0-0
  6
JWW_DASHED1
 62
   120
370
     5
100
AcDbLine
 10
103.4358097144973
 20
801.0857122746036
 30
0.0
 11
175.2980651239721
 21
872.9479676840783
 31
0.0
  0
LINE
  5
400
330
1F
100
AcDbEntity
  8
0-0
  6
JWW_DASHED1
 62
   120
370
     5
100
AcDbLine
 10
-676.5641902854959
 20
28.15678008789632
 30
0.0
 11
-426.5641902854913
 21
278.1567800879009
 31
0.0
  0
LINE
  5
401
330
1F
100
AcDbEntity
  8
0-0
  6
JWW_DASHED1
 62
   120
370
     5
100
AcDbLine
 10
-336.5641902854845
 20
368.1567800879077
 30
0.0
 11
-86.56419028549529
 21
618.1567800878964
 31
0.0
  0
LINE
  5
402
330
1F
100
AcDbEntity
  8
0-0
  6
JWW_DASHED1
 62
   120
370
     5
100
AcDbLine
 10
103.4358097144939
 20
808.1567800878856
 30
0.0
 11
168.2269973106917
 21
872.9479676840831
 31
0.0
  0
LINE
  5
403
330
1F
100
AcDbEntity
  8
0-0
  6
JWW_DASHED1
 62
   120
370
     5
100
AcDbLine
 10
-676.564190285501
 20
35.22784790117754
 30
0.0
 11
-426.5641902854947
 21
285.2278479011821
 31
0.0
  0
LINE
  5
404
330
1F
100
AcDbEntity
  8
0-0
  6
JWW_DASHED1
 62
   120
370
     5
100
AcDbLine
 10
-336.5641902854879
 20
375.2278479011889
 30
0.0
 11
-86.5641902854987
 21
625.2278479011782
 31
0.0
  0
LINE
  5
405
330
1F
100
AcDbEntity
  8
0-0
  6
JWW_DASHED1
 62
   120
370
     5
100
AcDbLine
 10
103.4358097145059
 20
815.227847901183
 30
0.0
 11
161.1559294973977
 21
872.9479676840754
 31
0.0
  0
LINE
  5
406
330
1F
100
AcDbEntity
  8
0-0
  6
JWW_DASHED1
 62
   120
370
     5
100
AcDbLine
 10
-676.5641902855044
 20
42.29891571445876
 30
0.0
 11
-426.5641902854828
 21
292.2989157144795
 31
0.0
  0
LINE
  5
407
330
1F
100
AcDbEntity
  8
0-0
  6
JWW_DASHED1
 62
   120
370
     5
100
AcDbLine
 10
-336.564190285493
 20
382.2989157144701
 30
0.0
 11
-86.56419028550381
 21
632.2989157144593
 31
0.0
  0
LINE
  5
408
330
1F
100
AcDbEntity
  8
0-0
  6
JWW_DASHED1
 62
   120
370
     5
100
AcDbLine
 10
103.4358097145007
 20
822.2989157144639
 30
0.0
 11
154.0848616841174
 21
872.9479676840797
 31
0.0
  0
LINE
  5
409
330
1F
100
AcDbEntity
  8
0-0
  6
JWW_DASHED1
 62
   120
370
     5
100
AcDbLine
 10
-676.5641902855078
 20
49.3699835277404
 30
0.0
 11
-426.5641902854879
 21
299.3699835277607
 31
0.0
  0
LINE
  5
40A
330
1F
100
AcDbEntity
  8
0-0
  6
JWW_DASHED1
 62
   120
370
     5
100
AcDbLine
 10
-336.5641902854964
 20
389.3699835277517
 30
0.0
 11
-86.56419028549188
 21
639.3699835277567
 31
0.0
  0
LINE
  5
40B
330
1F
100
AcDbEntity
  8
0-0
  6
JWW_DASHED1
 62
   120
370
     5
100
AcDbLine
 10
103.4358097144973
 20
829.3699835277455
 30
0.0
 11
147.0137938708353
 21
872.9479676840839
 31
0.0
  0
LINE
  5
40C
330
1F
100
AcDbEntity
  8
0-0
  6
JWW_DASHED1
 62
   120
370
     5
100
AcDbLine
 10
-676.5641902854959
 20
56.44105134103739
 30
0.0
 11
-426.5641902854913
 21
306.4410513410423
 31
0.0
  0
LINE
  5
40D
330
1F
100
AcDbEntity
  8
0-0
  6
JWW_DASHED1
 62
   120
370
     5
100
AcDbLine
 10
-336.5641902855015
 20
396.441051341033
 30
0.0
 11
-86.56419028549529
 21
646.441051341038
 31
0.0
  0
LINE
  5
40E
330
1F
100
AcDbEntity
  8
0-0
  6
JWW_DASHED1
 62
   120
370
     5
100
AcDbLine
 10
103.4358097144922
 20
836.4410513410271
 30
0.0
 11
139.9427260575549
 21
872.9479676840881
 31
0.0
  0
LINE
  5
40F
330
1F
100
AcDbEntity
  8
0-0
  6
JWW_DASHED1
 62
   120
370
     5
100
AcDbLine
 10
-676.5641902854976
 20
63.51211915426831
 30
0.0
 11
-426.5641902854896
 21
313.5121191542754
 31
0.0
  0
LINE
  5
410
330
1F
100
AcDbEntity
  8
0-0
  6
JWW_DASHED1
 62
   120
370
     5
100
AcDbLine
 10
-336.5641902854828
 20
403.5121191542827
 30
0.0
 11
-86.56419028549017
 21
653.5121191542744
 31
0.0
  0
LINE
  5
411
330
1F
100
AcDbEntity
  8
0-0
  6
JWW_DASHED1
 62
   120
370
     5
100
AcDbLine
 10
103.4358097145007
 20
843.5121191542648
 30
0.0
 11
132.8716582443155
 21
872.9479676840813
 31
0.0
  0
LINE
  5
412
330
1F
100
AcDbEntity
  8
0-0
  6
JWW_DASHED1
 62
   120
370
     5
100
AcDbLine
 10
-676.564190285501
 20
70.58318696754952
 30
0.0
 11
-426.564190285493
 21
320.5831869675566
 31
0.0
  0
LINE
  5
413
330
1F
100
AcDbEntity
  8
0-0
  6
JWW_DASHED1
 62
   120
370
     5
100
AcDbLine
 10
-336.5641902854862
 20
410.5831869675643
 30
0.0
 11
-86.56419028549529
 21
660.5831869675557
 31
0.0
  0
LINE
  5
414
330
1F
100
AcDbEntity
  8
0-0
  6
JWW_DASHED1
 62
   120
370
     5
100
AcDbLine
 10
103.4358097144956
 20
850.5831869675466
 30
0.0
 11
125.8005904310334
 21
872.9479676840839
 31
0.0
  0
LINE
  5
415
330
1F
100
AcDbEntity
  8
0-0
  6
JWW_DASHED1
 62
   120
370
     5
100
AcDbLine
 10
-676.5641902854976
 20
77.65425478083884
 30
0.0
 11
-426.564190285493
 21
327.6542547808434
 31
0.0
  0
LINE
  5
416
330
1F
100
AcDbEntity
  8
0-0
  6
JWW_DASHED1
 62
   120
370
     5
100
AcDbLine
 10
-336.5641902854862
 20
417.6542547808498
 30
0.0
 11
-86.56419028549699
 21
667.654254780839
 31
0.0
  0
LINE
  5
417
330
1F
100
AcDbEntity
  8
0-0
  6
JWW_DASHED1
 62
   120
370
     5
100
AcDbLine
 10
103.4358097145076
 20
857.6542547808435
 30
0.0
 11
118.7295226177377
 21
872.9479676840737
 31
0.0
  0
LINE
  5
418
330
1F
100
AcDbEntity
  8
0-0
  6
JWW_DASHED1
 62
   120
370
     5
100
AcDbLine
 10
-676.564190285501
 20
84.72532259412006
 30
0.0
 11
-426.5641902854964
 21
334.7253225941246
 31
0.0
  0
LINE
  5
419
330
1F
100
AcDbEntity
  8
0-0
  6
JWW_DASHED1
 62
   120
370
     5
100
AcDbLine
 10
-336.5641902854896
 20
424.7253225941319
 30
0.0
 11
-86.5641902855004
 21
674.7253225941206
 31
0.0
  0
LINE
  5
41A
330
1F
100
AcDbEntity
  8
0-0
  6
JWW_DASHED1
 62
   120
370
     5
100
AcDbLine
 10
103.4358097145041
 20
864.7253225941256
 30
0.0
 11
111.6584548044556
 21
872.9479676840779
 31
0.0
  0
LINE
  5
41B
330
1F
100
AcDbEntity
  8
0-0
  6
JWW_DASHED1
 62
   120
370
     5
100
AcDbLine
 10
-676.5641902855061
 20
91.7963904074017
 30
0.0
 11
-426.5641902854845
 21
341.796390407422
 31
0.0
  0
LINE
  5
41C
330
1F
100
AcDbEntity
  8
0-0
  6
JWW_DASHED1
 62
   120
370
     5
100
AcDbLine
 10
-336.5641902854947
 20
431.7963904074127
 30
0.0
 11
-86.56419028550552
 21
681.7963904074019
 31
0.0
  0
LINE
  5
41D
330
1F
100
AcDbEntity
  8
0-0
  6
JWW_DASHED1
 62
   120
370
     5
100
AcDbLine
 10
103.435809714499
 20
871.7963904074068
 30
0.0
 11
104.5873869911753
 21
872.9479676840822
 31
0.0
  0
LINE
  5
41E
330
1F
100
AcDbEntity
  8
0-0
  6
JWW_DASHED1
 62
   120
370
     5
100
AcDbLine
 10
-676.5641902855095
 20
98.86745822068292
 30
0.0
 11
-426.5641902854896
 21
348.8674582207033
 31
0.0
  0
LINE
  5
41F
330
1F
100
AcDbEntity
  8
0-0
  6
JWW_DASHED1
 62
   120
370
     5
100
AcDbLine
 10
-336.5641902854981
 20
438.8674582206943
 30
0.0
 11
-86.56419028549358
 21
688.8674582206988
 31
0.0
  0
LINE
  5
420
330
1F
100
AcDbEntity
  8
0-0
  6
JWW_DASHED1
 62
   120
370
     5
100
AcDbLine
 10
-676.5641902854976
 20
105.9385260339803
 30
0.0
 11
-426.564190285493
 21
355.9385260339849
 31
0.0
  0
LINE
  5
421
330
1F
100
AcDbEntity
  8
0-0
  6
JWW_DASHED1
 62
   120
370
     5
100
AcDbLine
 10
-336.5641902855015
 20
445.9385260339755
 30
0.0
 11
-86.56419028549699
 21
695.9385260339805
 31
0.0
  0
LINE
  5
422
330
1F
100
AcDbEntity
  8
0-0
  6
JWW_DASHED1
 62
   120
370
     5
100
AcDbLine
 10
-676.5641902854925
 20
113.0095938472701
 30
0.0
 11
-426.5641902854862
 21
363.0095938472772
 31
0.0
  0
LINE
  5
423
330
1F
100
AcDbEntity
  8
0-0
  6
JWW_DASHED1
 62
   120
370
     5
100
AcDbLine
 10
-336.5641902854947
 20
453.0095938472691
 30
0.0
 11
-86.56419028548676
 21
703.0095938472757
 31
0.0
  0
LINE
  5
424
330
1F
100
AcDbEntity
  8
0-0
  6
JWW_DASHED1
 62
   120
370
     5
100
AcDbLine
 10
-676.5641902854976
 20
120.0806616605517
 30
0.0
 11
-426.5641902854896
 21
370.0806616605588
 31
0.0
  0
LINE
  5
425
330
1F
100
AcDbEntity
  8
0-0
  6
JWW_DASHED1
 62
   120
370
     5
100
AcDbLine
 10
-336.5641902854828
 20
460.0806616605661
 30
0.0
 11
-86.56419028549188
 21
710.0806616605574
 31
0.0
  0
LINE
  5
426
330
1F
100
AcDbEntity
  8
0-0
  6
JWW_DASHED1
 62
   120
370
     5
100
AcDbLine
 10
-676.5641902854993
 20
127.1517294737809
 30
0.0
 11
-426.564190285493
 21
377.1517294737859
 31
0.0
  0
LINE
  5
427
330
1F
100
AcDbEntity
  8
0-0
  6
JWW_DASHED1
 62
   120
370
     5
100
AcDbLine
 10
-336.5641902854862
 20
467.1517294737927
 30
0.0
 11
-86.5641902854987
 21
717.1517294737815
 31
0.0
  0
LINE
  5
428
330
1F
100
AcDbEntity
  8
0-0
  6
JWW_DASHED1
 62
   120
370
     5
100
AcDbLine
 10
-676.5641902855027
 20
134.2227972870626
 30
0.0
 11
-426.5641902854981
 21
384.2227972870671
 31
0.0
  0
LINE
  5
429
330
1F
100
AcDbEntity
  8
0-0
  6
JWW_DASHED1
 62
   120
370
     5
100
AcDbLine
 10
-336.5641902854913
 20
474.2227972870739
 30
0.0
 11
-86.56419028550211
 21
724.2227972870627
 31
0.0
  0
LINE
  5
42A
330
1F
100
AcDbEntity
  8
0-0
  6
JWW_DASHED1
 62
   120
370
     5
100
AcDbLine
 10
-676.5641902855078
 20
141.2938651003438
 30
0.0
 11
-426.5641902854862
 21
391.2938651003645
 31
0.0
  0
LINE
  5
42B
330
1F
100
AcDbEntity
  8
0-0
  6
JWW_DASHED1
 62
   120
370
     5
100
AcDbLine
 10
-336.5641902854947
 20
481.2938651003552
 30
0.0
 11
-86.56419028550552
 21
731.2938651003444
 31
0.0
  0
LINE
  5
42C
330
1F
100
AcDbEntity
  8
0-0
  6
JWW_DASHED1
 62
   120
370
     5
100
AcDbLine
 10
-676.5641902854942
 20
148.3649329136412
 30
0.0
 11
-426.5641902854896
 21
398.3649329136458
 31
0.0
  0
LINE
  5
42D
330
1F
100
AcDbEntity
  8
0-0
  6
JWW_DASHED1
 62
   120
370
     5
100
AcDbLine
 10
-336.5641902854998
 20
488.3649329136368
 30
0.0
 11
-86.56419028549529
 21
738.3649329136417
 31
0.0
  0
LINE
  5
42E
330
1F
100
AcDbEntity
  8
0-0
  6
JWW_DASHED1
 62
   120
370
     5
100
AcDbLine
 10
-676.5641902854993
 20
155.4360007269224
 30
0.0
 11
-426.5641902854947
 21
405.4360007269274
 31
0.0
  0
LINE
  5
42F
330
1F
100
AcDbEntity
  8
0-0
  6
JWW_DASHED1
 62
   120
370
     5
100
AcDbLine
 10
-336.5641902855032
 20
495.436000726918
 30
0.0
 11
-86.5641902854987
 21
745.436000726923
 31
0.0
  0
LINE
  5
430
330
1F
100
AcDbEntity
  8
0-0
  6
JWW_DASHED1
 62
   120
370
     5
100
AcDbLine
 10
-676.5641902854942
 20
162.507068540213
 30
0.0
 11
-426.5641902854862
 21
412.5070685402201
 31
0.0
  0
LINE
  5
431
330
1F
100
AcDbEntity
  8
0-0
  6
JWW_DASHED1
 62
   120
370
     5
100
AcDbLine
 10
-336.5641902854794
 20
502.5070685402278
 30
0.0
 11
-86.56419028548846
 21
752.5070685402192
 31
0.0
  0
LINE
  5
432
330
1F
100
AcDbEntity
  8
0-0
  6
JWW_DASHED1
 62
   120
370
     5
100
AcDbLine
 10
-676.5641902854976
 20
169.5781363534947
 30
0.0
 11
-426.5641902854913
 21
419.5781363535018
 31
0.0
  0
LINE
  5
433
330
1F
100
AcDbEntity
  8
0-0
  6
JWW_DASHED1
 62
   120
370
     5
100
AcDbLine
 10
-336.5641902854828
 20
509.578136353509
 30
0.0
 11
-86.56419028549188
 21
759.5781363535003
 31
0.0
  0
LINE
  5
434
330
1F
100
AcDbEntity
  8
0-0
  6
JWW_DASHED1
 62
   120
370
     5
100
AcDbLine
 10
-676.5641902854959
 20
176.6492041667827
 30
0.0
 11
-426.5641902854913
 21
426.6492041667873
 31
0.0
  0
LINE
  5
435
330
1F
100
AcDbEntity
  8
0-0
  6
JWW_DASHED1
 62
   120
370
     5
100
AcDbLine
 10
-336.5641902854845
 20
516.6492041667941
 30
0.0
 11
-86.56419028549529
 21
766.6492041667829
 31
0.0
  0
LINE
  5
436
330
1F
100
AcDbEntity
  8
0-0
  6
JWW_DASHED1
 62
   120
370
     5
100
AcDbLine
 10
-676.5641902854993
 20
183.7202719800639
 30
0.0
 11
-426.5641902854947
 21
433.7202719800689
 31
0.0
  0
LINE
  5
437
330
1F
100
AcDbEntity
  8
0-0
  6
JWW_DASHED1
 62
   120
370
     5
100
AcDbLine
 10
-336.5641902854879
 20
523.7202719800757
 30
0.0
 11
-86.5641902854987
 21
773.7202719800645
 31
0.0
  0
LINE
  5
438
330
1F
100
AcDbEntity
  8
0-0
  6
JWW_DASHED1
 62
   120
370
     5
100
AcDbLine
 10
-676.5641902855078
 20
190.7913397932863
 30
0.0
 11
-426.5641902854879
 21
440.7913397933071
 31
0.0
  0
LINE
  5
439
330
1F
100
AcDbEntity
  8
0-0
  6
JWW_DASHED1
 62
   120
370
     5
100
AcDbLine
 10
-336.5641902854964
 20
530.7913397932981
 30
0.0
 11
-86.56419028549188
 21
780.7913397933027
 31
0.0
  0
LINE
  5
43A
330
1F
100
AcDbEntity
  8
0-0
  6
JWW_DASHED1
 62
   120
370
     5
100
AcDbLine
 10
-676.5641902854959
 20
197.8624076065837
 30
0.0
 11
-426.5641902854913
 21
447.8624076065882
 31
0.0
  0
LINE
  5
43B
330
1F
100
AcDbEntity
  8
0-0
  6
JWW_DASHED1
 62
   120
370
     5
100
AcDbLine
 10
-336.5641902854998
 20
537.8624076065794
 30
0.0
 11
-86.56419028549529
 21
787.8624076065839
 31
0.0
  0
LINE
  5
43C
330
1F
100
AcDbEntity
  8
0-0
  6
JWW_DASHED1
 62
   120
370
     5
100
AcDbLine
 10
-676.564190285501
 20
204.9334754198649
 30
0.0
 11
-426.5641902854964
 21
454.9334754198699
 31
0.0
  0
LINE
  5
43D
330
1F
100
AcDbEntity
  8
0-0
  6
JWW_DASHED1
 62
   120
370
     5
100
AcDbLine
 10
-336.5641902855049
 20
544.9334754198605
 30
0.0
 11
-86.5641902855004
 21
794.9334754198655
 31
0.0
  0
LINE
  5
43E
330
1F
100
AcDbEntity
  8
0-0
  6
JWW_DASHED1
 62
   120
370
     5
100
AcDbLine
 10
-676.5641902854942
 20
212.004543233156
 30
0.0
 11
-426.5641902854879
 21
462.0045432331631
 31
0.0
  0
LINE
  5
43F
330
1F
100
AcDbEntity
  8
0-0
  6
JWW_DASHED1
 62
   120
370
     5
100
AcDbLine
 10
-336.5641902854794
 20
552.0045432331708
 30
0.0
 11
-86.56419028548846
 21
802.0045432331617
 31
0.0
  0
LINE
  5
440
330
1F
100
AcDbEntity
  8
0-0
  6
JWW_DASHED1
 62
   120
370
     5
100
AcDbLine
 10
-676.5641902854993
 20
219.0756110464376
 30
0.0
 11
-426.5641902854913
 21
469.0756110464447
 31
0.0
  0
LINE
  5
441
330
1F
100
AcDbEntity
  8
0-0
  6
JWW_DASHED1
 62
   120
370
     5
100
AcDbLine
 10
-336.5641902854845
 20
559.075611046452
 30
0.0
 11
-86.56419028549188
 21
809.0756110464438
 31
0.0
  0
LINE
  5
442
330
1F
100
AcDbEntity
  8
0-0
  6
JWW_DASHED1
 62
   120
370
     5
100
AcDbLine
 10
-676.5641902854976
 20
226.1466788597252
 30
0.0
 11
-426.564190285493
 21
476.1466788597298
 31
0.0
  0
LINE
  5
443
330
1F
100
AcDbEntity
  8
0-0
  6
JWW_DASHED1
 62
   120
370
     5
100
AcDbLine
 10
-336.5641902854862
 20
566.1466788597365
 30
0.0
 11
-86.56419028549699
 21
816.1466788597254
 31
0.0
  0
LINE
  5
444
330
1F
100
AcDbEntity
  8
0-0
  6
JWW_DASHED1
 62
   120
370
     5
100
AcDbLine
 10
-676.564190285501
 20
233.2177466730064
 30
0.0
 11
-426.5641902854964
 21
483.217746673011
 31
0.0
  0
LINE
  5
445
330
1F
100
AcDbEntity
  8
0-0
  6
JWW_DASHED1
 62
   120
370
     5
100
AcDbLine
 10
-336.5641902854896
 20
573.2177466730178
 30
0.0
 11
-86.5641902855004
 21
823.217746673007
 31
0.0
  0
LINE
  5
446
330
1F
100
AcDbEntity
  8
0-0
  6
JWW_DASHED1
 62
   120
370
     5
100
AcDbLine
 10
-676.5641902855044
 20
240.2888144862877
 30
0.0
 11
-426.5641902854845
 21
490.2888144863084
 31
0.0
  0
LINE
  5
447
330
1F
100
AcDbEntity
  8
0-0
  6
JWW_DASHED1
 62
   120
370
     5
100
AcDbLine
 10
-336.564190285493
 20
580.2888144862991
 30
0.0
 11
-86.56419028550552
 21
830.2888144862882
 31
0.0
  0
LINE
  5
448
330
1F
100
AcDbEntity
  8
0-0
  6
JWW_DASHED1
 62
   120
370
     5
100
AcDbLine
 10
-676.5641902855095
 20
247.3598822995693
 30
0.0
 11
-426.5641902854879
 21
497.3598822995896
 31
0.0
  0
LINE
  5
449
330
1F
100
AcDbEntity
  8
0-0
  6
JWW_DASHED1
 62
   120
370
     5
100
AcDbLine
 10
-336.5641902854981
 20
587.3598822995807
 30
0.0
 11
-86.56419028549188
 21
837.3598822995857
 31
0.0
  0
LINE
  5
44A
330
1F
100
AcDbEntity
  8
0-0
  6
JWW_DASHED1
 62
   120
370
     5
100
AcDbLine
 10
-676.5641902854908
 20
254.4309501128177
 30
0.0
 11
-426.5641902854845
 21
504.4309501128248
 31
0.0
  0
LINE
  5
44B
330
1F
100
AcDbEntity
  8
0-0
  6
JWW_DASHED1
 62
   120
370
     5
100
AcDbLine
 10
-336.564190285493
 20
594.4309501128163
 30
0.0
 11
-86.56419028548505
 21
844.4309501128234
 31
0.0
  0
LINE
  5
44C
330
1F
100
AcDbEntity
  8
0-0
  6
JWW_DASHED1
 62
   120
370
     5
100
AcDbLine
 10
-676.5641902854959
 20
261.5020179260989
 30
0.0
 11
-426.5641902854879
 21
511.502017926106
 31
0.0
  0
LINE
  5
44D
330
1F
100
AcDbEntity
  8
0-0
  6
JWW_DASHED1
 62
   120
370
     5
100
AcDbLine
 10
-336.5641902854811
 20
601.5020179261137
 30
0.0
 11
-86.56419028549017
 21
851.5020179261046
 31
0.0
  0
LINE
  5
44E
330
1F
100
AcDbEntity
  8
0-0
  6
JWW_DASHED1
 62
   120
370
     5
100
AcDbLine
 10
-676.5641902854993
 20
268.5730857393805
 30
0.0
 11
-426.564190285493
 21
518.5730857393877
 31
0.0
  0
LINE
  5
44F
330
1F
100
AcDbEntity
  8
0-0
  6
JWW_DASHED1
 62
   120
370
     5
100
AcDbLine
 10
-336.5641902854845
 20
608.5730857393949
 30
0.0
 11
-86.56419028549358
 21
858.5730857393862
 31
0.0
  0
LINE
  5
450
330
1F
100
AcDbEntity
  8
0-0
  6
JWW_DASHED1
 62
   120
370
     5
100
AcDbLine
 10
-676.5641902854976
 20
275.6441535526677
 30
0.0
 11
-426.564190285493
 21
525.6441535526723
 31
0.0
  0
LINE
  5
451
330
1F
100
AcDbEntity
  8
0-0
  6
JWW_DASHED1
 62
   120
370
     5
100
AcDbLine
 10
-336.5641902854862
 20
615.6441535526787
 30
0.0
 11
-86.5641902854987
 21
865.6441535526678
 31
0.0
  0
LINE
  5
452
330
1F
100
AcDbEntity
  8
0-0
  6
JWW_DASHED1
 62
   120
370
     5
100
AcDbLine
 10
-676.5641902855027
 20
282.715221365949
 30
0.0
 11
-426.5641902854981
 21
532.7152213659535
 31
0.0
  0
LINE
  5
453
330
1F
100
AcDbEntity
  8
0-0
  6
JWW_DASHED1
 62
   120
370
     5
100
AcDbLine
 10
-336.5641902854913
 20
622.7152213659604
 30
0.0
 11
-86.56419028550211
 21
872.7152213659491
 31
0.0
  0
LINE
  5
454
330
1F
100
AcDbEntity
  8
0-0
  6
JWW_DASHED1
 62
   120
370
     5
100
AcDbLine
 10
-676.5641902855061
 20
289.7862891792302
 30
0.0
 11
-426.5641902854862
 21
539.786289179251
 31
0.0
  0
LINE
  5
455
330
1F
100
AcDbEntity
  8
0-0
  6
JWW_DASHED1
 62
   120
370
     5
100
AcDbLine
 10
-336.5641902854947
 20
629.7862891792415
 30
0.0
 11
-93.40251178064769
 21
872.9479676840881
 31
0.0
  0
LINE
  5
456
330
1F
100
AcDbEntity
  8
0-0
  6
JWW_DASHED1
 62
   120
370
     5
100
AcDbLine
 10
-676.5641902855112
 20
296.8573569925118
 30
0.0
 11
-426.5641902854896
 21
546.8573569925321
 31
0.0
  0
LINE
  5
457
330
1F
100
AcDbEntity
  8
0-0
  6
JWW_DASHED1
 62
   120
370
     5
100
AcDbLine
 10
-336.5641902854998
 20
636.8573569925231
 30
0.0
 11
-100.4735795939451
 21
872.9479676840771
 31
0.0
  0
LINE
  5
458
330
1F
100
AcDbEntity
  8
0-0
  6
JWW_DASHED1
 62
   120
370
     5
100
AcDbLine
 10
-676.5641902854993
 20
303.9284248058088
 30
0.0
 11
-426.564190285493
 21
553.9284248058138
 31
0.0
  0
LINE
  5
459
330
1F
100
AcDbEntity
  8
0-0
  6
JWW_DASHED1
 62
   120
370
     5
100
AcDbLine
 10
-336.5641902855032
 20
643.9284248058044
 30
0.0
 11
-107.5446474072272
 21
872.9479676840813
 31
0.0
  0
LINE
  5
45A
330
1F
100
AcDbEntity
  8
0-0
  6
JWW_DASHED1
 62
   120
370
     5
100
AcDbLine
 10
-676.5641902854925
 20
310.9994926191007
 30
0.0
 11
-426.5641902854845
 21
560.9994926191077
 31
0.0
  0
LINE
  5
45B
330
1F
100
AcDbEntity
  8
0-0
  6
JWW_DASHED1
 62
   120
370
     5
100
AcDbLine
 10
-336.564190285493
 20
650.9994926190997
 30
0.0
 11
-114.6157152205229
 21
872.9479676840695
 31
0.0
  0
LINE
  5
45C
330
1F
100
AcDbEntity
  8
0-0
  6
JWW_DASHED1
 62
   120
370
     5
100
AcDbLine
 10
-676.5641902854959
 20
318.0705604323286
 30
0.0
 11
-426.5641902854913
 21
568.0705604323332
 31
0.0
  0
LINE
  5
45D
330
1F
100
AcDbEntity
  8
0-0
  6
JWW_DASHED1
 62
   120
370
     5
100
AcDbLine
 10
-336.5641902854845
 20
658.07056043234
 30
0.0
 11
-121.6867830337487
 21
872.9479676840758
 31
0.0
  0
LINE
  5
45E
330
1F
100
AcDbEntity
  8
0-0
  6
JWW_DASHED1
 62
   120
370
     5
100
AcDbLine
 10
-676.5641902854993
 20
325.1416282456103
 30
0.0
 11
-426.5641902854947
 21
575.1416282456148
 31
0.0
  0
LINE
  5
45F
330
1F
100
AcDbEntity
  8
0-0
  6
JWW_DASHED1
 62
   120
370
     5
100
AcDbLine
 10
-336.5641902854879
 20
665.1416282456212
 30
0.0
 11
-128.757850847029
 21
872.9479676840797
 31
0.0
  0
LINE
  5
460
330
1F
100
AcDbEntity
  8
0-0
  6
JWW_DASHED1
 62
   120
370
     5
100
AcDbLine
 10
-676.5641902855044
 20
332.2126960588915
 30
0.0
 11
-426.5641902854981
 21
582.212696058896
 31
0.0
  0
LINE
  5
461
330
1F
100
AcDbEntity
  8
0-0
  6
JWW_DASHED1
 62
   120
370
     5
100
AcDbLine
 10
-336.5641902854913
 20
672.2126960589028
 30
0.0
 11
-135.8289186603111
 21
872.9479676840834
 31
0.0
  0
LINE
  5
462
330
1F
100
AcDbEntity
  8
0-0
  6
JWW_DASHED1
 62
   120
370
     5
100
AcDbLine
 10
-676.5641902855078
 20
339.2837638721727
 30
0.0
 11
-426.5641902854862
 21
589.2837638721935
 31
0.0
  0
LINE
  5
463
330
1F
100
AcDbEntity
  8
0-0
  6
JWW_DASHED1
 62
   120
370
     5
100
AcDbLine
 10
-336.5641902854964
 20
679.2837638721841
 30
0.0
 11
-142.8999864735932
 21
872.9479676840873
 31
0.0
  0
LINE
  5
464
330
1F
100
AcDbEntity
  8
0-0
  6
JWW_DASHED1
 62
   120
370
     5
100
AcDbLine
 10
-676.5641902854959
 20
346.3548316854701
 30
0.0
 11
-426.5641902854913
 21
596.3548316854747
 31
0.0
  0
LINE
  5
465
330
1F
100
AcDbEntity
  8
0-0
  6
JWW_DASHED1
 62
   120
370
     5
100
AcDbLine
 10
-336.5641902854998
 20
686.3548316854657
 30
0.0
 11
-149.9710542868872
 21
872.9479676840788
 31
0.0
  0
LINE
  5
466
330
1F
100
AcDbEntity
  8
0-0
  6
JWW_DASHED1
 62
   120
370
     5
100
AcDbLine
 10
-676.564190285501
 20
353.4258994987513
 30
0.0
 11
-426.5641902854947
 21
603.4258994987563
 31
0.0
  0
LINE
  5
467
330
1F
100
AcDbEntity
  8
0-0
  6
JWW_DASHED1
 62
   120
370
     5
100
AcDbLine
 10
-336.5641902855032
 20
693.425899498747
 30
0.0
 11
-157.0421221001675
 21
872.9479676840831
 31
0.0
  0
LINE
  5
468
330
1F
100
AcDbEntity
  8
0-0
  6
JWW_DASHED1
 62
   120
370
     5
100
AcDbLine
 10
-676.5641902854925
 20
360.496967312044
 30
0.0
 11
-426.5641902854862
 21
610.4969673120507
 31
0.0
  0
LINE
  5
469
330
1F
100
AcDbEntity
  8
0-0
  6
JWW_DASHED1
 62
   120
370
     5
100
AcDbLine
 10
-336.5641902854794
 20
700.4969673120584
 30
0.0
 11
-164.1131899134701
 21
872.9479676840668
 31
0.0
  0
LINE
  5
46A
330
1F
100
AcDbEntity
  8
0-0
  6
JWW_DASHED1
 62
   120
370
     5
100
AcDbLine
 10
-676.5641902854976
 20
367.5680351253253
 30
0.0
 11
-426.5641902854896
 21
617.5680351253324
 31
0.0
  0
LINE
  5
46B
330
1F
100
AcDbEntity
  8
0-0
  6
JWW_DASHED1
 62
   120
370
     5
100
AcDbLine
 10
-336.5641902854828
 20
707.5680351253396
 30
0.0
 11
-171.1842577267522
 21
872.9479676840707
 31
0.0
  0
LINE
  5
46C
330
1F
100
AcDbEntity
  8
0-0
  6
JWW_DASHED1
 62
   120
370
     5
100
AcDbLine
 10
-676.5641902854959
 20
374.6391029386116
 30
0.0
 11
-426.5641902854913
 21
624.6391029386161
 31
0.0
  0
LINE
  5
46D
330
1F
100
AcDbEntity
  8
0-0
  6
JWW_DASHED1
 62
   120
370
     5
100
AcDbLine
 10
-336.5641902854845
 20
714.6391029386225
 30
0.0
 11
-178.2553255400342
 21
872.9479676840745
 31
0.0
  0
LINE
  5
46E
330
1F
100
AcDbEntity
  8
0-0
  6
JWW_DASHED1
 62
   120
370
     5
100
AcDbLine
 10
-676.5641902855044
 20
381.710170751834
 30
0.0
 11
-426.5641902854998
 21
631.7101707518385
 31
0.0
  0
LINE
  5
46F
330
1F
100
AcDbEntity
  8
0-0
  6
JWW_DASHED1
 62
   120
370
     5
100
AcDbLine
 10
-336.564190285493
 20
721.7101707518453
 30
0.0
 11
-185.3263933532566
 21
872.9479676840822
 31
0.0
  0
LINE
  5
470
330
1F
100
AcDbEntity
  8
0-0
  6
JWW_DASHED1
 62
   120
370
     5
100
AcDbLine
 10
-676.5641902855095
 20
388.7812385651152
 30
0.0
 11
-426.5641902854879
 21
638.7812385651359
 31
0.0
  0
LINE
  5
471
330
1F
100
AcDbEntity
  8
0-0
  6
JWW_DASHED1
 62
   120
370
     5
100
AcDbLine
 10
-336.5641902854981
 20
728.7812385651266
 30
0.0
 11
-192.3974611665472
 21
872.9479676840771
 31
0.0
  0
LINE
  5
472
330
1F
100
AcDbEntity
  8
0-0
  6
JWW_DASHED1
 62
   120
370
     5
100
AcDbLine
 10
-676.5641902854976
 20
395.8523063784127
 30
0.0
 11
-426.564190285493
 21
645.8523063784176
 31
0.0
  0
LINE
  5
473
330
1F
100
AcDbEntity
  8
0-0
  6
JWW_DASHED1
 62
   120
370
     5
100
AcDbLine
 10
-336.5641902855015
 20
735.8523063784082
 30
0.0
 11
-199.4685289798293
 21
872.9479676840813
 31
0.0
  0
LINE
  5
474
330
1F
100
AcDbEntity
  8
0-0
  6
JWW_DASHED1
 62
   120
370
     5
100
AcDbLine
 10
-676.564190285501
 20
402.9233741916938
 30
0.0
 11
-426.5641902854964
 21
652.9233741916984
 31
0.0
  0
LINE
  5
475
330
1F
100
AcDbEntity
  8
0-0
  6
JWW_DASHED1
 62
   120
370
     5
100
AcDbLine
 10
-336.5641902855049
 20
742.9233741916894
 30
0.0
 11
-206.5395967931096
 21
872.9479676840856
 31
0.0
  0
LINE
  5
476
330
1F
100
AcDbEntity
  8
0-0
  6
JWW_DASHED1
 62
   120
370
     5
100
AcDbLine
 10
-676.5641902854942
 20
409.994442004987
 30
0.0
 11
-426.5641902854862
 21
659.9944420049937
 31
0.0
  0
LINE
  5
477
330
1F
100
AcDbEntity
  8
0-0
  6
JWW_DASHED1
 62
   120
370
     5
100
AcDbLine
 10
-336.5641902854794
 20
749.9944420050014
 30
0.0
 11
-213.6106646064139
 21
872.947967684066
 31
0.0
  0
LINE
  5
478
330
1F
100
AcDbEntity
  8
0-0
  6
JWW_DASHED1
 62
   120
370
     5
100
AcDbLine
 10
-676.5641902854976
 20
417.0655098182682
 30
0.0
 11
-426.5641902854913
 21
667.0655098182754
 31
0.0
  0
LINE
  5
479
330
1F
100
AcDbEntity
  8
0-0
  6
JWW_DASHED1
 62
   120
370
     5
100
AcDbLine
 10
-336.5641902854828
 20
757.0655098182826
 30
0.0
 11
-220.6817324196959
 21
872.9479676840695
 31
0.0
  0
LINE
  5
47A
330
1F
100
AcDbEntity
  8
0-0
  6
JWW_DASHED1
 62
   120
370
     5
100
AcDbLine
 10
-676.5641902854976
 20
424.1365776315537
 30
0.0
 11
-426.564190285493
 21
674.1365776315587
 31
0.0
  0
LINE
  5
47B
330
1F
100
AcDbEntity
  8
0-0
  6
JWW_DASHED1
 62
   120
370
     5
100
AcDbLine
 10
-336.5641902854862
 20
764.1365776315655
 30
0.0
 11
-227.752800232978
 21
872.9479676840732
 31
0.0
  0
LINE
  5
47C
330
1F
100
AcDbEntity
  8
0-0
  6
JWW_DASHED1
 62
   120
370
     5
100
AcDbLine
 10
-676.564190285501
 20
431.2076454448354
 30
0.0
 11
-426.5641902854964
 21
681.20764544484
 31
0.0
  0
LINE
  5
47D
330
1F
100
AcDbEntity
  8
0-0
  6
JWW_DASHED1
 62
   120
370
     5
100
AcDbLine
 10
-336.5641902854896
 20
771.2076454448468
 30
0.0
 11
-234.8238680462601
 21
872.9479676840771
 31
0.0
  0
LINE
  5
47E
330
1F
100
AcDbEntity
  8
0-0
  6
JWW_DASHED1
 62
   120
370
     5
100
AcDbLine
 10
-676.5641902855061
 20
438.2787132581166
 30
0.0
 11
-426.5641902854862
 21
688.2787132581373
 31
0.0
  0
LINE
  5
47F
330
1F
100
AcDbEntity
  8
0-0
  6
JWW_DASHED1
 62
   120
370
     5
100
AcDbLine
 10
-336.5641902854947
 20
778.2787132581279
 30
0.0
 11
-241.8949358595422
 21
872.9479676840809
 31
0.0
  0
LINE
  5
480
330
1F
100
AcDbEntity
  8
0-0
  6
JWW_DASHED1
 62
   120
370
     5
100
AcDbLine
 10
-676.5641902855095
 20
445.3497810713982
 30
0.0
 11
-426.5641902854896
 21
695.3497810714185
 31
0.0
  0
LINE
  5
481
330
1F
100
AcDbEntity
  8
0-0
  6
JWW_DASHED1
 62
   120
370
     5
100
AcDbLine
 10
-336.5641902854981
 20
785.3497810714096
 30
0.0
 11
-248.9660036728293
 21
872.9479676840788
 31
0.0
  0
LINE
  5
482
330
1F
100
AcDbEntity
  8
0-0
  6
JWW_DASHED1
 62
   120
370
     5
100
AcDbLine
 10
-676.5641902855027
 20
452.4208488846364
 30
0.0
 11
-426.5641902854981
 21
702.4208488846409
 31
0.0
  0
LINE
  5
483
330
1F
100
AcDbEntity
  8
0-0
  6
JWW_DASHED1
 62
   120
370
     5
100
AcDbLine
 10
-336.5641902855066
 20
792.4208488846316
 30
0.0
 11
-256.0370714860517
 21
872.9479676840878
 31
0.0
  0
LINE
  5
484
330
1F
100
AcDbEntity
  8
0-0
  6
JWW_DASHED1
 62
   120
370
     5
100
AcDbLine
 10
-676.5641902854942
 20
459.4919166979299
 30
0.0
 11
-426.5641902854879
 21
709.4919166979366
 31
0.0
  0
LINE
  5
485
330
1F
100
AcDbEntity
  8
0-0
  6
JWW_DASHED1
 62
   120
370
     5
100
AcDbLine
 10
-336.5641902854794
 20
799.4919166979444
 30
0.0
 11
-263.1081392993594
 21
872.9479676840647
 31
0.0
  0
LINE
  5
486
330
1F
100
AcDbEntity
  8
0-0
  6
JWW_DASHED1
 62
   120
370
     5
100
AcDbLine
 10
-676.5641902854993
 20
466.5629845112112
 30
0.0
 11
-426.5641902854913
 21
716.5629845112182
 31
0.0
  0
LINE
  5
487
330
1F
100
AcDbEntity
  8
0-0
  6
JWW_DASHED1
 62
   120
370
     5
100
AcDbLine
 10
-336.5641902854845
 20
806.562984511226
 30
0.0
 11
-270.1792071126414
 21
872.9479676840685
 31
0.0
  0
LINE
  5
488
330
1F
100
AcDbEntity
  8
0-0
  6
JWW_DASHED1
 62
   120
370
     5
100
AcDbLine
 10
-676.5641902854993
 20
473.6340523244962
 30
0.0
 11
-426.5641902854947
 21
723.6340523245012
 31
0.0
  0
LINE
  5
489
330
1F
100
AcDbEntity
  8
0-0
  6
JWW_DASHED1
 62
   120
370
     5
100
AcDbLine
 10
-336.5641902854879
 20
813.6340523245076
 30
0.0
 11
-277.2502749259235
 21
872.9479676840724
 31
0.0
  0
LINE
  5
48A
330
1F
100
AcDbEntity
  8
0-0
  6
JWW_DASHED1
 62
   120
370
     5
100
AcDbLine
 10
-676.5641902855027
 20
480.7051201377778
 30
0.0
 11
-426.5641902854981
 21
730.7051201377824
 31
0.0
  0
LINE
  5
48B
330
1F
100
AcDbEntity
  8
0-0
  6
JWW_DASHED1
 62
   120
370
     5
100
AcDbLine
 10
-336.5641902854913
 20
820.7051201377892
 30
0.0
 11
-284.3213427392039
 21
872.9479676840763
 31
0.0
  0
LINE
  5
48C
330
1F
100
AcDbEntity
  8
0-0
  6
JWW_DASHED1
 62
   120
370
     5
100
AcDbLine
 10
-676.5641902855078
 20
487.7761879510591
 30
0.0
 11
-426.5641902854862
 21
737.7761879510798
 31
0.0
  0
LINE
  5
48D
330
1F
100
AcDbEntity
  8
0-0
  6
JWW_DASHED1
 62
   120
370
     5
100
AcDbLine
 10
-336.5641902854964
 20
827.7761879510705
 30
0.0
 11
-291.392410552486
 21
872.9479676840797
 31
0.0
  0
LINE
  5
48E
330
1F
100
AcDbEntity
  8
0-0
  6
JWW_DASHED1
 62
   120
370
     5
100
AcDbLine
 10
-676.5641902855112
 20
494.8472557643407
 30
0.0
 11
-426.5641902854913
 21
744.8472557643611
 31
0.0
  0
LINE
  5
48F
330
1F
100
AcDbEntity
  8
0-0
  6
JWW_DASHED1
 62
   120
370
     5
100
AcDbLine
 10
-336.5641902854998
 20
834.8472557643521
 30
0.0
 11
-298.4634783657714
 21
872.9479676840809
 31
0.0
  0
LINE
  5
490
330
1F
100
AcDbEntity
  8
0-0
  6
JWW_DASHED1
 62
   120
370
     5
100
AcDbLine
 10
-676.5641902854993
 20
501.9183235776377
 30
0.0
 11
-426.5641902854947
 21
751.9183235776427
 31
0.0
  0
LINE
  5
491
330
1F
100
AcDbEntity
  8
0-0
  6
JWW_DASHED1
 62
   120
370
     5
100
AcDbLine
 10
-336.5641902855032
 20
841.9183235776334
 30
0.0
 11
-305.5345461790518
 21
872.9479676840851
 31
0.0
  0
LINE
  5
492
330
1F
100
AcDbEntity
  8
0-0
  6
JWW_DASHED1
 62
   120
370
     5
100
AcDbLine
 10
-676.5641902854908
 20
508.9893913909317
 30
0.0
 11
-426.5641902854845
 21
758.9893913909384
 31
0.0
  0
LINE
  5
493
330
1F
100
AcDbEntity
  8
0-0
  6
JWW_DASHED1
 62
   120
370
     5
100
AcDbLine
 10
-336.564190285493
 20
848.9893913909307
 30
0.0
 11
-312.6056139923492
 21
872.9479676840737
 31
0.0
  0
LINE
  5
494
330
1F
100
AcDbEntity
  8
0-0
  6
JWW_DASHED1
 62
   120
370
     5
100
AcDbLine
 10
-676.5641902854959
 20
516.0604592041575
 30
0.0
 11
-426.5641902854913
 21
766.060459204162
 31
0.0
  0
LINE
  5
495
330
1F
100
AcDbEntity
  8
0-0
  6
JWW_DASHED1
 62
   120
370
     5
100
AcDbLine
 10
-336.5641902854845
 20
856.0604592041684
 30
0.0
 11
-319.676681805587
 21
872.9479676840676
 31
0.0
  0
LINE
  5
496
330
1F
100
AcDbEntity
  8
0-0
  6
JWW_DASHED1
 62
   120
370
     5
100
AcDbLine
 10
-676.564190285501
 20
523.1315270174388
 30
0.0
 11
-426.5641902854964
 21
773.1315270174437
 31
0.0
  0
LINE
  5
497
330
1F
100
AcDbEntity
  8
0-0
  6
JWW_DASHED1
 62
   120
370
     5
100
AcDbLine
 10
-336.5641902854896
 20
863.1315270174501
 30
0.0
 11
-326.7477496188673
 21
872.947967684071
 31
0.0
  0
LINE
  5
498
330
1F
100
AcDbEntity
  8
0-0
  6
JWW_DASHED1
 62
   120
370
     5
100
AcDbLine
 10
-676.5641902855044
 20
530.2025948307204
 30
0.0
 11
-426.5641902854998
 21
780.2025948307249
 31
0.0
  0
LINE
  5
499
330
1F
100
AcDbEntity
  8
0-0
  6
JWW_DASHED1
 62
   120
370
     5
100
AcDbLine
 10
-336.564190285493
 20
870.2025948307318
 30
0.0
 11
-333.8188174321494
 21
872.9479676840749
 31
0.0
  0
LINE
  5
49A
330
1F
100
AcDbEntity
  8
0-0
  6
JWW_DASHED1
 62
   120
370
     5
100
AcDbLine
 10
-676.5641902855078
 20
537.2736626440017
 30
0.0
 11
-426.5641902854879
 21
787.2736626440224
 31
0.0
  0
LINE
  5
49B
330
1F
100
AcDbEntity
  8
0-0
  6
JWW_DASHED1
 62
   120
370
     5
100
AcDbLine
 10
-676.5641902854976
 20
544.344730457299
 30
0.0
 11
-426.5641902854913
 21
794.3447304573035
 31
0.0
  0
LINE
  5
49C
330
1F
100
AcDbEntity
  8
0-0
  6
JWW_DASHED1
 62
   120
370
     5
100
AcDbLine
 10
-676.564190285501
 20
551.4157982705802
 30
0.0
 11
-426.5641902854964
 21
801.4157982705848
 31
0.0
  0
LINE
  5
49D
330
1F
100
AcDbEntity
  8
0-0
  6
JWW_DASHED1
 62
   120
370
     5
100
AcDbLine
 10
-676.5641902854925
 20
558.4868660838747
 30
0.0
 11
-426.5641902854845
 21
808.4868660838818
 31
0.0
  0
LINE
  5
49E
330
1F
100
AcDbEntity
  8
0-0
  6
JWW_DASHED1
 62
   120
370
     5
100
AcDbLine
 10
-676.5641902854959
 20
565.5579338971559
 30
0.0
 11
-426.5641902854896
 21
815.5579338971634
 31
0.0
  0
LINE
  5
49F
330
1F
100
AcDbEntity
  8
0-0
  6
JWW_DASHED1
 62
   120
370
     5
100
AcDbLine
 10
-676.5641902854976
 20
572.6290017104401
 30
0.0
 11
-426.564190285493
 21
822.6290017104451
 31
0.0
  0
LINE
  5
4A0
330
1F
100
AcDbEntity
  8
0-0
  6
JWW_DASHED1
 62
   120
370
     5
100
AcDbLine
 10
-676.5641902855061
 20
579.7000695236629
 30
0.0
 11
-426.5641902855015
 21
829.7000695236675
 31
0.0
  0
LINE
  5
4A1
330
1F
100
AcDbEntity
  8
0-0
  6
JWW_DASHED1
 62
   120
370
     5
100
AcDbLine
 10
-676.5641902855095
 20
586.7711373369441
 30
0.0
 11
-426.5641902854896
 21
836.7711373369649
 31
0.0
  0
LINE
  5
4A2
330
1F
100
AcDbEntity
  8
0-0
  6
JWW_DASHED1
 62
   120
370
     5
100
AcDbLine
 10
-676.5641902854976
 20
593.8422051502415
 30
0.0
 11
-426.564190285493
 21
843.8422051502465
 31
0.0
  0
LINE
  5
4A3
330
1F
100
AcDbEntity
  8
0-0
  6
JWW_DASHED1
 62
   120
370
     5
100
AcDbLine
 10
-676.5641902855027
 20
600.9132729635228
 30
0.0
 11
-426.5641902854964
 21
850.9132729635273
 31
0.0
  0
LINE
  5
4A4
330
1F
100
AcDbEntity
  8
0-0
  6
JWW_DASHED1
 62
   120
370
     5
100
AcDbLine
 10
-676.5641902854925
 20
607.9843407768176
 30
0.0
 11
-426.5641902854862
 21
857.9843407768248
 31
0.0
  0
LINE
  5
4A5
330
1F
100
AcDbEntity
  8
0-0
  6
JWW_DASHED1
 62
   120
370
     5
100
AcDbLine
 10
-676.5641902854976
 20
615.0554085900989
 30
0.0
 11
-426.5641902854896
 21
865.0554085901059
 31
0.0
  0
LINE
  5
4A6
330
1F
100
AcDbEntity
  8
0-0
  6
JWW_DASHED1
 62
   120
370
     5
100
AcDbLine
 10
-676.5641902854976
 20
622.1264764033831
 30
0.0
 11
-426.564190285493
 21
872.1264764033876
 31
0.0
  0
LINE
  5
4A7
330
1F
100
AcDbEntity
  8
0-0
  6
JWW_DASHED1
 62
   120
370
     5
100
AcDbLine
 10
-676.5641902855027
 20
629.1975442166643
 30
0.0
 11
-432.8137668180864
 21
872.9479676840797
 31
0.0
  0
LINE
  5
4A8
330
1F
100
AcDbEntity
  8
0-0
  6
JWW_DASHED1
 62
   120
370
     5
100
AcDbLine
 10
-676.5641902855078
 20
636.2686120299454
 30
0.0
 11
-439.8848346313821
 21
872.9479676840695
 31
0.0
  0
LINE
  5
4A9
330
1F
100
AcDbEntity
  8
0-0
  6
JWW_DASHED1
 62
   120
370
     5
100
AcDbLine
 10
-676.5641902854993
 20
643.3396798431841
 30
0.0
 11
-446.9559024446062
 21
872.9479676840766
 31
0.0
  0
LINE
  5
4AA
330
1F
100
AcDbEntity
  8
0-0
  6
JWW_DASHED1
 62
   120
370
     5
100
AcDbLine
 10
-676.5641902855044
 20
650.4107476564652
 30
0.0
 11
-454.0269702578883
 21
872.9479676840813
 31
0.0
  0
LINE
  5
4AB
330
1F
100
AcDbEntity
  8
0-0
  6
JWW_DASHED1
 62
   120
370
     5
100
AcDbLine
 10
-676.5641902854942
 20
657.4818154697606
 30
0.0
 11
-461.098038071184
 21
872.9479676840695
 31
0.0
  0
LINE
  5
4AC
330
1F
100
AcDbEntity
  8
0-0
  6
JWW_DASHED1
 62
   120
370
     5
100
AcDbLine
 10
-676.5641902854976
 20
664.5528832830418
 30
0.0
 11
-468.1691058844661
 21
872.9479676840737
 31
0.0
  0
LINE
  5
4AD
330
1F
100
AcDbEntity
  8
0-0
  6
JWW_DASHED1
 62
   120
370
     5
100
AcDbLine
 10
-676.5641902854993
 20
671.6239510963251
 30
0.0
 11
-475.2401736977482
 21
872.9479676840779
 31
0.0
  0
LINE
  5
4AE
330
1F
100
AcDbEntity
  8
0-0
  6
JWW_DASHED1
 62
   120
370
     5
100
AcDbLine
 10
-676.5641902855044
 20
678.6950189096068
 30
0.0
 11
-482.3112415110285
 21
872.9479676840817
 31
0.0
  0
LINE
  5
4AF
330
1F
100
AcDbEntity
  8
0-0
  6
JWW_DASHED1
 62
   120
370
     5
100
AcDbLine
 10
-676.5641902855078
 20
685.7660867228884
 30
0.0
 11
-489.3823093243225
 21
872.9479676840745
 31
0.0
  0
LINE
  5
4B0
330
1F
100
AcDbEntity
  8
0-0
  6
JWW_DASHED1
 62
   120
370
     5
100
AcDbLine
 10
-676.5641902855112
 20
692.8371545361697
 30
0.0
 11
-496.4533771376029
 21
872.9479676840788
 31
0.0
  0
LINE
  5
4B1
330
1F
100
AcDbEntity
  8
0-0
  6
JWW_DASHED1
 62
   120
370
     5
100
AcDbLine
 10
-676.564190285501
 20
699.9082223494667
 30
0.0
 11
-503.5244449508884
 21
872.9479676840788
 31
0.0
  0
LINE
  5
4B2
330
1F
100
AcDbEntity
  8
0-0
  6
JWW_DASHED1
 62
   120
370
     5
100
AcDbLine
 10
-676.5641902854942
 20
706.9792901627035
 30
0.0
 11
-510.5955127641261
 21
872.9479676840715
 31
0.0
  0
LINE
  5
4B3
330
1F
100
AcDbEntity
  8
0-0
  6
JWW_DASHED1
 62
   120
370
     5
100
AcDbLine
 10
-676.5641902854976
 20
714.0503579759865
 30
0.0
 11
-517.6665805774082
 21
872.9479676840758
 31
0.0
  0
LINE
  5
4B4
330
1F
100
AcDbEntity
  8
0-0
  6
JWW_DASHED1
 62
   120
370
     5
100
AcDbLine
 10
-676.564190285501
 20
721.1214257892681
 30
0.0
 11
-524.7376483906886
 21
872.9479676840797
 31
0.0
  0
LINE
  5
4B5
330
1F
100
AcDbEntity
  8
0-0
  6
JWW_DASHED1
 62
   120
370
     5
100
AcDbLine
 10
-676.5641902855044
 20
728.1924936025493
 30
0.0
 11
-531.8087162039707
 21
872.9479676840839
 31
0.0
  0
LINE
  5
4B6
330
1F
100
AcDbEntity
  8
0-0
  6
JWW_DASHED1
 62
   120
370
     5
100
AcDbLine
 10
-676.5641902855095
 20
735.2635614158305
 30
0.0
 11
-538.8797840172596
 21
872.9479676840797
 31
0.0
  0
LINE
  5
4B7
330
1F
100
AcDbEntity
  8
0-0
  6
JWW_DASHED1
 62
   120
370
     5
100
AcDbLine
 10
-676.564190285513
 20
742.3346292291121
 30
0.0
 11
-545.9508518305416
 21
872.9479676840843
 31
0.0
  0
LINE
  5
4B8
330
1F
100
AcDbEntity
  8
0-0
  6
JWW_DASHED1
 62
   120
370
     5
100
AcDbLine
 10
-676.564190285501
 20
749.4056970424092
 30
0.0
 11
-553.0219196438305
 21
872.9479676840809
 31
0.0
  0
LINE
  5
4B9
330
1F
100
AcDbEntity
  8
0-0
  6
JWW_DASHED1
 62
   120
370
     5
100
AcDbLine
 10
-676.5641902854908
 20
756.4767648557053
 30
0.0
 11
-560.0929874571262
 21
872.9479676840695
 31
0.0
  0
LINE
  5
4BA
330
1F
100
AcDbEntity
  8
0-0
  6
JWW_DASHED1
 62
   120
370
     5
100
AcDbLine
 10
-676.5641902854959
 20
763.5478326689865
 30
0.0
 11
-567.1640552704083
 21
872.9479676840737
 31
0.0
  0
LINE
  5
4BB
330
1F
100
AcDbEntity
  8
0-0
  6
JWW_DASHED1
 62
   120
370
     5
100
AcDbLine
 10
-676.5641902855027
 20
770.6189004822102
 30
0.0
 11
-574.2351230836307
 21
872.9479676840822
 31
0.0
  0
LINE
  5
4BC
330
1F
100
AcDbEntity
  8
0-0
  6
JWW_DASHED1
 62
   120
370
     5
100
AcDbLine
 10
-676.5641902855061
 20
777.6899682954918
 30
0.0
 11
-581.3061908969128
 21
872.947967684086
 31
0.0
  0
LINE
  5
4BD
330
1F
100
AcDbEntity
  8
0-0
  6
JWW_DASHED1
 62
   120
370
     5
100
AcDbLine
 10
-676.5641902855112
 20
784.761036108773
 30
0.0
 11
-588.3772587102
 21
872.9479676840847
 31
0.0
  0
LINE
  5
4BE
330
1F
100
AcDbEntity
  8
0-0
  6
JWW_DASHED1
 62
   120
370
     5
100
AcDbLine
 10
-676.5641902854993
 20
791.8321039220705
 30
0.0
 11
-595.4483265234906
 21
872.9479676840788
 31
0.0
  0
LINE
  5
4BF
330
1F
100
AcDbEntity
  8
0-0
  6
JWW_DASHED1
 62
   120
370
     5
100
AcDbLine
 10
-676.5641902855027
 20
798.9031717353516
 30
0.0
 11
-602.5193943367709
 21
872.9479676840831
 31
0.0
  0
LINE
  5
4C0
330
1F
100
AcDbEntity
  8
0-0
  6
JWW_DASHED1
 62
   120
370
     5
100
AcDbLine
 10
-676.5641902854925
 20
805.9742395486483
 30
0.0
 11
-609.5904621500683
 21
872.9479676840715
 31
0.0
  0
LINE
  5
4C1
330
1F
100
AcDbEntity
  8
0-0
  6
JWW_DASHED1
 62
   120
370
     5
100
AcDbLine
 10
-676.5641902854959
 20
813.0453073619294
 30
0.0
 11
-616.6615299633504
 21
872.9479676840754
 31
0.0
  0
LINE
  5
4C2
330
1F
100
AcDbEntity
  8
0-0
  6
JWW_DASHED1
 62
   120
370
     5
100
AcDbLine
 10
-676.5641902854993
 20
820.1163751752115
 30
0.0
 11
-623.7325977766308
 21
872.9479676840797
 31
0.0
  0
LINE
  5
4C3
330
1F
100
AcDbEntity
  8
0-0
  6
JWW_DASHED1
 62
   120
370
     5
100
AcDbLine
 10
-676.5641902855044
 20
827.1874429884931
 30
0.0
 11
-630.8036655899128
 21
872.9479676840839
 31
0.0
  0
LINE
  5
4C4
330
1F
100
AcDbEntity
  8
0-0
  6
JWW_DASHED1
 62
   120
370
     5
100
AcDbLine
 10
-676.5641902855095
 20
834.2585108017449
 30
0.0
 11
-637.8747334031676
 21
872.9479676840878
 31
0.0
  0
LINE
  5
4C5
330
1F
100
AcDbEntity
  8
0-0
  6
JWW_DASHED1
 62
   120
370
     5
100
AcDbLine
 10
-676.564190285501
 20
841.3295786150129
 30
0.0
 11
-644.9458012164326
 21
872.9479676840809
 31
0.0
  0
LINE
  5
4C6
330
1F
100
AcDbEntity
  8
0-0
  6
JWW_DASHED1
 62
   120
370
     5
100
AcDbLine
 10
-676.5641902855044
 20
848.4006464282942
 30
0.0
 11
-652.016869029713
 21
872.9479676840851
 31
0.0
  0
LINE
  5
4C7
330
1F
100
AcDbEntity
  8
0-0
  6
JWW_DASHED1
 62
   120
370
     5
100
AcDbLine
 10
-676.5641902854925
 20
855.4717142415911
 30
0.0
 11
-659.0879368430104
 21
872.9479676840737
 31
0.0
  0
LINE
  5
4C8
330
1F
100
AcDbEntity
  8
0-0
  6
JWW_DASHED1
 62
   120
370
     5
100
AcDbLine
 10
-676.5641902854976
 20
862.5427820548728
 30
0.0
 11
-666.1590046562925
 21
872.9479676840775
 31
0.0
  0
LINE
  5
4C9
330
1F
100
AcDbEntity
  8
0-0
  6
JWW_DASHED1
 62
   120
370
     5
100
AcDbLine
 10
-676.564190285501
 20
869.613849868154
 30
0.0
 11
-673.2300724695729
 21
872.9479676840817
 31
0.0
  0
LINE
  5
4CA
330
1F
100
AcDbEntity
  8
寸法
  6
Continuous
 62
   120
370
     5
100
AcDbLine
 10
-1313.564190285493
 20
1051.947967684075
 30
0.0
 11
-1313.564190285493
 21
-995.0520323159259
 31
0.0
  0
LINE
  5
4CB
330
1F
100
AcDbEntity
  8
寸法
  6
Continuous
 62
   120
370
     5
100
AcDbLine
 10
-1313.564190285493
 20
1051.947967684075
 30
0.0
 11
-863.5641902854929
 21
1051.947967684075
 31
0.0
  0
LINE
  5
4CC
330
1F
100
AcDbEntity
  8
寸法
  6
Continuous
 62
   120
370
     5
100
AcDbLine
 10
-1313.564190285493
 20
-995.0520323159259
 30
0.0
 11
-863.5641902854929
 21
-995.0520323159259
 31
0.0
  0
LINE
  5
4CD
330
1F
100
AcDbEntity
  8
寸法
  6
Continuous
 62
   120
370
     5
100
AcDbLine
 10
-1113.564190285492
 20
-975.0520323159253
 30
0.0
 11
-863.5641902854929
 21
-975.0520323159253
 31
0.0
  0
LWPOLYLINE
  5
4CE
330
1F
100
AcDbEntity
  8
寸法
  6
Continuous
 62
     7
370
     9
100
AcDbPolyline
 90
        4
 70
     1
 43
3.0
 10
-1312.064190285493
 20
1051.947967684075
 42
0.4142135623731
 10
-1313.564190285493
 20
1053.447967684074
 42
0.4142135623731
 10
-1315.064190285493
 20
1051.947967684075
 42
0.4142135623731
 10
-1313.564190285493
 20
1050.447967684075
 42
0.4142135623731
  0
LWPOLYLINE
  5
4CF
330
1F
100
AcDbEntity
  8
寸法
  6
Continuous
 62
     7
370
     9
100
AcDbPolyline
 90
        4
 70
     1
 43
3.0
 10
-1312.064190285493
 20
-995.0520323159259
 42
0.4142135623731
 10
-1313.564190285493
 20
-993.552032315926
 42
0.4142135623731
 10
-1315.064190285493
 20
-995.0520323159259
 42
0.4142135623731
 10
-1313.564190285493
 20
-996.5520323159258
 42
0.4142135623731
  0
LWPOLYLINE
  5
4D0
330
1F
100
AcDbEntity
  8
寸法
  6
Continuous
 62
     7
370
     9
100
AcDbPolyline
 90
        4
 70
     1
 43
3.0
 10
-1112.064190285492
 20
-975.0520323159253
 42
0.4142135623731
 10
-1113.564190285492
 20
-973.5520323159254
 42
0.4142135623731
 10
-1115.064190285492
 20
-975.0520323159253
 42
0.4142135623731
 10
-1113.564190285492
 20
-976.5520323159252
 42
0.4142135623731
  0
LINE
  5
4D1
330
1F
100
AcDbEntity
  8
寸法
  6
Continuous
 62
   120
370
     5
100
AcDbLine
 10
-1113.564190285492
 20
1007.947967684074
 30
0.0
 11
-863.5641902854929
 21
1007.947967684074
 31
0.0
  0
LINE
  5
4D2
330
1F
100
AcDbEntity
  8
寸法
  6
Continuous
 62
   120
370
     5
100
AcDbLine
 10
-1113.564190285492
 20
1007.947967684074
 30
0.0
 11
-1113.564190285492
 21
-975.0520323159253
 31
0.0
  0
LWPOLYLINE
  5
4D3
330
1F
100
AcDbEntity
  8
寸法
  6
Continuous
 62
     7
370
     9
100
AcDbPolyline
 90
        4
 70
     1
 43
3.0
 10
-1112.064190285492
 20
1007.947967684074
 42
0.4142135623731
 10
-1113.564190285492
 20
1009.447967684074
 42
0.4142135623731
 10
-1115.064190285492
 20
1007.947967684074
 42
0.4142135623731
 10
-1113.564190285492
 20
1006.447967684074
 42
0.4142135623731
  0
LINE
  5
4D4
330
1F
100
AcDbEntity
  8
寸法
  6
Continuous
 62
   120
370
     5
100
AcDbLine
 10
-783.5641902854924
 20
-1445.052032315926
 30
0.0
 11
-783.5641902854924
 21
-1045.052032315926
 31
0.0
  0
LINE
  5
4D5
330
1F
100
AcDbEntity
  8
寸法
  6
Continuous
 62
   120
370
     5
100
AcDbLine
 10
-813.5641902854924
 20
-1645.052032315925
 30
0.0
 11
-813.5641902854924
 21
-1045.052032315926
 31
0.0
  0
LINE
  5
4D6
330
1F
100
AcDbEntity
  8
寸法
  6
Continuous
 62
   120
370
     5
100
AcDbLine
 10
803.4358097145068
 20
-1245.052032315925
 30
0.0
 11
803.4358097145068
 21
-1045.052032315926
 31
0.0
  0
LINE
  5
4D7
330
1F
100
AcDbEntity
  8
寸法
  6
Continuous
 62
   120
370
     5
100
AcDbLine
 10
-783.5641902854924
 20
-1445.052032315926
 30
0.0
 11
800.4358097145061
 21
-1445.052032315926
 31
0.0
  0
LINE
  5
4D8
330
1F
100
AcDbEntity
  8
寸法
  6
Continuous
 62
   120
370
     5
100
AcDbLine
 10
800.4358097145061
 20
-1445.052032315926
 30
0.0
 11
800.4358097145061
 21
-1045.052032315926
 31
0.0
  0
LINE
  5
4D9
330
1F
100
AcDbEntity
  8
寸法
  6
Continuous
 62
   120
370
     5
100
AcDbLine
 10
-813.5641902854924
 20
-1645.052032315925
 30
0.0
 11
830.4358097145061
 21
-1645.052032315925
 31
0.0
  0
LINE
  5
4DA
330
1F
100
AcDbEntity
  8
寸法
  6
Continuous
 62
   120
370
     5
100
AcDbLine
 10
830.4358097145061
 20
-1645.052032315925
 30
0.0
 11
830.4358097145061
 21
-1045.052032315926
 31
0.0
  0
LINE
  5
4DB
330
1F
100
AcDbEntity
  8
寸法
  6
Continuous
 62
   120
370
     5
100
AcDbLine
 10
-6.564190285493012
 20
-1245.052032315925
 30
0.0
 11
-6.564190285493012
 21
-1045.052032315926
 31
0.0
  0
LINE
  5
4DC
330
1F
100
AcDbEntity
  8
寸法
  6
Continuous
 62
   120
370
     5
100
AcDbLine
 10
-6.564190285493012
 20
-1245.052032315925
 30
0.0
 11
803.4358097145068
 21
-1245.052032315925
 31
0.0
  0
LWPOLYLINE
  5
4DD
330
1F
100
AcDbEntity
  8
寸法
  6
Continuous
 62
     7
370
     9
100
AcDbPolyline
 90
        4
 70
     1
 43
3.0
 10
-782.0641902854923
 20
-1445.052032315926
 42
0.4142135623731
 10
-783.5641902854924
 20
-1443.552032315926
 42
0.4142135623731
 10
-785.0641902854924
 20
-1445.052032315926
 42
0.4142135623731
 10
-783.5641902854924
 20
-1446.552032315926
 42
0.4142135623731
  0
LWPOLYLINE
  5
4DE
330
1F
100
AcDbEntity
  8
寸法
  6
Continuous
 62
     7
370
     9
100
AcDbPolyline
 90
        4
 70
     1
 43
3.0
 10
-812.0641902854923
 20
-1645.052032315925
 42
0.4142135623731
 10
-813.5641902854924
 20
-1643.552032315925
 42
0.4142135623731
 10
-815.0641902854924
 20
-1645.052032315925
 42
0.4142135623731
 10
-813.5641902854924
 20
-1646.552032315925
 42
0.4142135623731
  0
LWPOLYLINE
  5
4DF
330
1F
100
AcDbEntity
  8
寸法
  6
Continuous
 62
     7
370
     9
100
AcDbPolyline
 90
        4
 70
     1
 43
3.0
 10
804.935809714507
 20
-1245.052032315925
 42
0.4142135623731
 10
803.4358097145068
 20
-1243.552032315925
 42
0.4142135623731
 10
801.9358097145068
 20
-1245.052032315925
 42
0.4142135623731
 10
803.4358097145068
 20
-1246.552032315925
 42
0.4142135623731
  0
LWPOLYLINE
  5
4E0
330
1F
100
AcDbEntity
  8
寸法
  6
Continuous
 62
     7
370
     9
100
AcDbPolyline
 90
        4
 70
     1
 43
3.0
 10
801.9358097145063
 20
-1445.052032315926
 42
0.4142135623731
 10
800.4358097145061
 20
-1443.552032315926
 42
0.4142135623731
 10
798.9358097145061
 20
-1445.052032315926
 42
0.4142135623731
 10
800.4358097145061
 20
-1446.552032315926
 42
0.4142135623731
  0
LWPOLYLINE
  5
4E1
330
1F
100
AcDbEntity
  8
寸法
  6
Continuous
 62
     7
370
     9
100
AcDbPolyline
 90
        4
 70
     1
 43
3.0
 10
831.9358097145063
 20
-1645.052032315925
 42
0.4142135623731
 10
830.4358097145061
 20
-1643.552032315925
 42
0.4142135623731
 10
828.9358097145061
 20
-1645.052032315925
 42
0.4142135623731
 10
830.4358097145061
 20
-1646.552032315925
 42
0.4142135623731
  0
LWPOLYLINE
  5
4E2
330
1F
100
AcDbEntity
  8
寸法
  6
Continuous
 62
     7
370
     9
100
AcDbPolyline
 90
        4
 70
     1
 43
3.0
 10
-5.064190285493012
 20
-1245.052032315925
 42
0.4142135623731
 10
-6.564190285493012
 20
-1243.552032315925
 42
0.4142135623731
 10
-8.064190285493012
 20
-1245.052032315925
 42
0.4142135623731
 10
-6.564190285493012
 20
-1246.552032315925
 42
0.4142135623731
  0
MTEXT
  5
4E3
330
1F
100
AcDbEntity
  8
寸法
  6
Continuous
 62
     7
370
    70
100
AcDbMText
 10
-1328.564190285493
 20
-186.7270323159257
 30
0.0
 40
57.14999999999999
 41
412.5
 46
0.0
 71
     7
 72
     1
  1
{\fＭＳ ゴシック|b0|i0|c128|p49;枠外＝2,047}
 11
6.123031769111886E-17
 21
1.0
 31
0.0
 73
     1
 44
1.0
  0
MTEXT
  5
4E4
330
1F
100
AcDbEntity
  8
寸法
  6
Continuous
 62
     7
370
    70
100
AcDbMText
 10
-1128.564190285492
 20
-192.7270323159253
 30
0.0
 40
57.14999999999999
 41
412.5
 46
0.0
 71
     7
 72
     1
  1
{\fＭＳ ゴシック|b0|i0|c128|p49;ＤＨ＝1,983}
 11
6.123031769111886E-17
 21
1.0
 31
0.0
 73
     1
 44
1.0
  0
MTEXT
  5
4E5
330
1F
100
AcDbEntity
  8
寸法
  6
Continuous
 62
     7
370
   211
100
AcDbMText
 10
229.6858097145069
 20
-1238.977032315925
 30
0.0
 40
57.15000000000001
 41
337.5000000000001
 46
0.0
 71
     7
 72
     1
  1
{\fＭＳ ゴシック|b0|i0|c128|p49;ＤＷ＝810}
 73
     1
 44
1.0
  0
MTEXT
  5
4E6
330
1F
100
AcDbEntity
  8
寸法
  6
Continuous
 62
     7
370
   211
100
AcDbMText
 10
-197.814190285493
 20
-1438.977032315926
 30
0.0
 40
57.14999999999999
 41
412.5
 46
0.0
 71
     7
 72
     1
  1
{\fＭＳ ゴシック|b0|i0|c128|p49;枠内＝1,584}
 73
     1
 44
1.0
  0
MTEXT
  5
4E7
330
1F
100
AcDbEntity
  8
寸法
  6
Continuous
 62
     7
370
   211
100
AcDbMText
 10
-197.814190285493
 20
-1638.977032315925
 30
0.0
 40
57.14999999999999
 41
412.5
 46
0.0
 71
     7
 72
     1
  1
{\fＭＳ ゴシック|b0|i0|c128|p49;枠外＝1,644}
 73
     1
 44
1.0
  0
ENDSEC
  0
SECTION
  2
OBJECTS
  0
DICTIONARY
  5
C
330
0
100
AcDbDictionary
281
     1
  3
ACAD_GROUP
350
D
  3
ACAD_LAYOUT
350
1A
  3
ACAD_MATERIAL
350
3B
  3
ACAD_MLEADERSTYLE
350
4E9
  3
ACAD_MLINESTYLE
350
17
  3
ACAD_PLOTSETTINGS
350
19
  3
ACAD_PLOTSTYLENAME
350
E
  3
ACAD_TABLESTYLE
350
4E8
  3
ACAD_VISUALSTYLE
350
2A
  0
DICTIONARY
  5
D
102
{ACAD_REACTORS
330
C
102
}
330
C
100
AcDbDictionary
281
     1
  0
DICTIONARY
  5
1A
102
{ACAD_REACTORS
330
C
102
}
330
C
100
AcDbDictionary
281
     1
  3
Layout1
350
1E
  3
Layout2
350
26
  3
Model
350
22
  0
DICTIONARY
  5
3B
102
{ACAD_REACTORS
330
C
102
}
330
C
100
AcDbDictionary
281
     1
  3
ByBlock
350
3D
  3
ByLayer
350
3C
  3
Global
350
3E
  0
DICTIONARY
  5
4E9
102
{ACAD_REACTORS
330
C
102
}
330
C
100
AcDbDictionary
281
     1
  0
DICTIONARY
  5
17
102
{ACAD_REACTORS
330
C
102
}
330
C
100
AcDbDictionary
281
     1
  3
Standard
350
18
  0
DICTIONARY
  5
19
102
{ACAD_REACTORS
330
C
102
}
330
C
100
AcDbDictionary
281
     1
  0
ACDBDICTIONARYWDFLT
  5
E
102
{ACAD_REACTORS
330
C
102
}
330
C
100
AcDbDictionary
281
     1
  3
Normal
350
F
100
AcDbDictionaryWithDefault
340
F
  0
DICTIONARY
  5
4E8
102
{ACAD_REACTORS
330
C
102
}
330
C
100
AcDbDictionary
281
     1
  0
DICTIONARY
  5
2A
102
{ACAD_REACTORS
330
C
102
}
330
C
100
AcDbDictionary
281
     1
  3
2dWireframe
350
2F
  3
3D Hidden
350
31
  3
3dWireframe
350
30
  3
Basic
350
32
  3
Brighten
350
36
  3
ColorChange
350
3A
  3
Conceptual
350
34
  3
Dim
350
35
  3
Facepattern
350
39
  3
Flat
350
2B
  3
FlatWithEdges
350
2C
  3
Gouraud
350
2D
  3
GouraudWithEdges
350
2E
  3
Linepattern
350
38
  3
Realistic
350
33
  3
Thicken
350
37
  0
LAYOUT
  5
1E
102
{ACAD_REACTORS
330
1A
102
}
330
1A
100
AcDbPlotSettings
  1

  2
none_device
  4

  6

 40
0.0
 41
0.0
 42
0.0
 43
0.0
 44
0.0
 45
0.0
 46
0.0
 47
0.0
 48
0.0
 49
0.0
140
0.0
141
0.0
142
1.0
143
1.0
 70
   688
 72
     0
 73
     0
 74
     5
  7

 75
    16
 76
     0
 77
     5
 78
   300
147
1.0
148
0.0
149
0.0
100
AcDbLayout
  1
Layout1
 70
     1
 71
     1
 10
0.0
 20
0.0
 11
420.0
 21
297.0
 12
0.0
 22
0.0
 32
0.0
 14
1.000000000000000E+20
 24
1.000000000000000E+20
 34
1.000000000000000E+20
 15
-1.000000000000000E+20
 25
-1.000000000000000E+20
 35
-1.000000000000000E+20
146
0.0
 13
0.0
 23
0.0
 33
0.0
 16
1.0
 26
0.0
 36
0.0
 17
0.0
 27
1.0
 37
0.0
 76
     0
330
1B
  0
LAYOUT
  5
26
102
{ACAD_REACTORS
330
1A
102
}
330
1A
100
AcDbPlotSettings
  1

  2
none_device
  4

  6

 40
0.0
 41
0.0
 42
0.0
 43
0.0
 44
0.0
 45
0.0
 46
0.0
 47
0.0
 48
0.0
 49
0.0
140
0.0
141
0.0
142
1.0
143
1.0
 70
   688
 72
     0
 73
     0
 74
     5
  7

 75
    16
 76
     0
 77
     5
 78
   300
147
1.0
148
0.0
149
0.0
100
AcDbLayout
  1
Layout2
 70
     1
 71
     2
 10
0.0
 20
0.0
 11
0.0
 21
0.0
 12
0.0
 22
0.0
 32
0.0
 14
0.0
 24
0.0
 34
0.0
 15
0.0
 25
0.0
 35
0.0
146
0.0
 13
0.0
 23
0.0
 33
0.0
 16
1.0
 26
0.0
 36
0.0
 17
0.0
 27
1.0
 37
0.0
 76
     0
330
23
  0
LAYOUT
  5
22
102
{ACAD_REACTORS
330
1A
102
}
330
1A
100
AcDbPlotSettings
  1

  2
none_device
  4

  6

 40
0.0
 41
0.0
 42
0.0
 43
0.0
 44
0.0
 45
0.0
 46
0.0
 47
0.0
 48
0.0
 49
0.0
140
0.0
141
0.0
142
1.0
143
1.0
 70
  1712
 72
     0
 73
     0
 74
     0
  7

 75
     0
 76
     0
 77
     5
 78
   300
147
1.0
148
0.0
149
0.0
100
AcDbLayout
  1
Model
 70
     1
 71
     0
 10
-4455.0
 20
-3150.0
 11
4455.0
 21
3150.0
 12
0.0
 22
0.0
 32
0.0
 14
-4455.0
 24
-3150.0
 34
0.0
 15
4455.0
 25
3150.0
 35
0.0
146
0.0
 13
0.0
 23
0.0
 33
0.0
 16
1.0
 26
0.0
 36
0.0
 17
0.0
 27
1.0
 37
0.0
 76
     0
330
1F
331
29
  0
MATERIAL
  5
3D
102
{ACAD_REACTORS
330
3B
102
}
330
3B
100
AcDbMaterial
  1
ByBlock
 72
     1
 94
      127
  0
MATERIAL
  5
3C
102
{ACAD_REACTORS
330
3B
102
}
330
3B
100
AcDbMaterial
  1
ByLayer
 72
     1
 94
      127
  0
MATERIAL
  5
3E
102
{ACAD_REACTORS
330
3B
102
}
330
3B
100
AcDbMaterial
  1
Global
 72
     1
 94
      127
  0
MLINESTYLE
  5
18
102
{ACAD_REACTORS
330
17
102
}
330
17
100
AcDbMlineStyle
  2
Standard
 70
     0
  3

 62
   256
 51
90.0
 52
90.0
 71
     2
 49
0.5
 62
   256
  6
BYLAYER
 49
-0.5
 62
   256
  6
BYLAYER
  0
ACDBPLACEHOLDER
  5
F
102
{ACAD_REACTORS
330
E
102
}
330
E
  0
VISUALSTYLE
  5
2F
102
{ACAD_REACTORS
330
2A
102
}
330
2A
100
AcDbVisualStyle
  2
2dWireframe
 70
     4
177
     2
291
     0
 71
     0
176
     1
 72
     2
176
     1
 73
     0
176
     1
 90
        0
176
     1
 40
-0.6
176
     1
 41
-30.0
176
     1
 62
     5
 63
     7
421
 16777215
176
     1
 74
     1
176
     1
 91
        4
176
     1
 64
     7
176
     1
 65
   257
176
     1
 75
     1
176
     1
175
     1
176
     1
 42
1.0
176
     1
 92
        0
176
     1
 66
   257
176
     1
 43
1.0
176
     1
 76
     1
176
     1
 77
     6
176
     1
 78
     2
176
     1
 67
     7
176
     1
 79
     5
176
     1
170
     0
176
     1
171
     0
176
     1
290
     0
176
     1
 93
        1
176
     1
 44
0.0
176
     1
173
     0
176
     1
  0
VISUALSTYLE
  5
31
102
{ACAD_REACTORS
330
2A
102
}
330
2A
100
AcDbVisualStyle
  2
3D Hidden
 70
     6
177
     2
291
     0
 71
     1
176
     1
 72
     2
176
     1
 73
     2
176
     1
 90
        0
176
     1
 40
-0.6
176
     1
 41
-30.0
176
     1
 62
     5
 63
     7
421
 16777215
176
     1
 74
     2
176
     1
 91
        2
176
     1
 64
     7
176
     1
 65
   257
176
     1
 75
     2
176
     1
175
     1
176
     1
 42
40.0
176
     1
 92
        0
176
     1
 66
   257
176
     1
 43
1.0
176
     1
 76
     1
176
     1
 77
     6
176
     1
 78
     2
176
     1
 67
     7
176
     1
 79
     3
176
     1
170
     0
176
     1
171
     0
176
     1
290
     0
176
     1
 93
        1
176
     1
 44
0.0
176
     1
173
     0
176
     1
  0
VISUALSTYLE
  5
30
102
{ACAD_REACTORS
330
2A
102
}
330
2A
100
AcDbVisualStyle
  2
3dWireframe
 70
     5
177
     2
291
     0
 71
     0
176
     1
 72
     2
176
     1
 73
     0
176
     1
 90
        0
176
     1
 40
-0.6
176
     1
 41
-30.0
176
     1
 62
     5
 63
     7
421
 16777215
176
     1
 74
     1
176
     1
 91
        4
176
     1
 64
     7
176
     1
 65
   257
176
     1
 75
     1
176
     1
175
     1
176
     1
 42
1.0
176
     1
 92
        0
176
     1
 66
   257
176
     1
 43
1.0
176
     1
 76
     1
176
     1
 77
     6
176
     1
 78
     2
176
     1
 67
     7
176
     1
 79
     5
176
     1
170
     0
176
     1
171
     0
176
     1
290
     0
176
     1
 93
        1
176
     1
 44
0.0
176
     1
173
     0
176
     1
  0
VISUALSTYLE
  5
32
102
{ACAD_REACTORS
330
2A
102
}
330
2A
100
AcDbVisualStyle
  2
Basic
 70
     7
177
     2
291
     1
 71
     1
176
     1
 72
     0
176
     1
 73
     1
176
     1
 90
        0
176
     1
 40
-0.6
176
     1
 41
-30.0
176
     1
 62
     5
 63
     7
421
 16777215
176
     1
 74
     0
176
     1
 91
        4
176
     1
 64
     7
176
     1
 65
   257
176
     1
 75
     1
176
     1
175
     1
176
     1
 42
1.0
176
     1
 92
        8
176
     1
 66
     7
176
     1
 43
1.0
176
     1
 76
     1
176
     1
 77
     6
176
     1
 78
     2
176
     1
 67
     7
176
     1
 79
     5
176
     1
170
     0
176
     1
171
     0
176
     1
290
     0
176
     1
 93
        1
176
     1
 44
0.0
176
     1
173
     0
176
     1
  0
VISUALSTYLE
  5
36
102
{ACAD_REACTORS
330
2A
102
}
330
2A
100
AcDbVisualStyle
  2
Brighten
 70
    12
177
     2
291
     1
 71
     2
176
     1
 72
     2
176
     1
 73
     0
176
     1
 90
        0
176
     1
 40
-0.6
176
     1
 41
-30.0
176
     1
 62
     5
 63
     7
421
 16777215
176
     1
 74
     1
176
     1
 91
        4
176
     1
 64
     7
176
     1
 65
   257
176
     1
 75
     1
176
     1
175
     1
176
     1
 42
1.0
176
     1
 92
        8
176
     1
 66
     7
176
     1
 43
1.0
176
     1
 76
     1
176
     1
 77
     6
176
     1
 78
     2
176
     1
 67
     7
176
     1
 79
     5
176
     1
170
     0
176
     1
171
     0
176
     1
290
     0
176
     1
 93
        1
176
     1
 44
50.0
176
     1
173
     0
176
     1
  0
VISUALSTYLE
  5
3A
102
{ACAD_REACTORS
330
2A
102
}
330
2A
100
AcDbVisualStyle
  2
ColorChange
 70
    16
177
     2
291
     1
 71
     2
176
     1
 72
     2
176
     1
 73
     3
176
     1
 90
        0
176
     1
 40
-0.6
176
     1
 41
-30.0
176
     1
 62
     5
 63
     8
421
  8421504
176
     1
 74
     1
176
     1
 91
        4
176
     1
 64
     7
176
     1
 65
   257
176
     1
 75
     1
176
     1
175
     1
176
     1
 42
1.0
176
     1
 92
        8
176
     1
 66
     8
424
  8421504
176
     1
 43
1.0
176
     1
 76
     1
176
     1
 77
     6
176
     1
 78
     2
176
     1
 67
     7
176
     1
 79
     5
176
     1
170
     0
176
     1
171
     0
176
     1
290
     0
176
     1
 93
        1
176
     1
 44
0.0
176
     1
173
     0
176
     1
  0
VISUALSTYLE
  5
34
102
{ACAD_REACTORS
330
2A
102
}
330
2A
100
AcDbVisualStyle
  2
Conceptual
 70
     9
177
     2
291
     0
 71
     3
176
     1
 72
     2
176
     1
 73
     0
176
     1
 90
        0
176
     1
 40
-0.6
176
     1
 41
-30.0
176
     1
 62
     5
 63
     7
421
 16777215
176
     1
 74
     2
176
     1
 91
        2
176
     1
 64
     7
176
     1
 65
   257
176
     1
 75
     1
176
     1
175
     1
176
     1
 42
40.0
176
     1
 92
        8
176
     1
 66
     7
176
     1
 43
1.0
176
     1
 76
     1
176
     1
 77
     6
176
     1
 78
     2
176
     1
 67
     7
176
     1
 79
     3
176
     1
170
     0
176
     1
171
     0
176
     1
290
     0
176
     1
 93
        1
176
     1
 44
0.0
176
     1
173
     0
176
     1
  0
VISUALSTYLE
  5
35
102
{ACAD_REACTORS
330
2A
102
}
330
2A
100
AcDbVisualStyle
  2
Dim
 70
    11
177
     2
291
     1
 71
     2
176
     1
 72
     2
176
     1
 73
     0
176
     1
 90
        0
176
     1
 40
-0.6
176
     1
 41
-30.0
176
     1
 62
     5
 63
     7
421
 16777215
176
     1
 74
     1
176
     1
 91
        4
176
     1
 64
     7
176
     1
 65
   257
176
     1
 75
     1
176
     1
175
     1
176
     1
 42
1.0
176
     1
 92
        8
176
     1
 66
     7
176
     1
 43
1.0
176
     1
 76
     1
176
     1
 77
     6
176
     1
 78
     2
176
     1
 67
     7
176
     1
 79
     5
176
     1
170
     0
176
     1
171
     0
176
     1
290
     0
176
     1
 93
        1
176
     1
 44
-50.0
176
     1
173
     0
176
     1
  0
VISUALSTYLE
  5
39
102
{ACAD_REACTORS
330
2A
102
}
330
2A
100
AcDbVisualStyle
  2
Facepattern
 70
    15
177
     2
291
     1
 71
     2
176
     1
 72
     2
176
     1
 73
     0
176
     1
 90
        0
176
     1
 40
-0.6
176
     1
 41
-30.0
176
     1
 62
     5
 63
     7
421
 16777215
176
     1
 74
     1
176
     1
 91
        4
176
     1
 64
     7
176
     1
 65
   257
176
     1
 75
     1
176
     1
175
     1
176
     1
 42
1.0
176
     1
 92
        8
176
     1
 66
     7
176
     1
 43
1.0
176
     1
 76
     1
176
     1
 77
     6
176
     1
 78
     2
176
     1
 67
     7
176
     1
 79
     5
176
     1
170
     0
176
     1
171
     0
176
     1
290
     0
176
     1
 93
        1
176
     1
 44
0.0
176
     1
173
     0
176
     1
  0
VISUALSTYLE
  5
2B
102
{ACAD_REACTORS
330
2A
102
}
330
2A
100
AcDbVisualStyle
  2
Flat
 70
     0
177
     2
291
     1
 71
     2
176
     1
 72
     1
176
     1
 73
     1
176
     1
 90
        2
176
     1
 40
-0.6
176
     1
 41
30.0
176
     1
 62
     5
 63
     7
421
 16777215
176
     1
 74
     0
176
     1
 91
        4
176
     1
 64
     7
176
     1
 65
   257
176
     1
 75
     1
176
     1
175
     1
176
     1
 42
1.0
176
     1
 92
        8
176
     1
 66
     7
176
     1
 43
1.0
176
     1
 76
     1
176
     1
 77
     6
176
     1
 78
     2
176
     1
 67
     7
176
     1
 79
     5
176
     1
170
     0
176
     1
171
     0
176
     1
290
     0
176
     1
 93
       13
176
     1
 44
0.0
176
     1
173
     0
176
     1
  0
VISUALSTYLE
  5
2C
102
{ACAD_REACTORS
330
2A
102
}
330
2A
100
AcDbVisualStyle
  2
FlatWithEdges
 70
     1
177
     2
291
     1
 71
     2
176
     1
 72
     1
176
     1
 73
     1
176
     1
 90
        2
176
     1
 40
-0.6
176
     1
 41
30.0
176
     1
 62
     5
 63
     7
421
 16777215
176
     1
 74
     1
176
     1
 91
        4
176
     1
 64
     7
176
     1
 65
   257
176
     1
 75
     1
176
     1
175
     1
176
     1
 42
1.0
176
     1
 92
        0
176
     1
 66
   257
176
     1
 43
1.0
176
     1
 76
     1
176
     1
 77
     6
176
     1
 78
     2
176
     1
 67
     7
176
     1
 79
     5
176
     1
170
     0
176
     1
171
     0
176
     1
290
     0
176
     1
 93
       13
176
     1
 44
0.0
176
     1
173
     0
176
     1
  0
VISUALSTYLE
  5
2D
102
{ACAD_REACTORS
330
2A
102
}
330
2A
100
AcDbVisualStyle
  2
Gouraud
 70
     2
177
     2
291
     1
 71
     2
176
     1
 72
     2
176
     1
 73
     1
176
     1
 90
        2
176
     1
 40
-0.6
176
     1
 41
30.0
176
     1
 62
     5
 63
     7
421
 16777215
176
     1
 74
     0
176
     1
 91
        4
176
     1
 64
     7
176
     1
 65
   257
176
     1
 75
     1
176
     1
175
     1
176
     1
 42
1.0
176
     1
 92
        0
176
     1
 66
     7
176
     1
 43
1.0
176
     1
 76
     1
176
     1
 77
     6
176
     1
 78
     2
176
     1
 67
     7
176
     1
 79
     5
176
     1
170
     0
176
     1
171
     0
176
     1
290
     0
176
     1
 93
       13
176
     1
 44
0.0
176
     1
173
     0
176
     1
  0
VISUALSTYLE
  5
2E
102
{ACAD_REACTORS
330
2A
102
}
330
2A
100
AcDbVisualStyle
  2
GouraudWithEdges
 70
     3
177
     2
291
     1
 71
     2
176
     1
 72
     2
176
     1
 73
     1
176
     1
 90
        2
176
     1
 40
-0.6
176
     1
 41
30.0
176
     1
 62
     5
 63
     7
421
 16777215
176
     1
 74
     1
176
     1
 91
        4
176
     1
 64
     7
176
     1
 65
   257
176
     1
 75
     1
176
     1
175
     1
176
     1
 42
1.0
176
     1
 92
        0
176
     1
 66
   257
176
     1
 43
1.0
176
     1
 76
     1
176
     1
 77
     6
176
     1
 78
     2
176
     1
 67
     7
176
     1
 79
     5
176
     1
170
     0
176
     1
171
     0
176
     1
290
     0
176
     1
 93
       13
176
     1
 44
0.0
176
     1
173
     0
176
     1
  0
VISUALSTYLE
  5
38
102
{ACAD_REACTORS
330
2A
102
}
330
2A
100
AcDbVisualStyle
  2
Linepattern
 70
    14
177
     2
291
     1
 71
     2
176
     1
 72
     2
176
     1
 73
     0
176
     1
 90
        0
176
     1
 40
-0.6
176
     1
 41
-30.0
176
     1
 62
     5
 63
     7
421
 16777215
176
     1
 74
     1
176
     1
 91
        4
176
     1
 64
     7
176
     1
 65
   257
176
     1
 75
     7
176
     1
175
     7
176
     1
 42
1.0
176
     1
 92
        8
176
     1
 66
     7
176
     1
 43
1.0
176
     1
 76
     1
176
     1
 77
     6
176
     1
 78
     2
176
     1
 67
     7
176
     1
 79
     5
176
     1
170
     0
176
     1
171
     0
176
     1
290
     0
176
     1
 93
        1
176
     1
 44
0.0
176
     1
173
     0
176
     1
  0
VISUALSTYLE
  5
33
102
{ACAD_REACTORS
330
2A
102
}
330
2A
100
AcDbVisualStyle
  2
Realistic
 70
     8
177
     2
291
     0
 71
     2
176
     1
 72
     2
176
     1
 73
     0
176
     1
 90
        0
176
     1
 40
-0.6
176
     1
 41
-30.0
176
     1
 62
     5
 63
     7
421
 16777215
176
     1
 74
     1
176
     1
 91
        0
176
     1
 64
     7
176
     1
 65
   257
176
     1
 75
     1
176
     1
175
     1
176
     1
 42
1.0
176
     1
 92
        8
176
     1
 66
     8
424
  7895160
176
     1
 43
1.0
176
     1
 76
     1
176
     1
 77
     6
176
     1
 78
     2
176
     1
 67
     7
176
     1
 79
     5
176
     1
170
     0
176
     1
171
     0
176
     1
290
     0
176
     1
 93
       13
176
     1
 44
0.0
176
     1
173
     0
176
     1
  0
VISUALSTYLE
  5
37
102
{ACAD_REACTORS
330
2A
102
}
330
2A
100
AcDbVisualStyle
  2
Thicken
 70
    13
177
     2
291
     1
 71
     2
176
     1
 72
     2
176
     1
 73
     0
176
     1
 90
        0
176
     1
 40
-0.6
176
     1
 41
-30.0
176
     1
 62
     5
 63
     7
421
 16777215
176
     1
 74
     1
176
     1
 91
        4
176
     1
 64
     7
176
     1
 65
   257
176
     1
 75
     1
176
     1
175
     1
176
     1
 42
1.0
176
     1
 92
       12
176
     1
 66
     7
176
     1
 43
1.0
176
     1
 76
     1
176
     1
 77
     6
176
     1
 78
     2
176
     1
 67
     7
176
     1
 79
     5
176
     1
170
     0
176
     1
171
     0
176
     1
290
     0
176
     1
 93
        1
176
     1
 44
0.0
176
     1
173
     0
176
     1
  0
ENDSEC
  0
EOF
