  0
SECTION
  2
HEADER
  9
$ACADVER
  1
AC1024
  9
$ACADMAINTVER
 70
     6
  9
$DWGCODEPAGE
  3
ANSI_932
  9
$INSBASE
 10
0.0
 20
0.0
 30
0.0
  9
$EXTMIN
 10
-6300.0
 20
-4455.0
 30
0.0
  9
$EXTMAX
 10
6300.0
 20
4455.0
 30
0.0
  9
$LIMMIN
 10
-6300.0
 20
-4455.0
  9
$LIMMAX
 10
6300.0
 20
4455.0
  9
$ORTHOMODE
 70
     0
  9
$REGENMODE
 70
     1
  9
$FILLMODE
 70
     1
  9
$QTEXTMODE
 70
     0
  9
$MIRRTEXT
 70
     1
  9
$LTSCALE
 40
30.0
  9
$ATTMODE
 70
     1
  9
$TEXTSIZE
 40
2.5
  9
$TRACEWID
 40
1.0
  9
$TEXTSTYLE
  7
Standard
  9
$CLAYER
  8
0
  9
$CELTYPE
  6
ByLayer
  9
$CECOLOR
 62
   256
  9
$CELTSCALE
 40
1.0
  9
$DISPSILH
 70
     0
  9
$DIMSCALE
 40
1.0
  9
$DIMASZ
 40
2.5
  9
$DIMEXO
 40
0.625
  9
$DIMDLI
 40
3.75
  9
$DIMRND
 40
0.0
  9
$DIMDLE
 40
0.0
  9
$DIMEXE
 40
1.25
  9
$DIMTP
 40
0.0
  9
$DIMTM
 40
0.0
  9
$DIMTXT
 40
2.5
  9
$DIMCEN
 40
2.5
  9
$DIMTSZ
 40
0.0
  9
$DIMTOL
 70
     0
  9
$DIMLIM
 70
     0
  9
$DIMTIH
 70
     0
  9
$DIMTOH
 70
     0
  9
$DIMSE1
 70
     0
  9
$DIMSE2
 70
     0
  9
$DIMTAD
 70
     1
  9
$DIMZIN
 70
     8
  9
$DIMBLK
  1

  9
$DIMASO
 70
     1
  9
$DIMSHO
 70
     1
  9
$DIMPOST
  1

  9
$DIMAPOST
  1

  9
$DIMALT
 70
     0
  9
$DIMALTD
 70
     3
  9
$DIMALTF
 40
0.03937007874016
  9
$DIMLFAC
 40
1.0
  9
$DIMTOFL
 70
     1
  9
$DIMTVP
 40
0.0
  9
$DIMTIX
 70
     0
  9
$DIMSOXD
 70
     0
  9
$DIMSAH
 70
     0
  9
$DIMBLK1
  1

  9
$DIMBLK2
  1

  9
$DIMSTYLE
  2
ISO-25
  9
$DIMCLRD
 70
     0
  9
$DIMCLRE
 70
     0
  9
$DIMCLRT
 70
     0
  9
$DIMTFAC
 40
1.0
  9
$DIMGAP
 40
0.625
  9
$DIMJUST
 70
     0
  9
$DIMSD1
 70
     0
  9
$DIMSD2
 70
     0
  9
$DIMTOLJ
 70
     0
  9
$DIMTZIN
 70
     8
  9
$DIMALTZ
 70
     0
  9
$DIMALTTZ
 70
     0
  9
$DIMUPT
 70
     0
  9
$DIMDEC
 70
     2
  9
$DIMTDEC
 70
     2
  9
$DIMALTU
 70
     2
  9
$DIMALTTD
 70
     3
  9
$DIMTXSTY
  7
Standard
  9
$DIMAUNIT
 70
     0
  9
$DIMADEC
 70
     0
  9
$DIMALTRND
 40
0.0
  9
$DIMAZIN
 70
     0
  9
$DIMDSEP
 70
    44
  9
$DIMATFIT
 70
     3
  9
$DIMFRAC
 70
     0
  9
$DIMLDRBLK
  1

  9
$DIMLUNIT
 70
     2
  9
$DIMLWD
 70
    -2
  9
$DIMLWE
 70
    -2
  9
$DIMTMOVE
 70
     0
  9
$DIMFXL
 40
1.0
  9
$DIMFXLON
 70
     0
  9
$DIMJOGANG
 40
0.7853981633974483
  9
$DIMTFILL
 70
     0
  9
$DIMTFILLCLR
 70
     0
  9
$DIMARCSYM
 70
     0
  9
$DIMLTYPE
  6

  9
$DIMLTEX1
  6

  9
$DIMLTEX2
  6

  9
$DIMTXTDIRECTION
 70
     0
  9
$LUNITS
 70
     2
  9
$LUPREC
 70
     4
  9
$SKETCHINC
 40
1.0
  9
$FILLETRAD
 40
10.0
  9
$AUNITS
 70
     0
  9
$AUPREC
 70
     0
  9
$MENU
  1
.
  9
$ELEVATION
 40
0.0
  9
$PELEVATION
 40
0.0
  9
$THICKNESS
 40
0.0
  9
$LIMCHECK
 70
     0
  9
$CHAMFERA
 40
0.0
  9
$CHAMFERB
 40
0.0
  9
$CHAMFERC
 40
0.0
  9
$CHAMFERD
 40
0.0
  9
$SKPOLY
 70
     0
  9
$TDCREATE
 40
2458471.706585104
  9
$TDUCREATE
 40
2458471.331585104
  9
$TDUPDATE
 40
2458471.706585474
  9
$TDUUPDATE
 40
2458471.331585474
  9
$TDINDWG
 40
0.0000000116
  9
$TDUSRTIMER
 40
0.0000000116
  9
$USRTIMER
 70
     1
  9
$ANGBASE
 50
0.0
  9
$ANGDIR
 70
     0
  9
$PDMODE
 70
     0
  9
$PDSIZE
 40
0.0
  9
$PLINEWID
 40
0.0
  9
$SPLFRAME
 70
     0
  9
$SPLINETYPE
 70
     6
  9
$SPLINESEGS
 70
     8
  9
$HANDSEED
  5
40D
  9
$SURFTAB1
 70
     6
  9
$SURFTAB2
 70
     6
  9
$SURFTYPE
 70
     6
  9
$SURFU
 70
     6
  9
$SURFV
 70
     6
  9
$UCSBASE
  2

  9
$UCSNAME
  2

  9
$UCSORG
 10
0.0
 20
0.0
 30
0.0
  9
$UCSXDIR
 10
1.0
 20
0.0
 30
0.0
  9
$UCSYDIR
 10
0.0
 20
1.0
 30
0.0
  9
$UCSORTHOREF
  2

  9
$UCSORTHOVIEW
 70
     0
  9
$UCSORGTOP
 10
0.0
 20
0.0
 30
0.0
  9
$UCSORGBOTTOM
 10
0.0
 20
0.0
 30
0.0
  9
$UCSORGLEFT
 10
0.0
 20
0.0
 30
0.0
  9
$UCSORGRIGHT
 10
0.0
 20
0.0
 30
0.0
  9
$UCSORGFRONT
 10
0.0
 20
0.0
 30
0.0
  9
$UCSORGBACK
 10
0.0
 20
0.0
 30
0.0
  9
$PUCSBASE
  2

  9
$PUCSNAME
  2

  9
$PUCSORG
 10
0.0
 20
0.0
 30
0.0
  9
$PUCSXDIR
 10
1.0
 20
0.0
 30
0.0
  9
$PUCSYDIR
 10
0.0
 20
1.0
 30
0.0
  9
$PUCSORTHOREF
  2

  9
$PUCSORTHOVIEW
 70
     0
  9
$PUCSORGTOP
 10
0.0
 20
0.0
 30
0.0
  9
$PUCSORGBOTTOM
 10
0.0
 20
0.0
 30
0.0
  9
$PUCSORGLEFT
 10
0.0
 20
0.0
 30
0.0
  9
$PUCSORGRIGHT
 10
0.0
 20
0.0
 30
0.0
  9
$PUCSORGFRONT
 10
0.0
 20
0.0
 30
0.0
  9
$PUCSORGBACK
 10
0.0
 20
0.0
 30
0.0
  9
$USERI1
 70
     0
  9
$USERI2
 70
     0
  9
$USERI3
 70
     0
  9
$USERI4
 70
     0
  9
$USERI5
 70
     0
  9
$USERR1
 40
0.0
  9
$USERR2
 40
0.0
  9
$USERR3
 40
0.0
  9
$USERR4
 40
0.0
  9
$USERR5
 40
0.0
  9
$WORLDVIEW
 70
     1
  9
$SHADEDGE
 70
     3
  9
$SHADEDIF
 70
    70
  9
$TILEMODE
 70
     1
  9
$MAXACTVP
 70
    64
  9
$PINSBASE
 10
0.0
 20
0.0
 30
0.0
  9
$PLIMCHECK
 70
     0
  9
$PEXTMIN
 10
1.000000000000000E+20
 20
1.000000000000000E+20
 30
1.000000000000000E+20
  9
$PEXTMAX
 10
-1.000000000000000E+20
 20
-1.000000000000000E+20
 30
-1.000000000000000E+20
  9
$PLIMMIN
 10
0.0
 20
0.0
  9
$PLIMMAX
 10
420.0
 20
297.0
  9
$UNITMODE
 70
     0
  9
$VISRETAIN
 70
     1
  9
$PLINEGEN
 70
     0
  9
$PSLTSCALE
 70
     1
  9
$TREEDEPTH
 70
  3020
  9
$CMLSTYLE
  2
Standard
  9
$CMLJUST
 70
     0
  9
$CMLSCALE
 40
20.0
  9
$PROXYGRAPHICS
 70
     1
  9
$MEASUREMENT
 70
     1
  9
$CELWEIGHT
370
    -1
  9
$ENDCAPS
280
     0
  9
$JOINSTYLE
280
     0
  9
$LWDISPLAY
290
     0
  9
$INSUNITS
 70
     4
  9
$HYPERLINKBASE
  1

  9
$STYLESHEET
  1

  9
$XEDIT
290
     1
  9
$CEPSNTYPE
380
     0
  9
$PSTYLEMODE
290
     1
  9
$FINGERPRINTGUID
  2
{D0E1E6B9-4DBC-4C21-9165-FD3556290D58}
  9
$VERSIONGUID
  2
{FAEB1C32-E019-11D5-929B-00C0DF256EC4}
  9
$EXTNAMES
290
     1
  9
$PSVPSCALE
 40
0.0
  9
$OLESTARTUP
290
     0
  9
$SORTENTS
280
   127
  9
$INDEXCTL
280
     0
  9
$HIDETEXT
280
     1
  9
$XCLIPFRAME
280
     2
  9
$HALOGAP
280
     0
  9
$OBSCOLOR
 70
   257
  9
$OBSLTYPE
280
     0
  9
$INTERSECTIONDISPLAY
280
     0
  9
$INTERSECTIONCOLOR
 70
   257
  9
$DIMASSOC
280
     2
  9
$PROJECTNAME
  1

  9
$CAMERADISPLAY
290
     0
  9
$LENSLENGTH
 40
50.0
  9
$CAMERAHEIGHT
 40
0.0
  9
$STEPSPERSEC
 40
2.0
  9
$STEPSIZE
 40
6.0
  9
$3DDWFPREC
 40
2.0
  9
$PSOLWIDTH
 40
5.0
  9
$PSOLHEIGHT
 40
80.0
  9
$LOFTANG1
 40
1.570796326794897
  9
$LOFTANG2
 40
1.570796326794897
  9
$LOFTMAG1
 40
0.0
  9
$LOFTMAG2
 40
0.0
  9
$LOFTPARAM
 70
     7
  9
$LOFTNORMALS
280
     1
  9
$LATITUDE
 40
37.795
  9
$LONGITUDE
 40
-122.394
  9
$NORTHDIRECTION
 40
0.0
  9
$TIMEZONE
 70
 -8000
  9
$LIGHTGLYPHDISPLAY
280
     1
  9
$TILEMODELIGHTSYNCH
280
     1
  9
$CMATERIAL
347
44
  9
$SOLIDHIST
280
     0
  9
$SHOWHIST
280
     1
  9
$DWFFRAME
280
     2
  9
$DGNFRAME
280
     2
  9
$REALWORLDSCALE
290
     1
  9
$INTERFERECOLOR
 62
   256
  9
$CSHADOW
280
     0
  9
$SHADOWPLANELOCATION
 40
0.0
  0
ENDSEC
  0
SECTION
  2
CLASSES
  0
CLASS
  1
ACDBDICTIONARYWDFLT
  2
AcDbDictionaryWithDefault
  3
ObjectDBX Classes
 90
        0
 91
        4
280
     0
281
     0
  0
CLASS
  1
VISUALSTYLE
  2
AcDbVisualStyle
  3
ObjectDBX Classes
 90
     4095
 91
        4
280
     0
281
     0
  0
CLASS
  1
MATERIAL
  2
AcDbMaterial
  3
ObjectDBX Classes
 90
     1153
 91
        4
280
     0
281
     0
  0
CLASS
  1
SCALE
  2
AcDbScale
  3
ObjectDBX Classes
 90
     1153
 91
        4
280
     0
281
     0
  0
CLASS
  1
TABLESTYLE
  2
AcDbTableStyle
  3
ObjectDBX Classes
 90
     4095
 91
        4
280
     0
281
     0
  0
CLASS
  1
MLEADERSTYLE
  2
AcDbMLeaderStyle
  3
ACDB_MLEADERSTYLE_CLASS
 90
     4095
 91
        4
280
     0
281
     0
  0
CLASS
  1
SUN
  2
AcDbSun
  3
SCENEOE
 90
     1153
 91
        4
280
     0
281
     0
  0
CLASS
  1
DICTIONARYVAR
  2
AcDbDictionaryVar
  3
ObjectDBX Classes
 90
        0
 91
        4
280
     0
281
     0
  0
CLASS
  1
CELLSTYLEMAP
  2
AcDbCellStyleMap
  3
ObjectDBX Classes
 90
     1152
 91
        4
280
     0
281
     0
  0
ENDSEC
  0
SECTION
  2
TABLES
  0
TABLE
  2
VPORT
  5
8
330
0
100
AcDbSymbolTable
 70
     1
  0
VPORT
  5
29
330
8
100
AcDbSymbolTableRecord
100
AcDbViewportTableRecord
  2
*Active
 70
     0
 10
0.0
 20
0.0
 11
1.0
 21
1.0
 12
0.0
 22
0.0
 13
0.0
 23
0.0
 14
10.0
 24
10.0
 15
10.0
 25
10.0
 16
0.0
 26
0.0
 36
1.0
 17
0.0
 27
0.0
 37
0.0
 40
9801.0
 41
1.414141414141414
 42
50.0
 43
0.0
 44
0.0
 50
0.0
 51
0.0
 71
     0
 72
 10000
 73
     1
 74
     3
 75
     0
 76
     0
 77
     0
 78
     0
281
     0
 65
     1
110
0.0
120
0.0
130
0.0
111
1.0
121
0.0
131
0.0
112
0.0
122
1.0
132
0.0
 79
     0
146
0.0
348
2F
 60
     3
 61
     5
292
     1
282
     1
141
0.0
142
0.0
 63
   250
361
6D
  0
ENDTAB
  0
TABLE
  2
LTYPE
  5
5
330
0
100
AcDbSymbolTable
 70
     5
  0
LTYPE
  5
14
330
5
100
AcDbSymbolTableRecord
100
AcDbLinetypeTableRecord
  2
ByBlock
 70
     0
  3

 72
    65
 73
     0
 40
0.0
  0
LTYPE
  5
15
330
5
100
AcDbSymbolTableRecord
100
AcDbLinetypeTableRecord
  2
ByLayer
 70
     0
  3

 72
    65
 73
     0
 40
0.0
  0
LTYPE
  5
16
330
5
100
AcDbSymbolTableRecord
100
AcDbLinetypeTableRecord
  2
Continuous
 70
     0
  3
Solid line
 72
    65
 73
     0
 40
0.0
  0
LTYPE
  5
70
330
5
100
AcDbSymbolTableRecord
100
AcDbLinetypeTableRecord
  2
JWW_HOJO
 70
     0
  3
  -   -   -   -   -   -   -   - 
 72
    65
 73
     2
 40
1.693333333333333
 49
-1.27
 74
     0
 49
0.4233333333333333
 74
     0
  0
LTYPE
  5
71
330
5
100
AcDbSymbolTableRecord
100
AcDbLinetypeTableRecord
  2
JWW_CENTER1
 70
     0
  3
-----  --  ----------  --  -----
 72
    65
 73
     4
 40
6.773333333333333
 49
4.233333333333333
 74
     0
 49
-0.8466666666666667
 74
     0
 49
0.8466666666666667
 74
     0
 49
-0.8466666666666667
 74
     0
  0
LTYPE
  5
72
330
5
100
AcDbSymbolTableRecord
100
AcDbLinetypeTableRecord
  2
JWW_DASHED2
 70
     0
  3
--    ----    ----    ----    --
 72
    65
 73
     2
 40
3.386666666666667
 49
1.693333333333333
 74
     0
 49
-1.693333333333333
 74
     0
  0
LTYPE
  5
73
330
5
100
AcDbSymbolTableRecord
100
AcDbLinetypeTableRecord
  2
JWW_DASHED1
 70
     0
  3
-  --  --  --  --  --  --  --  -
 72
    65
 73
     2
 40
1.693333333333333
 49
0.8466666666666667
 74
     0
 49
-0.8466666666666667
 74
     0
  0
ENDTAB
  0
TABLE
  2
LAYER
  5
2
330
0
100
AcDbSymbolTable
 70
    17
  0
LAYER
  5
10
330
2
100
AcDbSymbolTableRecord
100
AcDbLayerTableRecord
  2
0
 70
     0
 62
     7
  6
Continuous
370
    -3
390
F
347
46
  0
LAYER
  5
74
330
2
100
AcDbSymbolTableRecord
100
AcDbLayerTableRecord
  2
F-0_補助線
 70
     0
 62
     7
  6
Continuous
370
    -3
390
F
347
46
  0
LAYER
  5
75
330
2
100
AcDbSymbolTableRecord
100
AcDbLayerTableRecord
  2
F-1_枠
 70
     0
 62
     7
  6
Continuous
370
    -3
390
F
347
46
  0
LAYER
  5
76
330
2
100
AcDbSymbolTableRecord
100
AcDbLayerTableRecord
  2
0-A_文字
 70
     0
 62
     7
  6
Continuous
370
    -3
390
F
347
46
  0
LAYER
  5
77
330
2
100
AcDbSymbolTableRecord
100
AcDbLayerTableRecord
  2
F-A_文字
 70
     0
 62
     7
  6
Continuous
370
    -3
390
F
347
46
  0
LAYER
  5
78
330
2
100
AcDbSymbolTableRecord
100
AcDbLayerTableRecord
  2
0-6_扉
 70
     0
 62
     7
  6
Continuous
370
    -3
390
F
347
46
  0
LAYER
  5
79
330
2
100
AcDbSymbolTableRecord
100
AcDbLayerTableRecord
  2
0-C_ハッチ
 70
     0
 62
     7
  6
Continuous
370
    -3
390
F
347
46
  0
LAYER
  5
7A
330
2
100
AcDbSymbolTableRecord
100
AcDbLayerTableRecord
  2
0-4_枠
 70
     0
 62
     7
  6
Continuous
370
    -3
390
F
347
46
  0
LAYER
  5
7B
330
2
100
AcDbSymbolTableRecord
100
AcDbLayerTableRecord
  2
0-1_通り芯
 70
     0
 62
     7
  6
Continuous
370
    -3
390
F
347
46
  0
LAYER
  5
7C
330
2
100
AcDbSymbolTableRecord
100
AcDbLayerTableRecord
  2
0-3_仕上げ
 70
     0
 62
     7
  6
Continuous
370
    -3
390
F
347
46
  0
LAYER
  5
7D
330
2
100
AcDbSymbolTableRecord
100
AcDbLayerTableRecord
  2
0-7_金物
 70
     0
 62
     7
  6
Continuous
370
    -3
390
F
347
46
  0
LAYER
  5
7E
330
2
100
AcDbSymbolTableRecord
100
AcDbLayerTableRecord
  2
0-8_戸当
 70
     0
 62
     7
  6
Continuous
370
    -3
390
F
347
46
  0
LAYER
  5
7F
330
2
100
AcDbSymbolTableRecord
100
AcDbLayerTableRecord
  2
0-B_寸法
 70
     0
 62
     7
  6
Continuous
370
    -3
390
F
347
46
  0
LAYER
  5
80
330
2
100
AcDbSymbolTableRecord
100
AcDbLayerTableRecord
  2
0-0_補助線
 70
     0
 62
     7
  6
Continuous
370
    -3
390
F
347
46
  0
LAYER
  5
81
330
2
100
AcDbSymbolTableRecord
100
AcDbLayerTableRecord
  2
7-7_金物
 70
     0
 62
     7
  6
Continuous
370
    -3
390
F
347
46
  0
LAYER
  5
82
330
2
100
AcDbSymbolTableRecord
100
AcDbLayerTableRecord
  2
7-B_寸法
 70
     0
 62
     7
  6
Continuous
370
    -3
390
F
347
46
  0
LAYER
  5
83
330
2
100
AcDbSymbolTableRecord
100
AcDbLayerTableRecord
  2
7-1_通り芯
 70
     0
 62
     7
  6
Continuous
370
    -3
390
F
347
46
  0
ENDTAB
  0
TABLE
  2
STYLE
  5
3
330
0
100
AcDbSymbolTable
 70
     3
  0
STYLE
  5
11
330
3
100
AcDbSymbolTableRecord
100
AcDbTextStyleTableRecord
  2
Standard
 70
     0
 40
0.0
 41
1.0
 50
0.0
 71
     0
 42
2.5
  3
txt
  4

  0
STYLE
  5
6E
330
3
100
AcDbSymbolTableRecord
100
AcDbTextStyleTableRecord
  2
HGP明朝B
 70
     0
 40
1.0
 41
1.0
 50
0.0
 71
     0
 42
2.5
  3

  4

1001
ACAD
1000
HGPMinchoB
1071
    32786
  0
STYLE
  5
6F
330
3
100
AcDbSymbolTableRecord
100
AcDbTextStyleTableRecord
  2
ＭＳ ゴシック
 70
     0
 40
1.0
 41
1.0
 50
0.0
 71
     0
 42
2.5
  3

  4

1001
ACAD
1000
MS Gothic
1071
    32817
  0
ENDTAB
  0
TABLE
  2
VIEW
  5
6
330
0
100
AcDbSymbolTable
 70
     0
  0
ENDTAB
  0
TABLE
  2
UCS
  5
7
330
0
100
AcDbSymbolTable
 70
     0
  0
ENDTAB
  0
TABLE
  2
APPID
  5
9
330
0
100
AcDbSymbolTable
 70
     1
  0
APPID
  5
12
330
9
100
AcDbSymbolTableRecord
100
AcDbRegAppTableRecord
  2
ACAD
 70
     0
  0
ENDTAB
  0
TABLE
  2
DIMSTYLE
  5
A
330
0
100
AcDbSymbolTable
 70
     1
100
AcDbDimStyleTable
  0
DIMSTYLE
105
27
330
A
100
AcDbSymbolTableRecord
100
AcDbDimStyleTableRecord
  2
ISO-25
 70
     0
 41
2.5
 42
0.625
 43
3.75
 44
1.25
 73
     0
 74
     0
 77
     1
 78
     8
140
2.5
141
2.5
143
0.03937007874016
147
0.625
171
     3
172
     1
178
     0
271
     2
272
     2
274
     3
278
    44
283
     0
284
     8
340
11
  0
ENDTAB
  0
TABLE
  2
BLOCK_RECORD
  5
1
330
0
100
AcDbSymbolTable
 70
     1
  0
BLOCK_RECORD
  5
1F
330
1
100
AcDbSymbolTableRecord
100
AcDbBlockTableRecord
  2
*Model_Space
340
22
 70
     0
280
     1
281
     0
  0
BLOCK_RECORD
  5
1B
330
1
100
AcDbSymbolTableRecord
100
AcDbBlockTableRecord
  2
*Paper_Space
340
1E
 70
     0
280
     1
281
     0
  0
BLOCK_RECORD
  5
23
330
1
100
AcDbSymbolTableRecord
100
AcDbBlockTableRecord
  2
*Paper_Space0
340
26
 70
     0
280
     1
281
     0
  0
ENDTAB
  0
ENDSEC
  0
SECTION
  2
BLOCKS
  0
BLOCK
  5
20
330
1F
100
AcDbEntity
  8
0
100
AcDbBlockBegin
  2
*Model_Space
 70
     0
 10
0.0
 20
0.0
 30
0.0
  3
*Model_Space
  1

  0
ENDBLK
  5
21
330
1F
100
AcDbEntity
  8
0
100
AcDbBlockEnd
  0
BLOCK
  5
1C
330
1B
100
AcDbEntity
 67
     1
  8
0
100
AcDbBlockBegin
  2
*Paper_Space
 70
     0
 10
0.0
 20
0.0
 30
0.0
  3
*Paper_Space
  1

  0
ENDBLK
  5
1D
330
1B
100
AcDbEntity
 67
     1
  8
0
100
AcDbBlockEnd
  0
BLOCK
  5
24
330
23
100
AcDbEntity
  8
0
100
AcDbBlockBegin
  2
*Paper_Space0
 70
     0
 10
0.0
 20
0.0
 30
0.0
  3
*Paper_Space0
  1

  0
ENDBLK
  5
25
330
23
100
AcDbEntity
  8
0
100
AcDbBlockEnd
  0
ENDSEC
  0
SECTION
  2
ENTITIES
  0
LINE
  5
84
330
1F
100
AcDbEntity
  8
F-0_補助線
  6
JWW_HOJO
 62
   120
370
     5
100
AcDbLine
 10
-6140.081333436773
 20
-4455.0
 30
0.0
 11
-6140.081333436773
 21
4424.999604096284
 31
0.0
  0
LINE
  5
85
330
1F
100
AcDbEntity
  8
F-0_補助線
  6
JWW_HOJO
 62
   120
370
     5
100
AcDbLine
 10
-6140.081333436773
 20
4424.999604096284
 30
0.0
 11
6159.917676803936
 21
4424.999604096284
 31
0.0
  0
LINE
  5
86
330
1F
100
AcDbEntity
  8
F-0_補助線
  6
JWW_HOJO
 62
   120
370
     5
100
AcDbLine
 10
6159.917676803936
 20
4424.999604096284
 30
0.0
 11
6159.917676803936
 21
-4455.0
 31
0.0
  0
LINE
  5
87
330
1F
100
AcDbEntity
  8
F-0_補助線
  6
JWW_HOJO
 62
   120
370
     5
100
AcDbLine
 10
6159.917676803936
 20
-4455.0
 30
0.0
 11
-6140.081333436773
 21
-4455.0
 31
0.0
  0
LINE
  5
88
330
1F
100
AcDbEntity
  8
F-0_補助線
  6
JWW_HOJO
 62
     7
370
     9
100
AcDbLine
 10
1009.918254163523
 20
-3795.000003092998
 30
0.0
 11
1009.918254163523
 21
-4195.000008247994
 31
0.0
  0
LINE
  5
89
330
1F
100
AcDbEntity
  8
F-0_補助線
  6
JWW_HOJO
 62
     7
370
     9
100
AcDbLine
 10
509.9185840832865
 20
-3795.000003092998
 30
0.0
 11
509.9185840832865
 21
-4195.000008247994
 31
0.0
  0
LINE
  5
8A
330
1F
100
AcDbEntity
  8
F-1_枠
  6
Continuous
 62
   200
370
    20
100
AcDbLine
 10
5859.917429364114
 20
4174.999769056166
 30
0.0
 11
5859.917429364114
 21
-4205.000164959882
 31
0.0
  0
LINE
  5
8B
330
1F
100
AcDbEntity
  8
F-1_枠
  6
Continuous
 62
   200
370
    20
100
AcDbLine
 10
-5840.081317971782
 20
4174.999769056166
 30
0.0
 11
-5840.081317971782
 21
-4205.000164959882
 31
0.0
  0
LINE
  5
8C
330
1F
100
AcDbEntity
  8
F-1_枠
  6
Continuous
 62
   200
370
    20
100
AcDbLine
 10
5859.917429364114
 20
-4205.000002577498
 30
0.0
 11
-5840.081085996952
 21
-4205.000002577498
 31
0.0
  0
LINE
  5
8D
330
1F
100
AcDbEntity
  8
F-1_枠
  6
Continuous
 62
   200
370
    20
100
AcDbLine
 10
-5830.081323642279
 20
4174.999769056166
 30
0.0
 11
-5830.081323642279
 21
-4205.000164959882
 31
0.0
  0
LINE
  5
8E
330
1F
100
AcDbEntity
  8
F-1_枠
  6
Continuous
 62
   200
370
    20
100
AcDbLine
 10
-5835.081309208291
 20
4174.999769056166
 30
0.0
 11
-5835.081309208291
 21
-4205.000164959882
 31
0.0
  0
LINE
  5
8F
330
1F
100
AcDbEntity
  8
F-1_枠
  6
Continuous
 62
   200
370
    20
100
AcDbLine
 10
5854.917165428304
 20
4174.999769056166
 30
0.0
 11
5854.917165428304
 21
-4205.000164959882
 31
0.0
  0
LINE
  5
90
330
1F
100
AcDbEntity
  8
F-1_枠
  6
Continuous
 62
   200
370
    20
100
AcDbLine
 10
5849.917643811961
 20
4174.999769056166
 30
0.0
 11
5849.917643811961
 21
-4205.000164959882
 31
0.0
  0
LINE
  5
91
330
1F
100
AcDbEntity
  8
F-1_枠
  6
Continuous
 62
   200
370
    20
100
AcDbLine
 10
5859.917429364114
 20
-4199.999993814004
 30
0.0
 11
-5840.081085996952
 21
-4199.999993814004
 31
0.0
  0
LINE
  5
92
330
1F
100
AcDbEntity
  8
F-1_枠
  6
Continuous
 62
   200
370
    20
100
AcDbLine
 10
5859.917429364114
 20
-4195.000008247994
 30
0.0
 11
-5840.081085996952
 21
-4195.000008247994
 31
0.0
  0
LINE
  5
93
330
1F
100
AcDbEntity
  8
F-1_枠
  6
Continuous
 62
   200
370
    20
100
AcDbLine
 10
4349.917891251784
 20
-3795.000003092998
 30
0.0
 11
4349.917891251784
 21
-4195.000008247994
 31
0.0
  0
LINE
  5
94
330
1F
100
AcDbEntity
  8
F-1_枠
  6
Continuous
 62
   200
370
    20
100
AcDbLine
 10
2849.917396372139
 20
-3795.000003092998
 30
0.0
 11
2849.917396372139
 21
-4195.000008247994
 31
0.0
  0
LINE
  5
95
330
1F
100
AcDbEntity
  8
F-1_枠
  6
Continuous
 62
   200
370
    20
100
AcDbLine
 10
9.918542843316231
 20
-3795.000003092998
 30
0.0
 11
9.918542843316231
 21
-4195.000008247994
 31
0.0
  0
LINE
  5
96
330
1F
100
AcDbEntity
  8
F-1_枠
  6
Continuous
 62
   200
370
    20
100
AcDbLine
 10
9.918542843316231
 20
-3994.999936078046
 30
0.0
 11
5849.917643811961
 21
-3995.005364289155
 31
0.0
  0
LINE
  5
97
330
1F
100
AcDbEntity
  8
F-1_枠
  6
Continuous
 62
   200
370
    20
100
AcDbLine
 10
-5840.081085996952
 20
4174.999769056166
 30
0.0
 11
5859.917429364114
 21
4174.999769056166
 31
0.0
  0
LINE
  5
98
330
1F
100
AcDbEntity
  8
F-1_枠
  6
Continuous
 62
   200
370
    20
100
AcDbLine
 10
-5840.081085996952
 20
4164.999983504013
 30
0.0
 11
5859.917429364114
 21
4164.999983504013
 31
0.0
  0
LINE
  5
99
330
1F
100
AcDbEntity
  8
F-1_枠
  6
Continuous
 62
   200
370
    20
100
AcDbLine
 10
-5840.081085996952
 20
4169.999505120355
 30
0.0
 11
5859.917429364114
 21
4169.999505120355
 31
0.0
  0
LINE
  5
9A
330
1F
100
AcDbEntity
  8
F-0_補助線
  6
JWW_HOJO
 62
     7
370
     9
100
AcDbLine
 10
-5830.081323642279
 20
-3994.99993607839
 30
0.0
 11
9.918542843316231
 21
-3994.99993607839
 31
0.0
  0
LINE
  5
9B
330
1F
100
AcDbEntity
  8
F-0_補助線
  6
JWW_HOJO
 62
     7
370
     9
100
AcDbLine
 10
-5830.081323642279
 20
-3904.99993607839
 30
0.0
 11
9.918542843316231
 21
-3904.99993607839
 31
0.0
  0
LINE
  5
9C
330
1F
100
AcDbEntity
  8
F-0_補助線
  6
JWW_HOJO
 62
     7
370
     9
100
AcDbLine
 10
-5830.081323642279
 20
-4084.99993607839
 30
0.0
 11
9.918542843316231
 21
-4084.99993607839
 31
0.0
  0
LINE
  5
9D
330
1F
100
AcDbEntity
  8
F-0_補助線
  6
JWW_HOJO
 62
     7
370
     9
100
AcDbLine
 10
9.918408067688347
 20
-4139.999739777983
 30
0.0
 11
5849.917509036332
 21
-4140.005167989091
 31
0.0
  0
LINE
  5
9E
330
1F
100
AcDbEntity
  8
F-0_補助線
  6
JWW_HOJO
 62
     7
370
     9
100
AcDbLine
 10
9.918491721639953
 20
-4049.999739778022
 30
0.0
 11
5849.917592690284
 21
-4050.005167989131
 31
0.0
  0
LINE
  5
9F
330
1F
100
AcDbEntity
  8
F-0_補助線
  6
JWW_HOJO
 62
     7
370
     9
100
AcDbLine
 10
9.918593965360003
 20
-3939.99973721807
 30
0.0
 11
5849.917694934004
 21
-3940.005165429179
 31
0.0
  0
LINE
  5
A0
330
1F
100
AcDbEntity
  8
F-0_補助線
  6
JWW_HOJO
 62
     7
370
     9
100
AcDbLine
 10
9.918677619311609
 20
-3849.999737218109
 30
0.0
 11
5849.917778587956
 21
-3850.005165429218
 31
0.0
  0
LINE
  5
A1
330
1F
100
AcDbEntity
  8
F-0_補助線
  6
JWW_HOJO
 62
     7
370
     9
100
AcDbLine
 10
2939.917396372139
 20
-3795.000003092998
 30
0.0
 11
2939.917396372139
 21
-4195.000008247994
 31
0.0
  0
LINE
  5
A2
330
1F
100
AcDbEntity
  8
F-0_補助線
  6
JWW_HOJO
 62
     7
370
     9
100
AcDbLine
 10
99.91854284331623
 20
-3795.000003092998
 30
0.0
 11
99.91854284331623
 21
-4195.000008247994
 31
0.0
  0
LINE
  5
A3
330
1F
100
AcDbEntity
  8
F-0_補助線
  6
JWW_HOJO
 62
     7
370
     9
100
AcDbLine
 10
4439.917891251784
 20
-3795.000003092998
 30
0.0
 11
4439.917891251784
 21
-4195.000008247994
 31
0.0
  0
LINE
  5
A4
330
1F
100
AcDbEntity
  8
F-1_枠
  6
Continuous
 62
   200
370
    20
100
AcDbLine
 10
5859.917429364114
 20
-3795.000003092998
 30
0.0
 11
-5840.081085996952
 21
-3795.000003092998
 31
0.0
  0
LINE
  5
A5
330
1F
100
AcDbEntity
  8
F-1_枠
  6
Continuous
 62
   200
370
    20
100
AcDbLine
 10
5859.917429364114
 20
-3790.000017526987
 30
0.0
 11
-5840.081085996952
 21
-3790.000017526987
 31
0.0
  0
LINE
  5
A6
330
1F
100
AcDbEntity
  8
F-0_補助線
  6
JWW_HOJO
 62
     7
370
     9
100
AcDbLine
 10
-5087.628710189611
 20
-3795.000003092999
 30
0.0
 11
-5087.628710189611
 21
-4205.000164959882
 31
0.0
  0
LINE
  5
A7
330
1F
100
AcDbEntity
  8
F-0_補助線
  6
JWW_HOJO
 62
     7
370
     9
100
AcDbLine
 10
-50.08145715668377
 20
-3795.000003092998
 30
0.0
 11
-50.08145715668377
 21
-4195.000008247994
 31
0.0
  0
LINE
  5
A8
330
1F
100
AcDbEntity
  8
0-A_文字
  6
Continuous
 62
    92
370
    13
100
AcDbLine
 10
-5659.999495325861
 20
4000.000181456216
 30
0.0
 11
-5659.999495325861
 21
3730.000181456216
 31
0.0
  0
TEXT
  5
A9
330
1F
100
AcDbEntity
  8
F-0_補助線
  6
Continuous
 62
     7
370
     0
100
AcDbText
 10
509.9185840832865
 20
-3928.097291872503
 30
0.0
 40
66.06
  1
ＳＯＦＴＡＲＴ
 41
1.077453515576899
  7
HGP明朝B
100
AcDbText
  0
TEXT
  5
AA
330
1F
100
AcDbEntity
  8
F-0_補助線
  6
Continuous
 62
     7
370
     0
100
AcDbText
 10
1110.209427605311
 20
-3928.097291872503
 30
0.0
 40
68.58
  1
建具納まり図
 41
1.138888888888889
  7
ＭＳ ゴシック
100
AcDbText
  0
TEXT
  5
AB
330
1F
100
AcDbEntity
  8
F-A_文字
  6
Continuous
 62
     7
370
     0
100
AcDbText
 10
99.91854284331623
 20
-3871.539820871936
 30
0.0
 40
45.72
  1
図面名
  7
ＭＳ ゴシック
100
AcDbText
  0
TEXT
  5
AC
330
1F
100
AcDbEntity
  8
F-A_文字
  6
Continuous
 62
     7
370
     0
100
AcDbText
 10
2939.917396372139
 20
-3871.542460617774
 30
0.0
 40
45.72
  1
ＳＣＡＬＥ
  7
ＭＳ ゴシック
100
AcDbText
  0
TEXT
  5
AD
330
1F
100
AcDbEntity
  8
F-A_文字
  6
Continuous
 62
     7
370
     0
100
AcDbText
 10
4439.917891251784
 20
-3871.543854850754
 30
0.0
 40
45.72
  1
ＤＡＴＥ
  7
ＭＳ ゴシック
100
AcDbText
  0
TEXT
  5
AE
330
1F
100
AcDbEntity
  8
F-A_文字
  6
Continuous
 62
     7
370
     0
100
AcDbText
 10
2939.917396372139
 20
-4071.54246317786
 30
0.0
 40
45.72
  1
ＦＩＬＥ
  7
ＭＳ ゴシック
100
AcDbText
  0
TEXT
  5
AF
330
1F
100
AcDbEntity
  8
F-A_文字
  6
Continuous
 62
     7
370
     0
100
AcDbText
 10
4439.917891251784
 20
-4071.543857410839
 30
0.0
 40
45.72
  1
ＮＯ．
  7
ＭＳ ゴシック
100
AcDbText
  0
TEXT
  5
B0
330
1F
100
AcDbEntity
  8
F-A_文字
  6
Continuous
 62
     7
370
     0
100
AcDbText
 10
1394.917396372138
 20
-4080.540669266148
 30
0.0
 40
45.72
  1
株式
  7
ＭＳ ゴシック
100
AcDbText
  0
TEXT
  5
B1
330
1F
100
AcDbEntity
  8
F-A_文字
  6
Continuous
 62
     7
370
     0
100
AcDbText
 10
1604.917396372138
 20
-4138.082379523928
 30
0.0
 40
91.44
  1
ウッドワン・・・
 41
1.109375
  7
ＭＳ ゴシック
100
AcDbText
  0
TEXT
  5
B2
330
1F
100
AcDbEntity
  8
F-A_文字
  6
Continuous
 62
     7
370
     0
100
AcDbText
 10
1394.917396372138
 20
-4152.540669266186
 30
0.0
 40
45.72
  1
会社
  7
ＭＳ ゴシック
100
AcDbText
  0
TEXT
  5
B3
330
1F
100
AcDbEntity
  8
F-A_文字
  6
Continuous
 62
     7
370
     0
100
AcDbText
 10
5768.321977672939
 20
-4291.441419020919
 30
0.0
 40
68.58
  1
）
  7
ＭＳ ゴシック
100
AcDbText
  0
TEXT
  5
B4
330
1F
100
AcDbEntity
  8
F-A_文字
  6
Continuous
 62
     7
370
     0
100
AcDbText
 10
5350.114617405298
 20
-4292.835443869856
 30
0.0
 40
68.58
  1
,
  7
ＭＳ ゴシック
100
AcDbText
  0
TEXT
  5
B5
330
1F
100
AcDbEntity
  8
F-A_文字
  6
Continuous
 62
     7
370
     0
100
AcDbText
 10
5083.855928478601
 20
-4294.229467288283
 30
0.0
 40
68.58
  1
$y
 41
1.083333333333333
  7
ＭＳ ゴシック
100
AcDbText
  0
TEXT
  5
B6
330
1F
100
AcDbEntity
  8
F-A_文字
  6
Continuous
 62
     7
370
     0
100
AcDbText
 10
5238.592649517422
 20
-4294.229467288283
 30
0.0
 40
68.58
  1
$m
 41
1.083333333333333
  7
ＭＳ ゴシック
100
AcDbText
  0
TEXT
  5
B7
330
1F
100
AcDbEntity
  8
F-A_文字
  6
Continuous
 62
     7
370
     0
100
AcDbText
 10
5393.32938200033
 20
-4294.229467288283
 30
0.0
 40
68.58
  1
$d
 41
1.083333333333333
  7
ＭＳ ゴシック
100
AcDbText
  0
TEXT
  5
B8
330
1F
100
AcDbEntity
  8
F-A_文字
  6
Continuous
 62
     7
370
     0
100
AcDbText
 10
5548.066114483239
 20
-4294.229467288283
 30
0.0
 40
68.58
  1
印刷
 41
1.083333333333333
  7
ＭＳ ゴシック
100
AcDbText
  0
TEXT
  5
B9
330
1F
100
AcDbEntity
  8
F-A_文字
  6
Continuous
 62
     7
370
     0
100
AcDbText
 10
4943.952040816226
 20
-4295.623493567732
 30
0.0
 40
68.58
  1
（
  7
ＭＳ ゴシック
100
AcDbText
  0
TEXT
  5
BA
330
1F
100
AcDbEntity
  8
F-A_文字
  6
Continuous
 62
     7
370
     0
100
AcDbText
 10
5191.195810375571
 20
-4295.623493567732
 30
0.0
 40
68.58
  1
,
  7
ＭＳ ゴシック
100
AcDbText
  0
TEXT
  5
BB
330
1F
100
AcDbEntity
  8
F-A_文字
  6
Continuous
 62
     7
370
     9
100
AcDbText
 10
5096.167700144058
 20
-4127.314512699985
 30
0.0
 40
68.58
  1
01
 41
1.083333333333333
  7
ＭＳ ゴシック
100
AcDbText
  0
TEXT
  5
BC
330
1F
100
AcDbEntity
  8
F-A_文字
  6
Continuous
 62
     7
370
     0
100
AcDbText
 10
4938.667793092894
 20
-3919.814510139967
 30
0.0
 40
68.58
  1
18.08.01
 41
1.145833333333333
  7
ＭＳ ゴシック
100
AcDbText
  0
LINE
  5
BD
330
1F
100
AcDbEntity
  8
0-A_文字
  6
Continuous
 62
    92
370
    13
100
AcDbLine
 10
-5659.999495325861
 20
4000.000181456216
 30
0.0
 11
-1922.749495325861
 21
4000.000181456216
 31
0.0
  0
LINE
  5
BE
330
1F
100
AcDbEntity
  8
0-A_文字
  6
Continuous
 62
    92
370
    13
100
AcDbLine
 10
-5659.999495325861
 20
3730.000181456216
 30
0.0
 11
-1922.749495325861
 21
3730.000181456216
 31
0.0
  0
LINE
  5
BF
330
1F
100
AcDbEntity
  8
0-A_文字
  6
Continuous
 62
    92
370
    13
100
AcDbLine
 10
-1922.749495325861
 20
4000.000181456216
 30
0.0
 11
-1922.749495325861
 21
3730.000181456216
 31
0.0
  0
LINE
  5
C0
330
1F
100
AcDbEntity
  8
0-A_文字
  6
Continuous
 62
    92
370
    13
100
AcDbLine
 10
-1922.749495325861
 20
4000.000181456216
 30
0.0
 11
-1922.749495325861
 21
3730.000181456216
 31
0.0
  0
LINE
  5
C1
330
1F
100
AcDbEntity
  8
0-A_文字
  6
Continuous
 62
    92
370
    13
100
AcDbLine
 10
-1922.749495325861
 20
3730.000181456216
 30
0.0
 11
-1922.749495325861
 21
4000.000181456216
 31
0.0
  0
LINE
  5
C2
330
1F
100
AcDbEntity
  8
0-A_文字
  6
Continuous
 62
    92
370
    13
100
AcDbLine
 10
-1922.749495325861
 20
4000.000181456216
 30
0.0
 11
-335.1230158730161
 21
4000.000181456216
 31
0.0
  0
LINE
  5
C3
330
1F
100
AcDbEntity
  8
0-A_文字
  6
Continuous
 62
    92
370
    13
100
AcDbLine
 10
-335.1230158730161
 20
4000.000181456216
 30
0.0
 11
-335.1230158730161
 21
3730.000181456216
 31
0.0
  0
LINE
  5
C4
330
1F
100
AcDbEntity
  8
0-A_文字
  6
Continuous
 62
    92
370
    13
100
AcDbLine
 10
-1922.749495325861
 20
3730.000181456216
 30
0.0
 11
-335.1230158730161
 21
3730.000181456216
 31
0.0
  0
TEXT
  5
C5
330
1F
100
AcDbEntity
  8
0-A_文字
  6
Continuous
 62
    92
370
    13
100
AcDbText
 10
-1813.999495325861
 20
3800.380181456216
 30
0.0
 40
137.16
  1
ドア気密タイプ
 41
1.071428571428571
  7
ＭＳ ゴシック
100
AcDbText
  0
LINE
  5
C6
330
1F
100
AcDbEntity
  8
0-A_文字
  6
Continuous
 62
    92
370
    13
100
AcDbLine
 10
-1922.749495325861
 20
4000.000181456216
 30
0.0
 11
-1922.749495325861
 21
3730.000181456216
 31
0.0
  0
LINE
  5
C7
330
1F
100
AcDbEntity
  8
0-A_文字
  6
Continuous
 62
    92
370
    13
100
AcDbLine
 10
-350.1230158730161
 20
3985.000181456216
 30
0.0
 11
-350.1230158730161
 21
3745.000181456216
 31
0.0
  0
LINE
  5
C8
330
1F
100
AcDbEntity
  8
0-A_文字
  6
Continuous
 62
    92
370
    13
100
AcDbLine
 10
-1907.749495325861
 20
3745.000181456216
 30
0.0
 11
-350.1230158730161
 21
3745.000181456216
 31
0.0
  0
LINE
  5
C9
330
1F
100
AcDbEntity
  8
0-A_文字
  6
Continuous
 62
    92
370
    13
100
AcDbLine
 10
-1907.749495325861
 20
3985.000181456216
 30
0.0
 11
-350.1230158730161
 21
3985.000181456216
 31
0.0
  0
LINE
  5
CA
330
1F
100
AcDbEntity
  8
0-A_文字
  6
Continuous
 62
    92
370
    13
100
AcDbLine
 10
-1907.749495325861
 20
3985.000181456216
 30
0.0
 11
-1907.749495325861
 21
3745.000181456216
 31
0.0
  0
LINE
  5
CB
330
1F
100
AcDbEntity
  8
0-6_扉
  6
Continuous
 62
   200
370
    20
100
AcDbLine
 10
1989.038803120942
 20
2129.999683277029
 30
0.0
 11
78.91854284331743
 21
2129.999683277029
 31
0.0
  0
LINE
  5
CC
330
1F
100
AcDbEntity
  8
0-6_扉
  6
Continuous
 62
   200
370
    20
100
AcDbLine
 10
1989.038803120942
 20
2345.999683277028
 30
0.0
 11
78.91854284331743
 21
2345.999683277028
 31
0.0
  0
LINE
  5
CD
330
1F
100
AcDbEntity
  8
0-6_扉
  6
Continuous
 62
   200
370
    20
100
AcDbLine
 10
-41.08145715668257
 20
2129.999683277029
 30
0.0
 11
-1951.201717325969
 21
2129.999683277029
 31
0.0
  0
LINE
  5
CE
330
1F
100
AcDbEntity
  8
0-6_扉
  6
Continuous
 62
   200
370
    20
100
AcDbLine
 10
-41.08145715668257
 20
2345.999683277028
 30
0.0
 11
-1951.201717325969
 21
2345.999683277028
 31
0.0
  0
LINE
  5
CF
330
1F
100
AcDbEntity
  8
0-C_ハッチ
  6
Continuous
 62
   120
370
     5
100
AcDbLine
 10
2001.038803120943
 20
2474.01506494651
 30
0.0
 11
2021.699295022359
 21
2494.675556847925
 31
0.0
  0
LINE
  5
D0
330
1F
100
AcDbEntity
  8
0-4_枠
  6
Continuous
 62
    92
370
    13
100
AcDbLine
 10
2004.038803120942
 20
2516.875556847925
 30
0.0
 11
2004.038803120942
 21
2774.999683277029
 31
0.0
  0
LINE
  5
D1
330
1F
100
AcDbEntity
  8
0-4_枠
  6
Continuous
 62
    92
370
    13
100
AcDbLine
 10
2001.038803120942
 20
2516.875556847925
 30
0.0
 11
2001.038803120942
 21
2777.999683277027
 31
0.0
  0
LINE
  5
D2
330
1F
100
AcDbEntity
  8
0-1_通り芯
  6
JWW_CENTER1
 62
   120
370
     5
100
AcDbLine
 10
2475.038803120942
 20
2438.999683277028
 30
0.0
 11
-2455.201717519063
 21
2438.999683277028
 31
0.0
  0
LINE
  5
D3
330
1F
100
AcDbEntity
  8
0-3_仕上げ
  6
Continuous
 62
     7
370
     9
100
AcDbLine
 10
2475.038803012595
 20
2099.999683277029
 30
0.0
 11
2175.038803120942
 21
2099.999683277029
 31
0.0
  0
LINE
  5
D4
330
1F
100
AcDbEntity
  8
0-3_仕上げ
  6
Continuous
 62
     7
370
     9
100
AcDbLine
 10
2475.038803012595
 20
2777.999683277027
 30
0.0
 11
2175.038803120942
 21
2777.999683277027
 31
0.0
  0
LINE
  5
D5
330
1F
100
AcDbEntity
  8
0-6_扉
  6
Continuous
 62
   200
370
    20
100
AcDbLine
 10
1989.038803120942
 20
2345.999683277028
 30
0.0
 11
1989.038803120942
 21
2129.999683277029
 31
0.0
  0
LINE
  5
D6
330
1F
100
AcDbEntity
  8
0-C_ハッチ
  6
Continuous
 62
   120
370
     5
100
AcDbLine
 10
2004.038803120935
 20
2773.999913044848
 30
0.0
 11
2005.03857335312
 21
2774.999683277033
 31
0.0
  0
LINE
  5
D7
330
1F
100
AcDbEntity
  8
0-C_ハッチ
  6
Continuous
 62
   120
370
     5
100
AcDbLine
 10
2004.038803120937
 20
2714.602943425148
 30
0.0
 11
2061.03880312094
 21
2771.60294342515
 31
0.0
  0
LINE
  5
D8
330
1F
100
AcDbEntity
  8
0-C_ハッチ
  6
Continuous
 62
   120
370
     5
100
AcDbLine
 10
2115.038803120955
 20
2766.205973805518
 30
0.0
 11
2126.832512592453
 21
2777.999683277017
 31
0.0
  0
LINE
  5
D9
330
1F
100
AcDbEntity
  8
0-C_ハッチ
  6
Continuous
 62
   120
370
     5
100
AcDbLine
 10
2004.038803120942
 20
2655.205973805505
 30
0.0
 11
2066.832512592443
 21
2717.999683277007
 31
0.0
  0
LINE
  5
DA
330
1F
100
AcDbEntity
  8
0-C_ハッチ
  6
Continuous
 62
   120
370
     5
100
AcDbLine
 10
2004.038803120947
 20
2595.809004185863
 30
0.0
 11
2145.03880312095
 21
2736.809004185866
 31
0.0
  0
LINE
  5
DB
330
1F
100
AcDbEntity
  8
0-C_ハッチ
  6
Continuous
 62
   120
370
     5
100
AcDbLine
 10
2004.038803120932
 20
2536.412034566145
 30
0.0
 11
2145.038803120935
 21
2677.412034566149
 31
0.0
  0
LINE
  5
DC
330
1F
100
AcDbEntity
  8
0-C_ハッチ
  6
Continuous
 62
   120
370
     5
100
AcDbLine
 10
2001.03880312095
 20
2414.618095326815
 30
0.0
 11
2145.038803120941
 21
2558.618095326806
 31
0.0
  0
LINE
  5
DD
330
1F
100
AcDbEntity
  8
0-C_ハッチ
  6
Continuous
 62
   120
370
     5
100
AcDbLine
 10
2004.038803120942
 20
2298.824156087458
 30
0.0
 11
2145.038803120938
 21
2439.824156087453
 31
0.0
  0
LINE
  5
DE
330
1F
100
AcDbEntity
  8
0-C_ハッチ
  6
Continuous
 62
   120
370
     5
100
AcDbLine
 10
2004.038803120932
 20
2239.427186467802
 30
0.0
 11
2145.038803120935
 21
2380.427186467803
 31
0.0
  0
LINE
  5
DF
330
1F
100
AcDbEntity
  8
0-C_ハッチ
  6
Continuous
 62
   120
370
     5
100
AcDbLine
 10
2004.038803120944
 20
2180.030216848166
 30
0.0
 11
2145.038803120928
 21
2321.030216848149
 31
0.0
  0
LINE
  5
E0
330
1F
100
AcDbEntity
  8
0-C_ハッチ
  6
Continuous
 62
   120
370
     5
100
AcDbLine
 10
2004.03880312094
 20
2120.63324722846
 30
0.0
 11
2145.038803120938
 21
2261.633247228459
 31
0.0
  0
LINE
  5
E1
330
1F
100
AcDbEntity
  8
0-C_ハッチ
  6
Continuous
 62
   120
370
     5
100
AcDbLine
 10
2102.802208789157
 20
2159.999683277029
 30
0.0
 11
2145.038803120931
 21
2202.236277608802
 31
0.0
  0
LINE
  5
E2
330
1F
100
AcDbEntity
  8
0-C_ハッチ
  6
Continuous
 62
   120
370
     5
100
AcDbLine
 10
2045.802208789148
 20
2102.99968327702
 30
0.0
 11
2061.038803120949
 21
2118.236277608822
 31
0.0
  0
LINE
  5
E3
330
1F
100
AcDbEntity
  8
0-C_ハッチ
  6
Continuous
 62
   120
370
     5
100
AcDbLine
 10
2115.038803120921
 20
2112.839307989092
 30
0.0
 11
2145.03880312093
 21
2142.839307989099
 31
0.0
  0
LINE
  5
E4
330
1F
100
AcDbEntity
  8
0-4_枠
  6
Continuous
 62
    92
370
    13
100
AcDbLine
 10
2145.038803120941
 20
2099.999683277029
 30
0.0
 11
2115.038803120942
 21
2099.999683277029
 31
0.0
  0
LINE
  5
E5
330
1F
100
AcDbEntity
  8
0-4_枠
  6
Continuous
 62
    92
370
    13
100
AcDbLine
 10
2115.038803120942
 20
2159.999683277029
 30
0.0
 11
2115.038803120942
 21
2099.999683277029
 31
0.0
  0
LINE
  5
E6
330
1F
100
AcDbEntity
  8
0-4_枠
  6
Continuous
 62
    92
370
    13
100
AcDbLine
 10
2115.038803120942
 20
2159.999683277029
 30
0.0
 11
2061.038803120942
 21
2159.999683277029
 31
0.0
  0
LINE
  5
E7
330
1F
100
AcDbEntity
  8
0-4_枠
  6
Continuous
 62
    92
370
    13
100
AcDbLine
 10
2061.038803120942
 20
2159.999683277029
 30
0.0
 11
2061.038803120942
 21
2099.999683277029
 31
0.0
  0
LINE
  5
E8
330
1F
100
AcDbEntity
  8
0-4_枠
  6
Continuous
 62
    92
370
    13
100
AcDbLine
 10
2145.038803120941
 20
2777.999683277027
 30
0.0
 11
2115.038803120942
 21
2777.999683277027
 31
0.0
  0
LINE
  5
E9
330
1F
100
AcDbEntity
  8
0-4_枠
  6
Continuous
 62
    92
370
    13
100
AcDbLine
 10
2115.038803120942
 20
2717.999683277027
 30
0.0
 11
2115.038803120942
 21
2777.999683277027
 31
0.0
  0
LINE
  5
EA
330
1F
100
AcDbEntity
  8
0-4_枠
  6
Continuous
 62
    92
370
    13
100
AcDbLine
 10
2115.038803120942
 20
2717.999683277027
 30
0.0
 11
2061.038803120942
 21
2717.999683277027
 31
0.0
  0
LINE
  5
EB
330
1F
100
AcDbEntity
  8
0-4_枠
  6
Continuous
 62
    92
370
    13
100
AcDbLine
 10
2061.038803120942
 20
2717.999683277027
 30
0.0
 11
2061.038803120942
 21
2777.999683277027
 31
0.0
  0
LINE
  5
EC
330
1F
100
AcDbEntity
  8
0-4_枠
  6
Continuous
 62
    92
370
    13
100
AcDbLine
 10
2061.038803120942
 20
2777.999683277027
 30
0.0
 11
2001.038803120942
 21
2777.999683277027
 31
0.0
  0
LINE
  5
ED
330
1F
100
AcDbEntity
  8
0-4_枠
  6
Continuous
 62
    92
370
    13
100
AcDbLine
 10
2061.038629913065
 20
2102.999683277027
 30
0.0
 11
2004.038803120942
 21
2102.999683277027
 31
0.0
  0
LINE
  5
EE
330
1F
100
AcDbEntity
  8
0-4_枠
  6
Continuous
 62
    92
370
    13
100
AcDbLine
 10
2061.038629913065
 20
2099.999683277029
 30
0.0
 11
2001.038803120942
 21
2099.999683277029
 31
0.0
  0
LINE
  5
EF
330
1F
100
AcDbEntity
  8
0-4_枠
  6
Continuous
 62
    92
370
    13
100
AcDbLine
 10
2061.038629913065
 20
2774.999683277029
 30
0.0
 11
2004.038803120942
 21
2774.999683277029
 31
0.0
  0
LINE
  5
F0
330
1F
100
AcDbEntity
  8
0-3_仕上げ
  6
Continuous
 62
     7
370
     9
100
AcDbLine
 10
2175.038803120942
 20
2777.999683277027
 30
0.0
 11
2175.038803120942
 21
2099.999683277029
 31
0.0
  0
LINE
  5
F1
330
1F
100
AcDbEntity
  8
0-4_枠
  6
Continuous
 62
    92
370
    13
100
AcDbLine
 10
2145.038803120941
 20
2777.999683277027
 30
0.0
 11
2145.038803120941
 21
2099.999683277029
 31
0.0
  0
LINE
  5
F2
330
1F
100
AcDbEntity
  8
0-7_金物
  6
Continuous
 62
     7
370
     9
100
AcDbLine
 10
2148.03841711482
 20
2384.999653584248
 30
0.0
 11
2145.038803120941
 21
2384.999653584248
 31
0.0
  0
LINE
  5
F3
330
1F
100
AcDbEntity
  8
0-7_金物
  6
Continuous
 62
     7
370
     9
100
AcDbLine
 10
2148.03841711482
 20
2492.999712969807
 30
0.0
 11
2145.038803120941
 21
2492.999712969807
 31
0.0
  0
LINE
  5
F4
330
1F
100
AcDbEntity
  8
0-7_金物
  6
Continuous
 62
     7
370
     9
100
AcDbLine
 10
2175.038803120942
 20
2349.000128668707
 30
0.0
 11
2160.038382473245
 21
2349.000128668707
 31
0.0
  0
LINE
  5
F5
330
1F
100
AcDbEntity
  8
0-7_金物
  6
Continuous
 62
     7
370
     9
100
AcDbLine
 10
2175.038803120942
 20
2528.999980204815
 30
0.0
 11
2160.038382473245
 21
2528.999980204815
 31
0.0
  0
LINE
  5
F6
330
1F
100
AcDbEntity
  8
0-7_金物
  6
Continuous
 62
     7
370
     9
100
AcDbLine
 10
2148.03841711482
 20
2498.999881228884
 30
0.0
 11
2148.03841711482
 21
2379.000227644638
 31
0.0
  0
LINE
  5
F7
330
1F
100
AcDbEntity
  8
0-7_金物
  6
Continuous
 62
     7
370
     9
100
AcDbLine
 10
2160.038382473245
 20
2379.000227644638
 30
0.0
 11
2148.03841711482
 21
2379.000227644638
 31
0.0
  0
LINE
  5
F8
330
1F
100
AcDbEntity
  8
0-7_金物
  6
Continuous
 62
     7
370
     9
100
AcDbLine
 10
2160.038382473245
 20
2498.999881228884
 30
0.0
 11
2148.03841711482
 21
2498.999881228884
 31
0.0
  0
LINE
  5
F9
330
1F
100
AcDbEntity
  8
0-7_金物
  6
Continuous
 62
     7
370
     9
100
AcDbLine
 10
2175.038803120942
 20
2528.999980204815
 30
0.0
 11
2175.038803120942
 21
2349.000128668707
 31
0.0
  0
LINE
  5
FA
330
1F
100
AcDbEntity
  8
0-7_金物
  6
Continuous
 62
     7
370
     9
100
AcDbLine
 10
2160.038382473245
 20
2528.999980204815
 30
0.0
 11
2160.038382473245
 21
2349.000128668707
 31
0.0
  0
LINE
  5
FB
330
1F
100
AcDbEntity
  8
0-4_枠
  6
Continuous
 62
    92
370
    13
100
AcDbLine
 10
2004.038803120942
 20
2360.999969379322
 30
0.0
 11
2004.038803120942
 21
2102.999683277027
 31
0.0
  0
LINE
  5
FC
330
1F
100
AcDbEntity
  8
0-4_枠
  6
Continuous
 62
    92
370
    13
100
AcDbLine
 10
2001.038803120942
 20
2360.999969379322
 30
0.0
 11
2001.038803120942
 21
2099.999683277029
 31
0.0
  0
LINE
  5
FD
330
1F
100
AcDbEntity
  8
0-C_ハッチ
  6
Continuous
 62
   120
370
     5
100
AcDbLine
 10
2029.017453066083
 20
2383.1997756523
 30
0.0
 11
2145.038803120938
 21
2499.221125707157
 31
0.0
  0
LINE
  5
FE
330
1F
100
AcDbEntity
  8
0-C_ハッチ
  6
Continuous
 62
   120
370
     5
100
AcDbLine
 10
2041.932609764993
 20
2514.908871590559
 30
0.0
 11
2145.038803120937
 21
2618.015064946504
 31
0.0
  0
ARC
  5
FF
330
1F
100
AcDbEntity
  8
0-8_戸当
  6
Continuous
 62
     7
370
     9
100
AcDbCircle
 10
1984.238803120941
 20
2512.975556847924
 30
0.0
 40
1.8
100
AcDbArc
 50
0.0
 51
106.7900255983358
  0
LINE
  5
100
330
1F
100
AcDbEntity
  8
0-8_戸当
  6
Continuous
 62
     7
370
     9
100
AcDbLine
 10
1983.718845875242
 20
2514.698822486949
 30
0.0
 11
1973.411195091865
 21
2511.859781800104
 31
0.0
  0
LINE
  5
101
330
1F
100
AcDbEntity
  8
0-8_戸当
  6
Continuous
 62
     7
370
     9
100
AcDbLine
 10
1986.038803120941
 20
2512.975556847924
 30
0.0
 11
1986.038803120941
 21
2511.475556847925
 31
0.0
  0
LINE
  5
102
330
1F
100
AcDbEntity
  8
0-8_戸当
  6
Continuous
 62
     7
370
     9
100
AcDbLine
 10
2000.427933331747
 20
2520.624272517464
 30
0.0
 11
1989.027933331747
 21
2511.924272517464
 31
0.0
  0
ARC
  5
103
330
1F
100
AcDbEntity
  8
0-8_戸当
  6
Continuous
 62
     7
370
     9
100
AcDbCircle
 10
1987.838803120941
 20
2513.275556847925
 30
0.0
 40
1.8
100
AcDbArc
 50
180.0
 51
311.3477772196935
  0
LINE
  5
104
330
1F
100
AcDbEntity
  8
0-8_戸当
  6
Continuous
 62
     7
370
     9
100
AcDbLine
 10
1986.038803120941
 20
2513.275556847925
 30
0.0
 11
1986.038803120941
 21
2514.775556847925
 31
0.0
  0
LINE
  5
105
330
1F
100
AcDbEntity
  8
0-8_戸当
  6
Continuous
 62
     7
370
     9
100
AcDbLine
 10
1974.038803120942
 20
2377.073032601429
 30
0.0
 11
1974.038803120942
 21
2376.775556847925
 31
0.0
  0
LINE
  5
106
330
1F
100
AcDbEntity
  8
0-8_戸当
  6
Continuous
 62
     7
370
     9
100
AcDbLine
 10
1986.038803120942
 20
2371.975556847924
 30
0.0
 11
1978.818418574725
 21
2379.488186599968
 31
0.0
  0
ARC
  5
107
330
1F
100
AcDbEntity
  8
0-8_戸当
  6
Continuous
 62
     7
370
     9
100
AcDbCircle
 10
1977.038803120942
 20
2377.073032601429
 30
0.0
 40
3.0
100
AcDbArc
 50
53.61521310602235
 51
180.0
  0
LINE
  5
108
330
1F
100
AcDbEntity
  8
0-8_戸当
  6
Continuous
 62
     7
370
     9
100
AcDbLine
 10
1992.638803120942
 20
2358.775556847925
 30
0.0
 11
1992.638803120942
 21
2373.775556847925
 31
0.0
  0
LINE
  5
109
330
1F
100
AcDbEntity
  8
0-8_戸当
  6
Continuous
 62
     7
370
     9
100
AcDbLine
 10
2028.038803120942
 20
2367.775556847924
 30
0.0
 11
2028.038803120942
 21
2360.875556847924
 31
0.0
  0
LINE
  5
10A
330
1F
100
AcDbEntity
  8
0-8_戸当
  6
Continuous
 62
     7
370
     9
100
AcDbLine
 10
2028.038803120942
 20
2381.275556847925
 30
0.0
 11
2028.038803120942
 21
2376.775556847925
 31
0.0
  0
LINE
  5
10B
330
1F
100
AcDbEntity
  8
0-8_戸当
  6
Continuous
 62
     7
370
     9
100
AcDbLine
 10
2028.038803120942
 20
2376.775556847925
 30
0.0
 11
2001.038803120942
 21
2376.775556847925
 31
0.0
  0
LINE
  5
10C
330
1F
100
AcDbEntity
  8
0-8_戸当
  6
Continuous
 62
     7
370
     9
100
AcDbLine
 10
2028.038803120942
 20
2381.275556847925
 30
0.0
 11
2046.038803120942
 21
2372.275556847925
 31
0.0
  0
LINE
  5
10D
330
1F
100
AcDbEntity
  8
0-8_戸当
  6
Continuous
 62
     7
370
     9
100
AcDbLine
 10
2046.038803120942
 20
2372.275556847925
 30
0.0
 11
2028.038803120942
 21
2360.875556847924
 31
0.0
  0
LINE
  5
10E
330
1F
100
AcDbEntity
  8
0-8_戸当
  6
Continuous
 62
     7
370
     9
100
AcDbLine
 10
2001.038803120942
 20
2376.775556847925
 30
0.0
 11
2001.038803120941
 21
2500.975556847925
 31
0.0
  0
LINE
  5
10F
330
1F
100
AcDbEntity
  8
0-8_戸当
  6
Continuous
 62
     7
370
     9
100
AcDbLine
 10
1996.838803120942
 20
2367.775556847924
 30
0.0
 11
2028.038803120942
 21
2367.775556847924
 31
0.0
  0
LINE
  5
110
330
1F
100
AcDbEntity
  8
0-8_戸当
  6
Continuous
 62
     7
370
     9
100
AcDbLine
 10
1996.838803120942
 20
2367.775556847924
 30
0.0
 11
1996.838803120942
 21
2373.775556847925
 31
0.0
  0
LINE
  5
111
330
1F
100
AcDbEntity
  8
0-8_戸当
  6
Continuous
 62
     7
370
     9
100
AcDbLine
 10
1996.838803120942
 20
2373.775556847925
 30
0.0
 11
1992.038803120942
 21
2373.775556847925
 31
0.0
  0
LINE
  5
112
330
1F
100
AcDbEntity
  8
0-8_戸当
  6
Continuous
 62
     7
370
     9
100
AcDbLine
 10
1992.038803120942
 20
2373.775556847925
 30
0.0
 11
1992.038803120942
 21
2380.375556847926
 31
0.0
  0
LINE
  5
113
330
1F
100
AcDbEntity
  8
0-8_戸当
  6
Continuous
 62
     7
370
     9
100
AcDbLine
 10
1992.038803120942
 20
2380.375556847926
 30
0.0
 11
1978.016057054136
 21
2380.375556847926
 31
0.0
  0
ARC
  5
114
330
1F
100
AcDbEntity
  8
0-8_戸当
  6
Continuous
 62
     7
370
     9
100
AcDbCircle
 10
1978.016057054136
 20
2375.575556847924
 30
0.0
 40
4.800000000000001
100
AcDbArc
 50
90.0
 51
131.40962210927
  0
LINE
  5
115
330
1F
100
AcDbEntity
  8
0-8_戸当
  6
Continuous
 62
     7
370
     9
100
AcDbLine
 10
1967.934125818983
 20
2377.702394601152
 30
0.0
 11
1952.987741361466
 21
2382.366212203975
 31
0.0
  0
ARC
  5
116
330
1F
100
AcDbEntity
  8
0-8_戸当
  6
Continuous
 62
     7
370
     9
100
AcDbCircle
 10
1954.238803120942
 20
2386.375556847925
 30
0.0
 40
4.2
100
AcDbArc
 50
72.6701702617455
 51
252.6701720818837
  0
LINE
  5
117
330
1F
100
AcDbEntity
  8
0-8_戸当
  6
Continuous
 62
     7
370
     9
100
AcDbLine
 10
1971.225957030032
 20
2385.474666259027
 30
0.0
 11
1955.48986513515
 21
2390.38490141239
 31
0.0
  0
ARC
  5
118
330
1F
100
AcDbEntity
  8
0-8_戸当
  6
Continuous
 62
     7
370
     9
100
AcDbCircle
 10
1977.278803120942
 20
2381.575556847925
 30
0.0
 40
7.199999999999999
100
AcDbArc
 50
90.0
 51
147.2112623503457
  0
LINE
  5
119
330
1F
100
AcDbEntity
  8
0-8_戸当
  6
Continuous
 62
     7
370
     9
100
AcDbLine
 10
1992.038803120942
 20
2391.775556847923
 30
0.0
 11
1992.038803120942
 21
2501.275556847926
 31
0.0
  0
LINE
  5
11A
330
1F
100
AcDbEntity
  8
0-8_戸当
  6
Continuous
 62
     7
370
     9
100
AcDbLine
 10
1989.038803120942
 20
2388.775556847925
 30
0.0
 11
1977.278803120942
 21
2388.775556847925
 31
0.0
  0
ARC
  5
11B
330
1F
100
AcDbEntity
  8
0-8_戸当
  6
Continuous
 62
     7
370
     9
100
AcDbCircle
 10
1989.038803120942
 20
2391.775556847923
 30
0.0
 40
3.0
100
AcDbArc
 50
270.0
 51
0.0
  0
ARC
  5
11C
330
1F
100
AcDbEntity
  8
0-8_戸当
  6
Continuous
 62
     7
370
     9
100
AcDbCircle
 10
1989.038803120942
 20
2501.275556847926
 30
0.0
 40
3.0
100
AcDbArc
 50
0.0
 51
90.0
  0
LINE
  5
11D
330
1F
100
AcDbEntity
  8
0-8_戸当
  6
Continuous
 62
     7
370
     9
100
AcDbLine
 10
1989.038803120942
 20
2504.275556847925
 30
0.0
 11
1986.038803120941
 21
2504.275556847925
 31
0.0
  0
LINE
  5
11E
330
1F
100
AcDbEntity
  8
0-8_戸当
  6
Continuous
 62
     7
370
     9
100
AcDbLine
 10
2046.038803120941
 20
2505.475556847926
 30
0.0
 11
2028.038803120941
 21
2516.875556847926
 31
0.0
  0
LINE
  5
11F
330
1F
100
AcDbEntity
  8
0-8_戸当
  6
Continuous
 62
     7
370
     9
100
AcDbLine
 10
2028.038803120941
 20
2496.475556847925
 30
0.0
 11
2046.038803120941
 21
2505.475556847926
 31
0.0
  0
LINE
  5
120
330
1F
100
AcDbEntity
  8
0-8_戸当
  6
Continuous
 62
     7
370
     9
100
AcDbLine
 10
2028.038803120941
 20
2500.975556847925
 30
0.0
 11
2001.038803120941
 21
2500.975556847925
 31
0.0
  0
LINE
  5
121
330
1F
100
AcDbEntity
  8
0-8_戸当
  6
Continuous
 62
     7
370
     9
100
AcDbLine
 10
2028.038803120941
 20
2496.475556847925
 30
0.0
 11
2028.038803120941
 21
2500.975556847925
 31
0.0
  0
LINE
  5
122
330
1F
100
AcDbEntity
  8
0-8_戸当
  6
Continuous
 62
     7
370
     9
100
AcDbLine
 10
2028.038803120941
 20
2509.975556847925
 30
0.0
 11
2028.038803120941
 21
2516.875556847926
 31
0.0
  0
ARC
  5
123
330
1F
100
AcDbEntity
  8
0-8_戸当
  6
Continuous
 62
     7
370
     9
100
AcDbCircle
 10
1986.038803120941
 20
2510.275556847924
 30
0.0
 40
5.999999999999659
100
AcDbArc
 50
213.4773790501727
 51
270.0
  0
LINE
  5
124
330
1F
100
AcDbEntity
  8
0-8_戸当
  6
Continuous
 62
     7
370
     9
100
AcDbLine
 10
1981.034181116891
 20
2506.965910553141
 30
0.0
 11
1975.866411137509
 21
2505.091331891209
 31
0.0
  0
ARC
  5
125
330
1F
100
AcDbEntity
  8
0-8_戸当
  6
Continuous
 62
     7
370
     9
100
AcDbCircle
 10
1974.638803120941
 20
2508.475556847925
 30
0.0
 40
3.600000000000001
100
AcDbArc
 50
180.0
 51
293.3376526889709
  0
ARC
  5
126
330
1F
100
AcDbEntity
  8
0-8_戸当
  6
Continuous
 62
     7
370
     9
100
AcDbCircle
 10
1974.638803120941
 20
2508.475556847925
 30
0.0
 40
3.600000000000001
100
AcDbArc
 50
106.7900255983375
 51
180.0
  0
LINE
  5
127
330
1F
100
AcDbEntity
  8
0-8_戸当
  6
Continuous
 62
     7
370
     9
100
AcDbLine
 10
2001.038803120941
 20
2509.975556847925
 30
0.0
 11
2028.038803120941
 21
2509.975556847925
 31
0.0
  0
LINE
  5
128
330
1F
100
AcDbEntity
  8
0-8_戸当
  6
Continuous
 62
     7
370
     9
100
AcDbLine
 10
2001.038803120941
 20
2511.475556847925
 30
0.0
 11
1986.038803120941
 21
2511.475556847925
 31
0.0
  0
LINE
  5
129
330
1F
100
AcDbEntity
  8
0-8_戸当
  6
Continuous
 62
     7
370
     9
100
AcDbLine
 10
2001.038803120941
 20
2509.975556847925
 30
0.0
 11
2001.038803120941
 21
2511.475556847925
 31
0.0
  0
LINE
  5
12A
330
1F
100
AcDbEntity
  8
0-8_戸当
  6
Continuous
 62
     7
370
     9
100
AcDbLine
 10
1983.091528289586
 20
2352.870164055024
 30
0.0
 11
1953.400195209324
 21
2367.775556847924
 31
0.0
  0
ARC
  5
12B
330
1F
100
AcDbEntity
  8
0-8_戸当
  6
Continuous
 62
     7
370
     9
100
AcDbCircle
 10
1986.038803120942
 20
2358.775556847925
 30
0.0
 40
6.6
100
AcDbArc
 50
243.4248464959396
 51
359.9999999999999
  0
ARC
  5
12C
330
1F
100
AcDbEntity
  8
0-8_戸当
  6
Continuous
 62
     7
370
     9
100
AcDbCircle
 10
1986.038803120942
 20
2358.775556847925
 30
0.0
 40
10.8
100
AcDbArc
 50
243.4248464959396
 51
359.9999999999999
  0
LINE
  5
12D
330
1F
100
AcDbEntity
  8
0-8_戸当
  6
Continuous
 62
     7
370
     9
100
AcDbLine
 10
1941.038803120941
 20
2517.775556847924
 30
0.0
 11
1941.038803120942
 21
2370.775556847923
 31
0.0
  0
LINE
  5
12E
330
1F
100
AcDbEntity
  8
0-8_戸当
  6
Continuous
 62
     7
370
     9
100
AcDbLine
 10
1944.038803120942
 20
2367.775556847924
 30
0.0
 11
1986.038803120942
 21
2367.775556847924
 31
0.0
  0
LINE
  5
12F
330
1F
100
AcDbEntity
  8
0-8_戸当
  6
Continuous
 62
     7
370
     9
100
AcDbLine
 10
1950.038803120941
 20
2376.775556847925
 30
0.0
 11
1950.038803120941
 21
2514.775556847925
 31
0.0
  0
LINE
  5
130
330
1F
100
AcDbEntity
  8
0-8_戸当
  6
Continuous
 62
     7
370
     9
100
AcDbLine
 10
1986.038803120942
 20
2367.775556847924
 30
0.0
 11
1986.038803120942
 21
2371.975556847924
 31
0.0
  0
ARC
  5
131
330
1F
100
AcDbEntity
  8
0-8_戸当
  6
Continuous
 62
     7
370
     9
100
AcDbCircle
 10
1944.038803120942
 20
2370.775556847923
 30
0.0
 40
3.0
100
AcDbArc
 50
180.0
 51
270.0
  0
LINE
  5
132
330
1F
100
AcDbEntity
  8
0-8_戸当
  6
Continuous
 62
     7
370
     9
100
AcDbLine
 10
1996.838803120942
 20
2358.775556847925
 30
0.0
 11
1996.838803120942
 21
2367.775556847924
 31
0.0
  0
LINE
  5
133
330
1F
100
AcDbEntity
  8
0-8_戸当
  6
Continuous
 62
     7
370
     9
100
AcDbLine
 10
1981.207193157219
 20
2349.116594938981
 30
0.0
 11
1944.038803120942
 21
2367.775556847924
 31
0.0
  0
ARC
  5
134
330
1F
100
AcDbEntity
  8
0-8_戸当
  6
Continuous
 62
     7
370
     9
100
AcDbCircle
 10
1947.038803120942
 20
2517.775556847924
 30
0.0
 40
6.0
100
AcDbArc
 50
90.0
 51
180.0
  0
LINE
  5
135
330
1F
100
AcDbEntity
  8
0-8_戸当
  6
Continuous
 62
     7
370
     9
100
AcDbLine
 10
1947.038803120942
 20
2523.775556847925
 30
0.0
 11
1999.238803120941
 21
2523.775556847925
 31
0.0
  0
ARC
  5
136
330
1F
100
AcDbEntity
  8
0-8_戸当
  6
Continuous
 62
     7
370
     9
100
AcDbCircle
 10
1999.238803120941
 20
2521.975556847924
 30
0.0
 40
1.8
100
AcDbArc
 50
311.3477772196927
 51
90.0
  0
LINE
  5
137
330
1F
100
AcDbEntity
  8
0-8_戸当
  6
Continuous
 62
     7
370
     9
100
AcDbLine
 10
1969.838803120942
 20
2514.775556847925
 30
0.0
 11
1986.038803120941
 21
2514.775556847925
 31
0.0
  0
LINE
  5
138
330
1F
100
AcDbEntity
  8
0-8_戸当
  6
Continuous
 62
     7
370
     9
100
AcDbLine
 10
1969.838803120942
 20
2502.775556847924
 30
0.0
 11
1969.838803120942
 21
2514.775556847925
 31
0.0
  0
LINE
  5
139
330
1F
100
AcDbEntity
  8
0-8_戸当
  6
Continuous
 62
     7
370
     9
100
AcDbLine
 10
1962.638803120941
 20
2502.775556847924
 30
0.0
 11
1969.838803120942
 21
2502.775556847924
 31
0.0
  0
LINE
  5
13A
330
1F
100
AcDbEntity
  8
0-8_戸当
  6
Continuous
 62
     7
370
     9
100
AcDbLine
 10
1962.638803120941
 20
2514.775556847925
 30
0.0
 11
1962.638803120941
 21
2502.775556847924
 31
0.0
  0
LINE
  5
13B
330
1F
100
AcDbEntity
  8
0-8_戸当
  6
Continuous
 62
     7
370
     9
100
AcDbLine
 10
1950.038803120941
 20
2514.775556847925
 30
0.0
 11
1962.638803120941
 21
2514.775556847925
 31
0.0
  0
LINE
  5
13C
330
1F
100
AcDbEntity
  8
0-8_戸当
  6
Continuous
 62
     7
370
     9
100
AcDbLine
 10
1950.038803120941
 20
2376.775556847925
 30
0.0
 11
1974.038803120942
 21
2376.775556847925
 31
0.0
  0
ARC
  5
13D
330
1F
100
AcDbEntity
  8
0-8_戸当
  6
Continuous
 62
     7
370
     9
100
AcDbCircle
 10
1970.078803120942
 20
2384.575556847924
 30
0.0
 40
7.199999999999999
100
AcDbArc
 50
252.6701739020166
 51
311.4096221092722
  0
LINE
  5
13E
330
1F
100
AcDbEntity
  8
0-4_枠
  6
Continuous
 62
    92
370
    13
100
AcDbLine
 10
2052.03880312094
 20
2516.875556847925
 30
0.0
 11
2001.038700124114
 21
2516.875556847925
 31
0.0
  0
LINE
  5
13F
330
1F
100
AcDbEntity
  8
0-4_枠
  6
Continuous
 62
    92
370
    13
100
AcDbLine
 10
2052.03880312094
 20
2494.675556847925
 30
0.0
 11
2052.03880312094
 21
2516.875556847925
 31
0.0
  0
LINE
  5
140
330
1F
100
AcDbEntity
  8
0-4_枠
  6
Continuous
 62
    92
370
    13
100
AcDbLine
 10
2001.038803120941
 20
2494.675556847925
 30
0.0
 11
2052.03880312094
 21
2494.675556847925
 31
0.0
  0
LINE
  5
141
330
1F
100
AcDbEntity
  8
0-4_枠
  6
Continuous
 62
    92
370
    13
100
AcDbLine
 10
2001.038803120941
 20
2383.075556847924
 30
0.0
 11
2052.038700124114
 21
2383.075556847924
 31
0.0
  0
LINE
  5
142
330
1F
100
AcDbEntity
  8
0-4_枠
  6
Continuous
 62
    92
370
    13
100
AcDbLine
 10
2052.038700124114
 20
2360.875556847926
 30
0.0
 11
2001.038700124114
 21
2360.875556847926
 31
0.0
  0
LINE
  5
143
330
1F
100
AcDbEntity
  8
0-4_枠
  6
Continuous
 62
    92
370
    13
100
AcDbLine
 10
2001.038803120941
 20
2383.075556847924
 30
0.0
 11
2001.038803120941
 21
2494.675556847925
 31
0.0
  0
LINE
  5
144
330
1F
100
AcDbEntity
  8
0-4_枠
  6
Continuous
 62
    92
370
    13
100
AcDbLine
 10
2052.038700124114
 20
2360.875556847926
 30
0.0
 11
2052.038700124114
 21
2383.075556847924
 31
0.0
  0
LINE
  5
145
330
1F
100
AcDbEntity
  8
0-C_ハッチ
  6
Continuous
 62
   120
370
     5
100
AcDbLine
 10
-2125.201717325958
 20
2287.210904070121
 30
0.0
 11
-2032.201614329142
 21
2380.211007066937
 31
0.0
  0
LINE
  5
146
330
1F
100
AcDbEntity
  8
0-C_ハッチ
  6
Continuous
 62
   120
370
     5
100
AcDbLine
 10
-2029.337064548154
 20
2383.075556847924
 30
0.0
 11
-1981.201717325973
 21
2431.210904070107
 31
0.0
  0
LINE
  5
147
330
1F
100
AcDbEntity
  8
0-C_ハッチ
  6
Continuous
 62
   120
370
     5
100
AcDbLine
 10
-2125.201717325965
 20
2227.813934450465
 30
0.0
 11
-1992.140094928506
 21
2360.875556847926
 31
0.0
  0
LINE
  5
148
330
1F
100
AcDbEntity
  8
0-4_枠
  6
Continuous
 62
    92
370
    13
100
AcDbLine
 10
-1981.201717325969
 20
2360.875556847926
 30
0.0
 11
-1981.201717325969
 21
2099.999683277029
 31
0.0
  0
LINE
  5
149
330
1F
100
AcDbEntity
  8
0-4_枠
  6
Continuous
 62
    92
370
    13
100
AcDbLine
 10
-1984.20171732597
 20
2360.875556847926
 30
0.0
 11
-1984.20171732597
 21
2102.999683277027
 31
0.0
  0
LINE
  5
14A
330
1F
100
AcDbEntity
  8
0-4_枠
  6
Continuous
 62
    92
370
    13
100
AcDbLine
 10
-1981.201717325969
 20
2777.999683277027
 30
0.0
 11
-1981.201717325969
 21
2516.875556847925
 31
0.0
  0
LINE
  5
14B
330
1F
100
AcDbEntity
  8
0-4_枠
  6
Continuous
 62
    92
370
    13
100
AcDbLine
 10
-1984.20171732597
 20
2774.999683277029
 30
0.0
 11
-1984.20171732597
 21
2516.875556847925
 31
0.0
  0
LINE
  5
14C
330
1F
100
AcDbEntity
  8
0-C_ハッチ
  6
Continuous
 62
   120
370
     5
100
AcDbLine
 10
-2014.331003787503
 20
2516.875556847925
 30
0.0
 11
-1984.201717325963
 21
2547.004843309465
 31
0.0
  0
LINE
  5
14D
330
1F
100
AcDbEntity
  8
0-C_ハッチ
  6
Continuous
 62
   120
370
     5
100
AcDbLine
 10
-2125.201717325961
 20
2406.004843309466
 30
0.0
 11
-2032.201717325969
 21
2499.004843309457
 31
0.0
  0
ARC
  5
14E
330
1F
100
AcDbEntity
  8
0-8_戸当
  6
Continuous
 62
     7
370
     9
100
AcDbCircle
 10
-1964.401717325969
 20
2512.975556847924
 30
0.0
 40
1.8
100
AcDbArc
 50
73.20997440166418
 51
180.0
  0
LINE
  5
14F
330
1F
100
AcDbEntity
  8
0-8_戸当
  6
Continuous
 62
     7
370
     9
100
AcDbLine
 10
-1963.881760080269
 20
2514.698822486949
 30
0.0
 11
-1953.574109296892
 21
2511.859781800104
 31
0.0
  0
LINE
  5
150
330
1F
100
AcDbEntity
  8
0-8_戸当
  6
Continuous
 62
     7
370
     9
100
AcDbLine
 10
-1966.201717325969
 20
2512.975556847924
 30
0.0
 11
-1966.201717325969
 21
2511.475556847925
 31
0.0
  0
LINE
  5
151
330
1F
100
AcDbEntity
  8
0-8_戸当
  6
Continuous
 62
     7
370
     9
100
AcDbLine
 10
-1980.590847536774
 20
2520.624272517464
 30
0.0
 11
-1969.190847536775
 21
2511.924272517464
 31
0.0
  0
ARC
  5
152
330
1F
100
AcDbEntity
  8
0-8_戸当
  6
Continuous
 62
     7
370
     9
100
AcDbCircle
 10
-1968.001717325969
 20
2513.275556847925
 30
0.0
 40
1.8
100
AcDbArc
 50
228.6522227803065
 51
0.0
  0
LINE
  5
153
330
1F
100
AcDbEntity
  8
0-8_戸当
  6
Continuous
 62
     7
370
     9
100
AcDbLine
 10
-1966.201717325969
 20
2513.275556847925
 30
0.0
 11
-1966.201717325969
 21
2514.775556847925
 31
0.0
  0
LINE
  5
154
330
1F
100
AcDbEntity
  8
0-8_戸当
  6
Continuous
 62
     7
370
     9
100
AcDbLine
 10
-1954.20171732597
 20
2377.073032601429
 30
0.0
 11
-1954.20171732597
 21
2376.775556847925
 31
0.0
  0
LINE
  5
155
330
1F
100
AcDbEntity
  8
0-8_戸当
  6
Continuous
 62
     7
370
     9
100
AcDbLine
 10
-1966.201717325969
 20
2371.975556847924
 30
0.0
 11
-1958.981332779754
 21
2379.488186599968
 31
0.0
  0
ARC
  5
156
330
1F
100
AcDbEntity
  8
0-8_戸当
  6
Continuous
 62
     7
370
     9
100
AcDbCircle
 10
-1957.201717325969
 20
2377.073032601429
 30
0.0
 40
3.0
100
AcDbArc
 50
0.0
 51
126.3847868939777
  0
LINE
  5
157
330
1F
100
AcDbEntity
  8
0-8_戸当
  6
Continuous
 62
     7
370
     9
100
AcDbLine
 10
-1972.80171732597
 20
2358.775556847925
 30
0.0
 11
-1972.80171732597
 21
2373.775556847925
 31
0.0
  0
LINE
  5
158
330
1F
100
AcDbEntity
  8
0-8_戸当
  6
Continuous
 62
     7
370
     9
100
AcDbLine
 10
-2008.20171732597
 20
2367.775556847924
 30
0.0
 11
-2008.20171732597
 21
2360.875556847924
 31
0.0
  0
LINE
  5
159
330
1F
100
AcDbEntity
  8
0-8_戸当
  6
Continuous
 62
     7
370
     9
100
AcDbLine
 10
-2008.20171732597
 20
2381.275556847925
 30
0.0
 11
-2008.20171732597
 21
2376.775556847925
 31
0.0
  0
LINE
  5
15A
330
1F
100
AcDbEntity
  8
0-8_戸当
  6
Continuous
 62
     7
370
     9
100
AcDbLine
 10
-2008.20171732597
 20
2376.775556847925
 30
0.0
 11
-1981.201717325969
 21
2376.775556847925
 31
0.0
  0
LINE
  5
15B
330
1F
100
AcDbEntity
  8
0-8_戸当
  6
Continuous
 62
     7
370
     9
100
AcDbLine
 10
-2008.20171732597
 20
2381.275556847925
 30
0.0
 11
-2026.201717325969
 21
2372.275556847925
 31
0.0
  0
LINE
  5
15C
330
1F
100
AcDbEntity
  8
0-8_戸当
  6
Continuous
 62
     7
370
     9
100
AcDbLine
 10
-2026.201717325969
 20
2372.275556847925
 30
0.0
 11
-2008.20171732597
 21
2360.875556847924
 31
0.0
  0
LINE
  5
15D
330
1F
100
AcDbEntity
  8
0-8_戸当
  6
Continuous
 62
     7
370
     9
100
AcDbLine
 10
-1981.201717325969
 20
2376.775556847925
 30
0.0
 11
-1981.201717325969
 21
2500.975556847925
 31
0.0
  0
LINE
  5
15E
330
1F
100
AcDbEntity
  8
0-8_戸当
  6
Continuous
 62
     7
370
     9
100
AcDbLine
 10
-1977.00171732597
 20
2367.775556847924
 30
0.0
 11
-2008.20171732597
 21
2367.775556847924
 31
0.0
  0
LINE
  5
15F
330
1F
100
AcDbEntity
  8
0-8_戸当
  6
Continuous
 62
     7
370
     9
100
AcDbLine
 10
-1977.00171732597
 20
2367.775556847924
 30
0.0
 11
-1977.00171732597
 21
2373.775556847925
 31
0.0
  0
LINE
  5
160
330
1F
100
AcDbEntity
  8
0-8_戸当
  6
Continuous
 62
     7
370
     9
100
AcDbLine
 10
-1977.00171732597
 20
2373.775556847925
 30
0.0
 11
-1972.201717325969
 21
2373.775556847925
 31
0.0
  0
LINE
  5
161
330
1F
100
AcDbEntity
  8
0-8_戸当
  6
Continuous
 62
     7
370
     9
100
AcDbLine
 10
-1972.201717325969
 20
2373.775556847925
 30
0.0
 11
-1972.201717325969
 21
2380.375556847926
 31
0.0
  0
LINE
  5
162
330
1F
100
AcDbEntity
  8
0-8_戸当
  6
Continuous
 62
     7
370
     9
100
AcDbLine
 10
-1972.201717325969
 20
2380.375556847926
 30
0.0
 11
-1958.178971259164
 21
2380.375556847926
 31
0.0
  0
ARC
  5
163
330
1F
100
AcDbEntity
  8
0-8_戸当
  6
Continuous
 62
     7
370
     9
100
AcDbCircle
 10
-1958.178971259164
 20
2375.575556847924
 30
0.0
 40
4.800000000000001
100
AcDbArc
 50
48.59037789072997
 51
90.0
  0
LINE
  5
164
330
1F
100
AcDbEntity
  8
0-8_戸当
  6
Continuous
 62
     7
370
     9
100
AcDbLine
 10
-1948.097040024011
 20
2377.702394601152
 30
0.0
 11
-1933.150655566493
 21
2382.366212203975
 31
0.0
  0
ARC
  5
165
330
1F
100
AcDbEntity
  8
0-8_戸当
  6
Continuous
 62
     7
370
     9
100
AcDbCircle
 10
-1934.401717325969
 20
2386.375556847925
 30
0.0
 40
4.2
100
AcDbArc
 50
287.3298279181163
 51
107.3298297382545
  0
LINE
  5
166
330
1F
100
AcDbEntity
  8
0-8_戸当
  6
Continuous
 62
     7
370
     9
100
AcDbLine
 10
-1951.38887123506
 20
2385.474666259027
 30
0.0
 11
-1935.652779340178
 21
2390.38490141239
 31
0.0
  0
ARC
  5
167
330
1F
100
AcDbEntity
  8
0-8_戸当
  6
Continuous
 62
     7
370
     9
100
AcDbCircle
 10
-1957.44171732597
 20
2381.575556847925
 30
0.0
 40
7.199999999999999
100
AcDbArc
 50
32.78873764965429
 51
90.0
  0
LINE
  5
168
330
1F
100
AcDbEntity
  8
0-8_戸当
  6
Continuous
 62
     7
370
     9
100
AcDbLine
 10
-1972.201717325969
 20
2391.775556847923
 30
0.0
 11
-1972.201717325969
 21
2501.275556847926
 31
0.0
  0
LINE
  5
169
330
1F
100
AcDbEntity
  8
0-8_戸当
  6
Continuous
 62
     7
370
     9
100
AcDbLine
 10
-1969.20171732597
 20
2388.775556847925
 30
0.0
 11
-1957.44171732597
 21
2388.775556847925
 31
0.0
  0
ARC
  5
16A
330
1F
100
AcDbEntity
  8
0-8_戸当
  6
Continuous
 62
     7
370
     9
100
AcDbCircle
 10
-1969.20171732597
 20
2391.775556847923
 30
0.0
 40
3.0
100
AcDbArc
 50
180.0
 51
270.0
  0
ARC
  5
16B
330
1F
100
AcDbEntity
  8
0-8_戸当
  6
Continuous
 62
     7
370
     9
100
AcDbCircle
 10
-1969.20171732597
 20
2501.275556847926
 30
0.0
 40
3.0
100
AcDbArc
 50
90.0
 51
180.0
  0
LINE
  5
16C
330
1F
100
AcDbEntity
  8
0-8_戸当
  6
Continuous
 62
     7
370
     9
100
AcDbLine
 10
-1969.20171732597
 20
2504.275556847925
 30
0.0
 11
-1966.201717325969
 21
2504.275556847925
 31
0.0
  0
LINE
  5
16D
330
1F
100
AcDbEntity
  8
0-8_戸当
  6
Continuous
 62
     7
370
     9
100
AcDbLine
 10
-2026.201717325969
 20
2505.475556847926
 30
0.0
 11
-2008.201717325969
 21
2516.875556847926
 31
0.0
  0
LINE
  5
16E
330
1F
100
AcDbEntity
  8
0-8_戸当
  6
Continuous
 62
     7
370
     9
100
AcDbLine
 10
-2008.201717325969
 20
2496.475556847925
 30
0.0
 11
-2026.201717325969
 21
2505.475556847926
 31
0.0
  0
LINE
  5
16F
330
1F
100
AcDbEntity
  8
0-8_戸当
  6
Continuous
 62
     7
370
     9
100
AcDbLine
 10
-2008.201717325969
 20
2500.975556847925
 30
0.0
 11
-1981.201717325969
 21
2500.975556847925
 31
0.0
  0
LINE
  5
170
330
1F
100
AcDbEntity
  8
0-8_戸当
  6
Continuous
 62
     7
370
     9
100
AcDbLine
 10
-2008.201717325969
 20
2496.475556847925
 30
0.0
 11
-2008.201717325969
 21
2500.975556847925
 31
0.0
  0
LINE
  5
171
330
1F
100
AcDbEntity
  8
0-8_戸当
  6
Continuous
 62
     7
370
     9
100
AcDbLine
 10
-2008.201717325969
 20
2509.975556847925
 30
0.0
 11
-2008.201717325969
 21
2516.875556847926
 31
0.0
  0
ARC
  5
172
330
1F
100
AcDbEntity
  8
0-8_戸当
  6
Continuous
 62
     7
370
     9
100
AcDbCircle
 10
-1966.201717325969
 20
2510.275556847924
 30
0.0
 40
5.999999999999659
100
AcDbArc
 50
270.0
 51
326.5226209498273
  0
LINE
  5
173
330
1F
100
AcDbEntity
  8
0-8_戸当
  6
Continuous
 62
     7
370
     9
100
AcDbLine
 10
-1961.197095321919
 20
2506.965910553141
 30
0.0
 11
-1956.029325342536
 21
2505.091331891209
 31
0.0
  0
ARC
  5
174
330
1F
100
AcDbEntity
  8
0-8_戸当
  6
Continuous
 62
     7
370
     9
100
AcDbCircle
 10
-1954.80171732597
 20
2508.475556847925
 30
0.0
 40
3.600000000000001
100
AcDbArc
 50
246.662347311029
 51
0.0000000000000127
  0
ARC
  5
175
330
1F
100
AcDbEntity
  8
0-8_戸当
  6
Continuous
 62
     7
370
     9
100
AcDbCircle
 10
-1954.80171732597
 20
2508.475556847925
 30
0.0
 40
3.600000000000001
100
AcDbArc
 50
0.0
 51
73.20997440166256
  0
LINE
  5
176
330
1F
100
AcDbEntity
  8
0-8_戸当
  6
Continuous
 62
     7
370
     9
100
AcDbLine
 10
-1981.201717325969
 20
2509.975556847925
 30
0.0
 11
-2008.201717325969
 21
2509.975556847925
 31
0.0
  0
LINE
  5
177
330
1F
100
AcDbEntity
  8
0-8_戸当
  6
Continuous
 62
     7
370
     9
100
AcDbLine
 10
-1981.201717325969
 20
2511.475556847925
 30
0.0
 11
-1966.201717325969
 21
2511.475556847925
 31
0.0
  0
LINE
  5
178
330
1F
100
AcDbEntity
  8
0-8_戸当
  6
Continuous
 62
     7
370
     9
100
AcDbLine
 10
-1981.201717325969
 20
2509.975556847925
 30
0.0
 11
-1981.201717325969
 21
2511.475556847925
 31
0.0
  0
LINE
  5
179
330
1F
100
AcDbEntity
  8
0-8_戸当
  6
Continuous
 62
     7
370
     9
100
AcDbLine
 10
-1963.254442494613
 20
2352.870164055024
 30
0.0
 11
-1933.563109414352
 21
2367.775556847924
 31
0.0
  0
ARC
  5
17A
330
1F
100
AcDbEntity
  8
0-8_戸当
  6
Continuous
 62
     7
370
     9
100
AcDbCircle
 10
-1966.201717325969
 20
2358.775556847925
 30
0.0
 40
6.6
100
AcDbArc
 50
180.0
 51
296.5751535040603
  0
ARC
  5
17B
330
1F
100
AcDbEntity
  8
0-8_戸当
  6
Continuous
 62
     7
370
     9
100
AcDbCircle
 10
-1966.201717325969
 20
2358.775556847925
 30
0.0
 40
10.8
100
AcDbArc
 50
180.0
 51
296.5751535040603
  0
LINE
  5
17C
330
1F
100
AcDbEntity
  8
0-8_戸当
  6
Continuous
 62
     7
370
     9
100
AcDbLine
 10
-1921.201717325969
 20
2517.775556847924
 30
0.0
 11
-1921.201717325969
 21
2370.775556847923
 31
0.0
  0
LINE
  5
17D
330
1F
100
AcDbEntity
  8
0-8_戸当
  6
Continuous
 62
     7
370
     9
100
AcDbLine
 10
-1924.20171732597
 20
2367.775556847924
 30
0.0
 11
-1966.201717325969
 21
2367.775556847924
 31
0.0
  0
LINE
  5
17E
330
1F
100
AcDbEntity
  8
0-8_戸当
  6
Continuous
 62
     7
370
     9
100
AcDbLine
 10
-1930.20171732597
 20
2376.775556847925
 30
0.0
 11
-1930.20171732597
 21
2514.775556847925
 31
0.0
  0
LINE
  5
17F
330
1F
100
AcDbEntity
  8
0-8_戸当
  6
Continuous
 62
     7
370
     9
100
AcDbLine
 10
-1966.201717325969
 20
2367.775556847924
 30
0.0
 11
-1966.201717325969
 21
2371.975556847924
 31
0.0
  0
ARC
  5
180
330
1F
100
AcDbEntity
  8
0-8_戸当
  6
Continuous
 62
     7
370
     9
100
AcDbCircle
 10
-1924.20171732597
 20
2370.775556847923
 30
0.0
 40
3.0
100
AcDbArc
 50
270.0
 51
0.0
  0
LINE
  5
181
330
1F
100
AcDbEntity
  8
0-8_戸当
  6
Continuous
 62
     7
370
     9
100
AcDbLine
 10
-1977.00171732597
 20
2358.775556847925
 30
0.0
 11
-1977.00171732597
 21
2367.775556847924
 31
0.0
  0
LINE
  5
182
330
1F
100
AcDbEntity
  8
0-8_戸当
  6
Continuous
 62
     7
370
     9
100
AcDbLine
 10
-1961.370107362247
 20
2349.116594938981
 30
0.0
 11
-1924.20171732597
 21
2367.775556847924
 31
0.0
  0
ARC
  5
183
330
1F
100
AcDbEntity
  8
0-8_戸当
  6
Continuous
 62
     7
370
     9
100
AcDbCircle
 10
-1927.201717325969
 20
2517.775556847924
 30
0.0
 40
6.0
100
AcDbArc
 50
0.0
 51
90.0
  0
LINE
  5
184
330
1F
100
AcDbEntity
  8
0-8_戸当
  6
Continuous
 62
     7
370
     9
100
AcDbLine
 10
-1927.201717325969
 20
2523.775556847925
 30
0.0
 11
-1979.401717325969
 21
2523.775556847925
 31
0.0
  0
ARC
  5
185
330
1F
100
AcDbEntity
  8
0-8_戸当
  6
Continuous
 62
     7
370
     9
100
AcDbCircle
 10
-1979.401717325969
 20
2521.975556847924
 30
0.0
 40
1.8
100
AcDbArc
 50
90.0
 51
228.6522227803073
  0
LINE
  5
186
330
1F
100
AcDbEntity
  8
0-8_戸当
  6
Continuous
 62
     7
370
     9
100
AcDbLine
 10
-1950.001717325969
 20
2514.775556847925
 30
0.0
 11
-1966.201717325969
 21
2514.775556847925
 31
0.0
  0
LINE
  5
187
330
1F
100
AcDbEntity
  8
0-8_戸当
  6
Continuous
 62
     7
370
     9
100
AcDbLine
 10
-1950.001717325969
 20
2502.775556847924
 30
0.0
 11
-1950.001717325969
 21
2514.775556847925
 31
0.0
  0
LINE
  5
188
330
1F
100
AcDbEntity
  8
0-8_戸当
  6
Continuous
 62
     7
370
     9
100
AcDbLine
 10
-1942.801717325968
 20
2502.775556847924
 30
0.0
 11
-1950.001717325969
 21
2502.775556847924
 31
0.0
  0
LINE
  5
189
330
1F
100
AcDbEntity
  8
0-8_戸当
  6
Continuous
 62
     7
370
     9
100
AcDbLine
 10
-1942.801717325968
 20
2514.775556847925
 30
0.0
 11
-1942.801717325968
 21
2502.775556847924
 31
0.0
  0
LINE
  5
18A
330
1F
100
AcDbEntity
  8
0-8_戸当
  6
Continuous
 62
     7
370
     9
100
AcDbLine
 10
-1930.20171732597
 20
2514.775556847925
 30
0.0
 11
-1942.801717325968
 21
2514.775556847925
 31
0.0
  0
LINE
  5
18B
330
1F
100
AcDbEntity
  8
0-8_戸当
  6
Continuous
 62
     7
370
     9
100
AcDbLine
 10
-1930.20171732597
 20
2376.775556847925
 30
0.0
 11
-1954.20171732597
 21
2376.775556847925
 31
0.0
  0
ARC
  5
18C
330
1F
100
AcDbEntity
  8
0-8_戸当
  6
Continuous
 62
     7
370
     9
100
AcDbCircle
 10
-1950.24171732597
 20
2384.575556847924
 30
0.0
 40
7.199999999999999
100
AcDbArc
 50
228.5903778907278
 51
287.3298260979834
  0
LINE
  5
18D
330
1F
100
AcDbEntity
  8
0-4_枠
  6
Continuous
 62
    92
370
    13
100
AcDbLine
 10
-2032.201717325969
 20
2516.875556847925
 30
0.0
 11
-1981.201614329143
 21
2516.875556847925
 31
0.0
  0
LINE
  5
18E
330
1F
100
AcDbEntity
  8
0-4_枠
  6
Continuous
 62
    92
370
    13
100
AcDbLine
 10
-2032.201717325969
 20
2494.675556847925
 30
0.0
 11
-2032.201717325969
 21
2516.875556847925
 31
0.0
  0
LINE
  5
18F
330
1F
100
AcDbEntity
  8
0-4_枠
  6
Continuous
 62
    92
370
    13
100
AcDbLine
 10
-1981.201717325969
 20
2494.675556847925
 30
0.0
 11
-2032.201717325969
 21
2494.675556847925
 31
0.0
  0
LINE
  5
190
330
1F
100
AcDbEntity
  8
0-4_枠
  6
Continuous
 62
    92
370
    13
100
AcDbLine
 10
-1981.201717325969
 20
2383.075556847924
 30
0.0
 11
-2032.201614329142
 21
2383.075556847924
 31
0.0
  0
LINE
  5
191
330
1F
100
AcDbEntity
  8
0-4_枠
  6
Continuous
 62
    92
370
    13
100
AcDbLine
 10
-2032.201614329142
 20
2360.875556847926
 30
0.0
 11
-1981.201614329143
 21
2360.875556847926
 31
0.0
  0
LINE
  5
192
330
1F
100
AcDbEntity
  8
0-4_枠
  6
Continuous
 62
    92
370
    13
100
AcDbLine
 10
-1981.201717325969
 20
2383.075556847924
 30
0.0
 11
-1981.201717325969
 21
2494.675556847925
 31
0.0
  0
LINE
  5
193
330
1F
100
AcDbEntity
  8
0-4_枠
  6
Continuous
 62
    92
370
    13
100
AcDbLine
 10
-2032.201614329142
 20
2360.875556847926
 30
0.0
 11
-2032.201614329142
 21
2383.075556847924
 31
0.0
  0
LWPOLYLINE
  5
194
330
1F
100
AcDbEntity
  8
0-B_寸法
  6
Continuous
 62
     7
370
     9
100
AcDbPolyline
 90
        4
 70
     1
 43
6.0
 10
-1978.201717325969
 20
3147.016061564037
 42
0.4142135623731
 10
-1981.201717325969
 20
3150.016061564037
 42
0.4142135623731
 10
-1984.201717325969
 20
3147.016061564037
 42
0.4142135623731
 10
-1981.201717325969
 20
3144.016061564037
 42
0.4142135623731
  0
LWPOLYLINE
  5
195
330
1F
100
AcDbEntity
  8
0-B_寸法
  6
Continuous
 62
     7
370
     9
100
AcDbPolyline
 90
        4
 70
     1
 43
6.0
 10
-2122.201717325968
 20
3147.016061564037
 42
0.4142135623731
 10
-2125.201717325968
 20
3150.016061564037
 42
0.4142135623731
 10
-2128.201717325968
 20
3147.016061564037
 42
0.4142135623731
 10
-2125.201717325968
 20
3144.016061564037
 42
0.4142135623731
  0
LWPOLYLINE
  5
196
330
1F
100
AcDbEntity
  8
0-B_寸法
  6
Continuous
 62
     7
370
     9
100
AcDbPolyline
 90
        4
 70
     1
 43
6.0
 10
-1978.201717325969
 20
3005.873667201509
 42
0.4142135623731
 10
-1981.201717325969
 20
3008.873667201509
 42
0.4142135623731
 10
-1984.201717325969
 20
3005.873667201509
 42
0.4142135623731
 10
-1981.201717325969
 20
3002.87366720151
 42
0.4142135623731
  0
LWPOLYLINE
  5
197
330
1F
100
AcDbEntity
  8
0-B_寸法
  6
Continuous
 62
     7
370
     9
100
AcDbPolyline
 90
        4
 70
     1
 43
6.0
 10
-2038.201544118094
 20
3005.873667201509
 42
0.4142135623731
 10
-2041.201544118094
 20
3008.873667201509
 42
0.4142135623731
 10
-2044.201544118094
 20
3005.873667201509
 42
0.4142135623731
 10
-2041.201544118094
 20
3002.87366720151
 42
0.4142135623731
  0
LWPOLYLINE
  5
198
330
1F
100
AcDbEntity
  8
0-B_寸法
  6
Continuous
 62
     7
370
     9
100
AcDbPolyline
 90
        4
 70
     1
 43
6.0
 10
-2092.201573810873
 20
3005.873667201509
 42
0.4142135623731
 10
-2095.201573810873
 20
3008.873667201509
 42
0.4142135623731
 10
-2098.201573810872
 20
3005.873667201509
 42
0.4142135623731
 10
-2095.201573810873
 20
3002.87366720151
 42
0.4142135623731
  0
LWPOLYLINE
  5
199
330
1F
100
AcDbEntity
  8
0-B_寸法
  6
Continuous
 62
     7
370
     9
100
AcDbPolyline
 90
        4
 70
     1
 43
6.0
 10
-2122.201717325968
 20
3005.873667201509
 42
0.4142135623731
 10
-2125.201717325968
 20
3008.873667201509
 42
0.4142135623731
 10
-2128.201717325968
 20
3005.873667201509
 42
0.4142135623731
 10
-2125.201717325968
 20
3002.87366720151
 42
0.4142135623731
  0
LINE
  5
19A
330
1F
100
AcDbEntity
  8
0-B_寸法
  6
Continuous
 62
   120
370
     5
100
AcDbLine
 10
-2125.201717325968
 20
3147.016061564037
 30
0.0
 11
-1981.201717325969
 21
3147.016061564037
 31
0.0
  0
LINE
  5
19B
330
1F
100
AcDbEntity
  8
0-B_寸法
  6
Continuous
 62
   120
370
     5
100
AcDbLine
 10
-1981.201717325969
 20
3147.016061564037
 30
0.0
 11
-1981.201717325969
 21
2852.768662182619
 31
0.0
  0
LINE
  5
19C
330
1F
100
AcDbEntity
  8
0-B_寸法
  6
Continuous
 62
   120
370
     5
100
AcDbLine
 10
-2041.201544118094
 20
3005.873667201509
 30
0.0
 11
-2041.201544118094
 21
2852.768662182619
 31
0.0
  0
LINE
  5
19D
330
1F
100
AcDbEntity
  8
0-B_寸法
  6
Continuous
 62
   120
370
     5
100
AcDbLine
 10
-2095.201573810873
 20
3005.873667201509
 30
0.0
 11
-2095.201573810873
 21
2852.768662182619
 31
0.0
  0
LINE
  5
19E
330
1F
100
AcDbEntity
  8
0-B_寸法
  6
Continuous
 62
   120
370
     5
100
AcDbLine
 10
-2125.201717325968
 20
3147.016061564037
 30
0.0
 11
-2125.201717325968
 21
2852.768662182619
 31
0.0
  0
LINE
  5
19F
330
1F
100
AcDbEntity
  8
0-B_寸法
  6
Continuous
 62
   120
370
     5
100
AcDbLine
 10
-2125.201717325968
 20
3005.873667201509
 30
0.0
 11
-1981.201717325969
 21
3005.873667201509
 31
0.0
  0
LINE
  5
1A0
330
1F
100
AcDbEntity
  8
0-3_仕上げ
  6
Continuous
 62
     7
370
     9
100
AcDbLine
 10
-2455.201717325968
 20
2099.999683277029
 30
0.0
 11
-2155.201717325968
 21
2099.999683277029
 31
0.0
  0
LINE
  5
1A1
330
1F
100
AcDbEntity
  8
0-3_仕上げ
  6
Continuous
 62
     7
370
     9
100
AcDbLine
 10
-2455.201717325968
 20
2777.999683277027
 30
0.0
 11
-2155.201717325968
 21
2777.999683277027
 31
0.0
  0
LWPOLYLINE
  5
1A2
330
1F
100
AcDbEntity
  8
0-B_寸法
  6
Continuous
 62
     7
370
     9
100
AcDbPolyline
 90
        4
 70
     1
 43
6.0
 10
-1305.475282970548
 20
2129.999683277029
 42
0.4142135623731
 10
-1308.475282970548
 20
2132.999683277028
 42
0.4142135623731
 10
-1311.475282970548
 20
2129.999683277029
 42
0.4142135623731
 10
-1308.475282970548
 20
2126.999683277029
 42
0.4142135623731
  0
LWPOLYLINE
  5
1A3
330
1F
100
AcDbEntity
  8
0-B_寸法
  6
Continuous
 62
     7
370
     9
100
AcDbPolyline
 90
        4
 70
     1
 43
6.0
 10
-1305.475282970548
 20
2345.999683277028
 42
0.4142135623731
 10
-1308.475282970548
 20
2348.999683277028
 42
0.4142135623731
 10
-1311.475282970548
 20
2345.999683277028
 42
0.4142135623731
 10
-1308.475282970548
 20
2342.999683277028
 42
0.4142135623731
  0
LINE
  5
1A4
330
1F
100
AcDbEntity
  8
0-B_寸法
  6
Continuous
 62
   120
370
     5
100
AcDbLine
 10
-1308.475282970548
 20
2345.999683277028
 30
0.0
 11
-1308.475282970548
 21
2129.999683277029
 31
0.0
  0
LINE
  5
1A5
330
1F
100
AcDbEntity
  8
0-C_ハッチ
  6
Continuous
 62
   120
370
     5
100
AcDbLine
 10
-2125.201717325961
 20
2762.386661027513
 30
0.0
 11
-2109.588695076458
 21
2777.999683277015
 31
0.0
  0
LINE
  5
1A6
330
1F
100
AcDbEntity
  8
0-C_ハッチ
  6
Continuous
 62
   120
370
     5
100
AcDbLine
 10
-2125.201717325961
 20
2702.989691407812
 30
0.0
 11
-2095.201717325968
 21
2732.989691407803
 31
0.0
  0
LINE
  5
1A7
330
1F
100
AcDbEntity
  8
0-C_ハッチ
  6
Continuous
 62
   120
370
     5
100
AcDbLine
 10
-2041.201717325962
 20
2727.592721788165
 30
0.0
 11
-1993.794755837093
 21
2774.999683277033
 31
0.0
  0
LINE
  5
1A8
330
1F
100
AcDbEntity
  8
0-C_ハッチ
  6
Continuous
 62
   120
370
     5
100
AcDbLine
 10
-2125.201717325961
 20
2643.592721788166
 30
0.0
 11
-2050.794755837112
 21
2717.999683277015
 31
0.0
  0
LINE
  5
1A9
330
1F
100
AcDbEntity
  8
0-C_ハッチ
  6
Continuous
 62
   120
370
     5
100
AcDbLine
 10
-2125.201717325954
 20
2584.195752168469
 30
0.0
 11
-1984.201717325973
 21
2725.195752168451
 31
0.0
  0
LINE
  5
1AA
330
1F
100
AcDbEntity
  8
0-C_ハッチ
  6
Continuous
 62
   120
370
     5
100
AcDbLine
 10
-2125.201717325958
 20
2524.798782548819
 30
0.0
 11
-1984.20171732596
 21
2665.798782548816
 31
0.0
  0
LINE
  5
1AB
330
1F
100
AcDbEntity
  8
0-C_ハッチ
  6
Continuous
 62
   120
370
     5
100
AcDbLine
 10
-2125.201717325958
 20
2465.401812929115
 30
0.0
 11
-1984.201717325966
 21
2606.401812929108
 31
0.0
  0
LINE
  5
1AC
330
1F
100
AcDbEntity
  8
0-C_ハッチ
  6
Continuous
 62
   120
370
     5
100
AcDbLine
 10
-2125.201717325968
 20
2346.607873689813
 30
0.0
 11
-1981.201717325976
 21
2490.607873689806
 31
0.0
  0
LINE
  5
1AD
330
1F
100
AcDbEntity
  8
0-C_ハッチ
  6
Continuous
 62
   120
370
     5
100
AcDbLine
 10
-2125.201717325968
 20
2168.416964830763
 30
0.0
 11
-1984.201717325966
 21
2309.416964830762
 31
0.0
  0
LINE
  5
1AE
330
1F
100
AcDbEntity
  8
0-C_ハッチ
  6
Continuous
 62
   120
370
     5
100
AcDbLine
 10
-2074.222029260049
 20
2159.999683277033
 30
0.0
 11
-1984.20171732596
 21
2250.019995211122
 31
0.0
  0
LINE
  5
1AF
330
1F
100
AcDbEntity
  8
0-C_ハッチ
  6
Continuous
 62
   120
370
     5
100
AcDbLine
 10
-2125.201717325961
 20
2109.01999521112
 30
0.0
 11
-2095.201717325971
 21
2139.019995211111
 31
0.0
  0
LINE
  5
1B0
330
1F
100
AcDbEntity
  8
0-C_ハッチ
  6
Continuous
 62
   120
370
     5
100
AcDbLine
 10
-2041.201717325973
 20
2133.623025591462
 30
0.0
 11
-1984.201717325966
 21
2190.62302559147
 31
0.0
  0
LINE
  5
1B1
330
1F
100
AcDbEntity
  8
0-C_ハッチ
  6
Continuous
 62
   120
370
     5
100
AcDbLine
 10
-2012.428090020706
 20
2102.999683277028
 30
0.0
 11
-1984.201717325966
 21
2131.226055971766
 31
0.0
  0
LINE
  5
1B2
330
1F
100
AcDbEntity
  8
0-4_枠
  6
Continuous
 62
    92
370
    13
100
AcDbLine
 10
-2041.201717325969
 20
2717.999683277027
 30
0.0
 11
-2041.201717325969
 21
2777.999683277027
 31
0.0
  0
LINE
  5
1B3
330
1F
100
AcDbEntity
  8
0-4_枠
  6
Continuous
 62
    92
370
    13
100
AcDbLine
 10
-1984.20171732597
 20
2774.999683277029
 30
0.0
 11
-2041.201717325969
 21
2774.999683277029
 31
0.0
  0
LINE
  5
1B4
330
1F
100
AcDbEntity
  8
0-4_枠
  6
Continuous
 62
    92
370
    13
100
AcDbLine
 10
-1981.201717325969
 20
2777.999683277027
 30
0.0
 11
-2041.201717325969
 21
2777.999683277027
 31
0.0
  0
LINE
  5
1B5
330
1F
100
AcDbEntity
  8
0-4_枠
  6
Continuous
 62
    92
370
    13
100
AcDbLine
 10
-2095.201717325968
 20
2777.999683277027
 30
0.0
 11
-2095.201717325968
 21
2717.999683277027
 31
0.0
  0
LINE
  5
1B6
330
1F
100
AcDbEntity
  8
0-4_枠
  6
Continuous
 62
    92
370
    13
100
AcDbLine
 10
-2125.201717325968
 20
2777.999683277027
 30
0.0
 11
-2095.201717325968
 21
2777.999683277027
 31
0.0
  0
LINE
  5
1B7
330
1F
100
AcDbEntity
  8
0-4_枠
  6
Continuous
 62
    92
370
    13
100
AcDbLine
 10
-2095.201717325968
 20
2717.999683277027
 30
0.0
 11
-2041.201717325969
 21
2717.999683277027
 31
0.0
  0
LINE
  5
1B8
330
1F
100
AcDbEntity
  8
0-4_枠
  6
Continuous
 62
    92
370
    13
100
AcDbLine
 10
-2041.201717325969
 20
2159.999683277029
 30
0.0
 11
-2041.201717325969
 21
2099.999683277029
 31
0.0
  0
LINE
  5
1B9
330
1F
100
AcDbEntity
  8
0-4_枠
  6
Continuous
 62
    92
370
    13
100
AcDbLine
 10
-1984.20171732597
 20
2102.999683277027
 30
0.0
 11
-2041.201717325969
 21
2102.999683277027
 31
0.0
  0
LINE
  5
1BA
330
1F
100
AcDbEntity
  8
0-4_枠
  6
Continuous
 62
    92
370
    13
100
AcDbLine
 10
-1981.201717325969
 20
2099.999683277029
 30
0.0
 11
-2041.201717325969
 21
2099.999683277029
 31
0.0
  0
LINE
  5
1BB
330
1F
100
AcDbEntity
  8
0-4_枠
  6
Continuous
 62
    92
370
    13
100
AcDbLine
 10
-2125.201717325968
 20
2099.999683277029
 30
0.0
 11
-2095.201717325968
 21
2099.999683277029
 31
0.0
  0
LINE
  5
1BC
330
1F
100
AcDbEntity
  8
0-4_枠
  6
Continuous
 62
    92
370
    13
100
AcDbLine
 10
-2095.201717325968
 20
2159.999683277029
 30
0.0
 11
-2095.201717325968
 21
2099.999683277029
 31
0.0
  0
LINE
  5
1BD
330
1F
100
AcDbEntity
  8
0-4_枠
  6
Continuous
 62
    92
370
    13
100
AcDbLine
 10
-2095.201717325968
 20
2159.999683277029
 30
0.0
 11
-2041.201717325969
 21
2159.999683277029
 31
0.0
  0
LINE
  5
1BE
330
1F
100
AcDbEntity
  8
0-6_扉
  6
Continuous
 62
   200
370
    20
100
AcDbLine
 10
-1951.201717325969
 20
2345.999683277028
 30
0.0
 11
-1951.201717325969
 21
2129.999683277029
 31
0.0
  0
LINE
  5
1BF
330
1F
100
AcDbEntity
  8
0-4_枠
  6
Continuous
 62
    92
370
    13
100
AcDbLine
 10
-2125.201717325968
 20
2777.999683277027
 30
0.0
 11
-2125.201717325968
 21
2099.999683277029
 31
0.0
  0
LINE
  5
1C0
330
1F
100
AcDbEntity
  8
0-3_仕上げ
  6
Continuous
 62
     7
370
     9
100
AcDbLine
 10
-2155.201717325968
 20
2777.999683277027
 30
0.0
 11
-2155.201717325968
 21
2099.999683277029
 31
0.0
  0
LINE
  5
1C1
330
1F
100
AcDbEntity
  8
0-B_寸法
  6
Continuous
 62
   120
370
     5
100
AcDbLine
 10
-1658.582995699069
 20
2099.999683277029
 30
0.0
 11
-1658.582995699069
 21
2777.999683277027
 31
0.0
  0
LWPOLYLINE
  5
1C2
330
1F
100
AcDbEntity
  8
0-B_寸法
  6
Continuous
 62
     7
370
     9
100
AcDbPolyline
 90
        4
 70
     1
 43
6.0
 10
-1655.582995699069
 20
2099.999683277029
 42
0.4142135623731
 10
-1658.582995699069
 20
2102.999683277028
 42
0.4142135623731
 10
-1661.582995699069
 20
2099.999683277029
 42
0.4142135623731
 10
-1658.582995699069
 20
2096.999683277029
 42
0.4142135623731
  0
LINE
  5
1C3
330
1F
100
AcDbEntity
  8
0-B_寸法
  6
Continuous
 62
   120
370
     5
100
AcDbLine
 10
-1850.042404020966
 20
2099.999683277029
 30
0.0
 11
-1658.582995699069
 21
2099.999683277029
 31
0.0
  0
LWPOLYLINE
  5
1C4
330
1F
100
AcDbEntity
  8
0-B_寸法
  6
Continuous
 62
     7
370
     9
100
AcDbPolyline
 90
        4
 70
     1
 43
6.0
 10
-1655.582995699069
 20
2777.999683277027
 42
0.4142135623731
 10
-1658.582995699069
 20
2780.999683277027
 42
0.4142135623731
 10
-1661.582995699069
 20
2777.999683277027
 42
0.4142135623731
 10
-1658.582995699069
 20
2774.999683277027
 42
0.4142135623731
  0
LINE
  5
1C5
330
1F
100
AcDbEntity
  8
0-B_寸法
  6
Continuous
 62
   120
370
     5
100
AcDbLine
 10
-1850.042404020966
 20
2777.999683277027
 30
0.0
 11
-1658.582995699069
 21
2777.999683277027
 31
0.0
  0
LINE
  5
1C6
330
1F
100
AcDbEntity
  8
0-7_金物
  6
Continuous
 62
     7
370
     9
100
AcDbLine
 10
-2128.201331319849
 20
2384.999653584248
 30
0.0
 11
-2125.201717325968
 21
2384.999653584248
 31
0.0
  0
LINE
  5
1C7
330
1F
100
AcDbEntity
  8
0-7_金物
  6
Continuous
 62
     7
370
     9
100
AcDbLine
 10
-2128.201331319849
 20
2492.999712969807
 30
0.0
 11
-2125.201717325968
 21
2492.999712969807
 31
0.0
  0
LINE
  5
1C8
330
1F
100
AcDbEntity
  8
0-7_金物
  6
Continuous
 62
     7
370
     9
100
AcDbLine
 10
-2140.201296678275
 20
2528.999980204815
 30
0.0
 11
-2140.201296678275
 21
2349.000128668707
 31
0.0
  0
LINE
  5
1C9
330
1F
100
AcDbEntity
  8
0-7_金物
  6
Continuous
 62
     7
370
     9
100
AcDbLine
 10
-2155.201717325968
 20
2528.999980204815
 30
0.0
 11
-2155.201717325968
 21
2349.000128668707
 31
0.0
  0
LINE
  5
1CA
330
1F
100
AcDbEntity
  8
0-7_金物
  6
Continuous
 62
     7
370
     9
100
AcDbLine
 10
-2140.201296678275
 20
2498.999881228884
 30
0.0
 11
-2128.201331319849
 21
2498.999881228884
 31
0.0
  0
LINE
  5
1CB
330
1F
100
AcDbEntity
  8
0-7_金物
  6
Continuous
 62
     7
370
     9
100
AcDbLine
 10
-2140.201296678275
 20
2379.000227644638
 30
0.0
 11
-2128.201331319849
 21
2379.000227644638
 31
0.0
  0
LINE
  5
1CC
330
1F
100
AcDbEntity
  8
0-7_金物
  6
Continuous
 62
     7
370
     9
100
AcDbLine
 10
-2128.201331319849
 20
2498.999881228884
 30
0.0
 11
-2128.201331319849
 21
2379.000227644638
 31
0.0
  0
LINE
  5
1CD
330
1F
100
AcDbEntity
  8
0-7_金物
  6
Continuous
 62
     7
370
     9
100
AcDbLine
 10
-2155.201717325968
 20
2528.999980204815
 30
0.0
 11
-2140.201296678275
 21
2528.999980204815
 31
0.0
  0
LINE
  5
1CE
330
1F
100
AcDbEntity
  8
0-7_金物
  6
Continuous
 62
     7
370
     9
100
AcDbLine
 10
-2155.201717325968
 20
2349.000128668707
 30
0.0
 11
-2140.201296678275
 21
2349.000128668707
 31
0.0
  0
LINE
  5
1CF
330
1F
100
AcDbEntity
  8
0-6_扉
  6
JWW_DASHED2
 62
   200
370
    20
100
AcDbLine
 10
1857.069878982496
 20
2009.448156947589
 30
0.0
 11
1857.069878982496
 21
1920.000197957027
 31
0.0
  0
LINE
  5
1D0
330
1F
100
AcDbEntity
  8
0-6_扉
  6
JWW_DASHED2
 62
   200
370
    20
100
AcDbLine
 10
1641.069878982496
 20
2009.448156947589
 30
0.0
 11
1641.069878982496
 21
1920.000197957027
 31
0.0
  0
LINE
  5
1D1
330
1F
100
AcDbEntity
  8
0-6_扉
  6
JWW_DASHED2
 62
   200
370
    20
100
AcDbLine
 10
1641.069878982496
 20
2009.448156947589
 30
0.0
 11
1857.069878982496
 21
2009.448156947589
 31
0.0
  0
CIRCLE
  5
1D2
330
1F
100
AcDbEntity
  8
0-7_金物
  6
Continuous
 62
     7
370
     9
100
AcDbCircle
 10
1983.330104162264
 20
2003.739458097259
 30
0.0
 40
30.0
  0
CIRCLE
  5
1D3
330
1F
100
AcDbEntity
  8
0-7_金物
  6
Continuous
 62
     7
370
     9
100
AcDbCircle
 10
1983.330104162264
 20
2003.739458097259
 30
0.0
 40
21.00000000000001
  0
LINE
  5
1D4
330
1F
100
AcDbEntity
  8
0-0_補助線
  6
JWW_HOJO
 62
   120
370
     5
100
AcDbLine
 10
2475.038803120942
 20
2852.768662177449
 30
0.0
 11
-2455.201717519063
 21
2852.768662177449
 31
0.0
  0
LINE
  5
1D5
330
1F
100
AcDbEntity
  8
0-0_補助線
  6
JWW_HOJO
 62
   120
370
     5
100
AcDbLine
 10
2475.038803120942
 20
2237.999683277027
 30
0.0
 11
-2455.201717519063
 21
2237.999683277027
 31
0.0
  0
LINE
  5
1D6
330
1F
100
AcDbEntity
  8
0-0_補助線
  6
JWW_HOJO
 62
   120
370
     5
100
AcDbLine
 10
2475.038803120942
 20
1920.000197957027
 30
0.0
 11
-2455.201717519063
 21
1920.000197957027
 31
0.0
  0
LINE
  5
1D7
330
1F
100
AcDbEntity
  8
0-0_補助線
  6
JWW_HOJO
 62
   120
370
     5
100
AcDbLine
 10
78.91854284331743
 20
1838.999683277026
 30
0.0
 11
78.91854284331743
 21
2636.999683277026
 31
0.0
  0
LINE
  5
1D8
330
1F
100
AcDbEntity
  8
0-0_補助線
  6
JWW_HOJO
 62
   120
370
     5
100
AcDbLine
 10
-41.08145715668257
 20
1838.999683277026
 30
0.0
 11
-41.08145715668257
 21
2636.999683277026
 31
0.0
  0
LINE
  5
1D9
330
1F
100
AcDbEntity
  8
0-B_寸法
  6
Continuous
 62
   120
370
     5
100
AcDbLine
 10
1641.069878982496
 20
1560.000197957027
 30
0.0
 11
1641.069878982496
 21
1920.000197957027
 31
0.0
  0
LWPOLYLINE
  5
1DA
330
1F
100
AcDbEntity
  8
0-B_寸法
  6
Continuous
 62
     7
370
     9
100
AcDbPolyline
 90
        4
 70
     1
 43
6.0
 10
1644.069878982496
 20
1560.000197957027
 42
0.4142135623731
 10
1641.069878982496
 20
1563.000197957027
 42
0.4142135623731
 10
1638.069878982496
 20
1560.000197957027
 42
0.4142135623731
 10
1641.069878982496
 20
1557.000197957027
 42
0.4142135623731
  0
LINE
  5
1DB
330
1F
100
AcDbEntity
  8
0-B_寸法
  6
Continuous
 62
   120
370
     5
100
AcDbLine
 10
-1921.201717325972
 20
1560.000197957027
 30
0.0
 11
1641.069878982496
 21
1560.000197957027
 31
0.0
  0
LINE
  5
1DC
330
1F
100
AcDbEntity
  8
0-B_寸法
  6
Continuous
 62
   120
370
     5
100
AcDbLine
 10
-1921.201717325972
 20
1560.000197957027
 30
0.0
 11
-1921.201717325972
 21
1920.000197957027
 31
0.0
  0
LWPOLYLINE
  5
1DD
330
1F
100
AcDbEntity
  8
0-B_寸法
  6
Continuous
 62
     7
370
     9
100
AcDbPolyline
 90
        4
 70
     1
 43
6.0
 10
-1918.201717325972
 20
1560.000197957027
 42
0.4142135623731
 10
-1921.201717325972
 20
1563.000197957027
 42
0.4142135623731
 10
-1924.201717325972
 20
1560.000197957027
 42
0.4142135623731
 10
-1921.201717325972
 20
1557.000197957027
 42
0.4142135623731
  0
LINE
  5
1DE
330
1F
100
AcDbEntity
  8
0-0_補助線
  6
JWW_HOJO
 62
   120
370
     5
100
AcDbLine
 10
2475.038803120942
 20
1560.000197957027
 30
0.0
 11
-2455.201717519063
 21
1560.000197957027
 31
0.0
  0
LINE
  5
1DF
330
1F
100
AcDbEntity
  8
0-0_補助線
  6
JWW_HOJO
 62
   120
370
     5
100
AcDbLine
 10
2475.038803120942
 20
1350.000197957027
 30
0.0
 11
-2455.201717519063
 21
1350.000197957027
 31
0.0
  0
LINE
  5
1E0
330
1F
100
AcDbEntity
  8
0-0_補助線
  6
JWW_HOJO
 62
   120
370
     5
100
AcDbLine
 10
2475.038803120942
 20
1140.000197957027
 30
0.0
 11
-2455.201717519063
 21
1140.000197957027
 31
0.0
  0
LINE
  5
1E1
330
1F
100
AcDbEntity
  8
0-0_補助線
  6
JWW_HOJO
 62
   120
370
     5
100
AcDbLine
 10
2475.038803120942
 20
930.0001979570266
 30
0.0
 11
-2455.201717519063
 21
930.0001979570266
 31
0.0
  0
LINE
  5
1E2
330
1F
100
AcDbEntity
  8
0-B_寸法
  6
Continuous
 62
   120
370
     5
100
AcDbLine
 10
-2155.201717325961
 20
720.0001979570266
 30
0.0
 11
-2155.201717325961
 21
1920.000197957027
 31
0.0
  0
LINE
  5
1E3
330
1F
100
AcDbEntity
  8
0-B_寸法
  6
Continuous
 62
   120
370
     5
100
AcDbLine
 10
2175.038803012593
 20
720.0001979570266
 30
0.0
 11
2175.038803012593
 21
1920.000197957027
 31
0.0
  0
LINE
  5
1E4
330
1F
100
AcDbEntity
  8
0-B_寸法
  6
Continuous
 62
   120
370
     5
100
AcDbLine
 10
2175.038803012593
 20
720.0001979570266
 30
0.0
 11
-2155.201717325961
 21
720.0001979570266
 31
0.0
  0
LWPOLYLINE
  5
1E5
330
1F
100
AcDbEntity
  8
0-B_寸法
  6
Continuous
 62
     7
370
     9
100
AcDbPolyline
 90
        4
 70
     1
 43
6.0
 10
-2152.201717325961
 20
720.0001979570266
 42
0.4142135623731
 10
-2155.201717325961
 20
723.0001979570266
 42
0.4142135623731
 10
-2158.201717325961
 20
720.0001979570266
 42
0.4142135623731
 10
-2155.201717325961
 20
717.0001979570266
 42
0.4142135623731
  0
LWPOLYLINE
  5
1E6
330
1F
100
AcDbEntity
  8
0-B_寸法
  6
Continuous
 62
     7
370
     9
100
AcDbPolyline
 90
        4
 70
     1
 43
6.0
 10
2178.038803012593
 20
720.0001979570266
 42
0.4142135623731
 10
2175.038803012593
 20
723.0001979570266
 42
0.4142135623731
 10
2172.038803012593
 20
720.0001979570266
 42
0.4142135623731
 10
2175.038803012593
 20
717.0001979570266
 42
0.4142135623731
  0
LINE
  5
1E7
330
1F
100
AcDbEntity
  8
0-1_通り芯
  6
JWW_CENTER1
 62
   120
370
     5
100
AcDbLine
 10
-2155.201717325961
 20
2777.999683277027
 30
0.0
 11
-2155.201717325961
 21
930.0001979570266
 31
0.0
  0
LINE
  5
1E8
330
1F
100
AcDbEntity
  8
0-B_寸法
  6
Continuous
 62
   120
370
     5
100
AcDbLine
 10
-2125.201717325961
 20
930.0001979570266
 30
0.0
 11
-2125.201717325961
 21
1920.000197957027
 31
0.0
  0
LINE
  5
1E9
330
1F
100
AcDbEntity
  8
0-1_通り芯
  6
JWW_CENTER1
 62
   120
370
     5
100
AcDbLine
 10
2175.038803012593
 20
2777.999683277027
 30
0.0
 11
2175.038803012593
 21
930.0001979570266
 31
0.0
  0
LINE
  5
1EA
330
1F
100
AcDbEntity
  8
0-B_寸法
  6
Continuous
 62
   120
370
     5
100
AcDbLine
 10
2145.038803012593
 20
930.0001979570266
 30
0.0
 11
2145.038803012593
 21
1920.000197957027
 31
0.0
  0
LINE
  5
1EB
330
1F
100
AcDbEntity
  8
0-B_寸法
  6
Continuous
 62
   120
370
     5
100
AcDbLine
 10
-2155.201717325961
 20
930.0001979570266
 30
0.0
 11
2175.038803012593
 21
930.0001979570266
 31
0.0
  0
LWPOLYLINE
  5
1EC
330
1F
100
AcDbEntity
  8
0-B_寸法
  6
Continuous
 62
     7
370
     9
100
AcDbPolyline
 90
        4
 70
     1
 43
6.0
 10
-2152.201717325961
 20
930.0001979570266
 42
0.4142135623731
 10
-2155.201717325961
 20
933.0001979570266
 42
0.4142135623731
 10
-2158.201717325961
 20
930.0001979570266
 42
0.4142135623731
 10
-2155.201717325961
 20
927.0001979570266
 42
0.4142135623731
  0
LWPOLYLINE
  5
1ED
330
1F
100
AcDbEntity
  8
0-B_寸法
  6
Continuous
 62
     7
370
     9
100
AcDbPolyline
 90
        4
 70
     1
 43
6.0
 10
-2122.201717325961
 20
930.0001979570266
 42
0.4142135623731
 10
-2125.201717325961
 20
933.0001979570266
 42
0.4142135623731
 10
-2128.201717325961
 20
930.0001979570266
 42
0.4142135623731
 10
-2125.201717325961
 20
927.0001979570266
 42
0.4142135623731
  0
LWPOLYLINE
  5
1EE
330
1F
100
AcDbEntity
  8
0-B_寸法
  6
Continuous
 62
     7
370
     9
100
AcDbPolyline
 90
        4
 70
     1
 43
6.0
 10
2178.038803012593
 20
930.0001979570266
 42
0.4142135623731
 10
2175.038803012593
 20
933.0001979570266
 42
0.4142135623731
 10
2172.038803012593
 20
930.0001979570266
 42
0.4142135623731
 10
2175.038803012593
 20
927.0001979570266
 42
0.4142135623731
  0
LWPOLYLINE
  5
1EF
330
1F
100
AcDbEntity
  8
0-B_寸法
  6
Continuous
 62
     7
370
     9
100
AcDbPolyline
 90
        4
 70
     1
 43
6.0
 10
2148.038803012593
 20
930.0001979570266
 42
0.4142135623731
 10
2145.038803012593
 20
933.0001979570266
 42
0.4142135623731
 10
2142.038803012593
 20
930.0001979570266
 42
0.4142135623731
 10
2145.038803012593
 20
927.0001979570266
 42
0.4142135623731
  0
LINE
  5
1F0
330
1F
100
AcDbEntity
  8
0-B_寸法
  6
Continuous
 62
   120
370
     5
100
AcDbLine
 10
-1981.201717325959
 20
1140.000197957027
 30
0.0
 11
-1981.201717325959
 21
1920.000197957027
 31
0.0
  0
LINE
  5
1F1
330
1F
100
AcDbEntity
  8
0-B_寸法
  6
Continuous
 62
   120
370
     5
100
AcDbLine
 10
2001.038803012593
 20
1140.000197957027
 30
0.0
 11
2001.038803012593
 21
1920.000197957027
 31
0.0
  0
LINE
  5
1F2
330
1F
100
AcDbEntity
  8
0-B_寸法
  6
Continuous
 62
   120
370
     5
100
AcDbLine
 10
-2125.201717325961
 20
1140.000197957027
 30
0.0
 11
2145.038803012593
 21
1140.000197957027
 31
0.0
  0
LWPOLYLINE
  5
1F3
330
1F
100
AcDbEntity
  8
0-B_寸法
  6
Continuous
 62
     7
370
     9
100
AcDbPolyline
 90
        4
 70
     1
 43
6.0
 10
-1978.201717325959
 20
1140.000197957027
 42
0.4142135623731
 10
-1981.201717325959
 20
1143.000197957027
 42
0.4142135623731
 10
-1984.201717325958
 20
1140.000197957027
 42
0.4142135623731
 10
-1981.201717325959
 20
1137.000197957027
 42
0.4142135623731
  0
LWPOLYLINE
  5
1F4
330
1F
100
AcDbEntity
  8
0-B_寸法
  6
Continuous
 62
     7
370
     9
100
AcDbPolyline
 90
        4
 70
     1
 43
6.0
 10
-2122.201717325961
 20
1140.000197957027
 42
0.4142135623731
 10
-2125.201717325961
 20
1143.000197957027
 42
0.4142135623731
 10
-2128.201717325961
 20
1140.000197957027
 42
0.4142135623731
 10
-2125.201717325961
 20
1137.000197957027
 42
0.4142135623731
  0
LWPOLYLINE
  5
1F5
330
1F
100
AcDbEntity
  8
0-B_寸法
  6
Continuous
 62
     7
370
     9
100
AcDbPolyline
 90
        4
 70
     1
 43
6.0
 10
2148.038803012593
 20
1140.000197957027
 42
0.4142135623731
 10
2145.038803012593
 20
1143.000197957027
 42
0.4142135623731
 10
2142.038803012593
 20
1140.000197957027
 42
0.4142135623731
 10
2145.038803012593
 20
1137.000197957027
 42
0.4142135623731
  0
LWPOLYLINE
  5
1F6
330
1F
100
AcDbEntity
  8
0-B_寸法
  6
Continuous
 62
     7
370
     9
100
AcDbPolyline
 90
        4
 70
     1
 43
6.0
 10
2004.038803012593
 20
1140.000197957027
 42
0.4142135623731
 10
2001.038803012593
 20
1143.000197957027
 42
0.4142135623731
 10
1998.038803012593
 20
1140.000197957027
 42
0.4142135623731
 10
2001.038803012593
 20
1137.000197957027
 42
0.4142135623731
  0
LINE
  5
1F7
330
1F
100
AcDbEntity
  8
0-B_寸法
  6
Continuous
 62
   120
370
     5
100
AcDbLine
 10
-1951.201717325959
 20
1350.000197957027
 30
0.0
 11
-1951.201717325959
 21
1920.000197957027
 31
0.0
  0
LINE
  5
1F8
330
1F
100
AcDbEntity
  8
0-B_寸法
  6
Continuous
 62
   120
370
     5
100
AcDbLine
 10
1989.038803012593
 20
1350.000197957027
 30
0.0
 11
1989.038803012593
 21
1920.000197957027
 31
0.0
  0
LINE
  5
1F9
330
1F
100
AcDbEntity
  8
0-B_寸法
  6
Continuous
 62
   120
370
     5
100
AcDbLine
 10
-1981.201717325959
 20
1350.000197957027
 30
0.0
 11
2001.038803012593
 21
1350.000197957027
 31
0.0
  0
LWPOLYLINE
  5
1FA
330
1F
100
AcDbEntity
  8
0-B_寸法
  6
Continuous
 62
     7
370
     9
100
AcDbPolyline
 90
        4
 70
     1
 43
6.0
 10
-1948.201717325959
 20
1350.000197957027
 42
0.4142135623731
 10
-1951.201717325959
 20
1353.000197957027
 42
0.4142135623731
 10
-1954.201717325958
 20
1350.000197957027
 42
0.4142135623731
 10
-1951.201717325959
 20
1347.000197957027
 42
0.4142135623731
  0
LWPOLYLINE
  5
1FB
330
1F
100
AcDbEntity
  8
0-B_寸法
  6
Continuous
 62
     7
370
     9
100
AcDbPolyline
 90
        4
 70
     1
 43
6.0
 10
-1978.201717325959
 20
1350.000197957027
 42
0.4142135623731
 10
-1981.201717325959
 20
1353.000197957027
 42
0.4142135623731
 10
-1984.201717325958
 20
1350.000197957027
 42
0.4142135623731
 10
-1981.201717325959
 20
1347.000197957027
 42
0.4142135623731
  0
LWPOLYLINE
  5
1FC
330
1F
100
AcDbEntity
  8
0-B_寸法
  6
Continuous
 62
     7
370
     9
100
AcDbPolyline
 90
        4
 70
     1
 43
6.0
 10
1992.038803012593
 20
1350.000197957027
 42
0.4142135623731
 10
1989.038803012593
 20
1353.000197957027
 42
0.4142135623731
 10
1986.038803012594
 20
1350.000197957027
 42
0.4142135623731
 10
1989.038803012593
 20
1347.000197957027
 42
0.4142135623731
  0
LWPOLYLINE
  5
1FD
330
1F
100
AcDbEntity
  8
0-B_寸法
  6
Continuous
 62
     7
370
     9
100
AcDbPolyline
 90
        4
 70
     1
 43
6.0
 10
2004.038803012593
 20
1350.000197957027
 42
0.4142135623731
 10
2001.038803012593
 20
1353.000197957027
 42
0.4142135623731
 10
1998.038803012593
 20
1350.000197957027
 42
0.4142135623731
 10
2001.038803012593
 20
1347.000197957027
 42
0.4142135623731
  0
LINE
  5
1FE
330
1F
100
AcDbEntity
  8
0-0_補助線
  6
JWW_HOJO
 62
   120
370
     5
100
AcDbLine
 10
2475.038803120942
 20
720.0001979570266
 30
0.0
 11
2475.038803120942
 21
2852.768662177449
 31
0.0
  0
LINE
  5
1FF
330
1F
100
AcDbEntity
  8
0-0_補助線
  6
JWW_HOJO
 62
   120
370
     5
100
AcDbLine
 10
2475.038803120942
 20
720.0001979570266
 30
0.0
 11
-2455.201717519063
 21
720.0001979570266
 31
0.0
  0
LINE
  5
200
330
1F
100
AcDbEntity
  8
0-0_補助線
  6
JWW_HOJO
 62
   120
370
     5
100
AcDbLine
 10
-2455.201717519063
 20
720.0001979570266
 30
0.0
 11
-2455.201717519063
 21
2852.768662177449
 31
0.0
  0
TEXT
  5
201
330
1F
100
AcDbEntity
  8
0-A_文字
  6
Continuous
 62
     7
370
     9
100
AcDbText
 10
-2455.201717519063
 20
3352.857268863514
 30
0.0
 40
91.44
  1
■横断面図
 41
1.1
  7
ＭＳ ゴシック
100
AcDbText
  0
TEXT
  5
202
330
1F
100
AcDbEntity
  8
0-A_文字
  6
Continuous
 62
     7
370
     9
100
AcDbText
 10
-2522.701717325968
 20
1956.087580400261
 30
0.0
 40
91.44
  1
（ラッチ側）
 41
1.104166666666667
  7
ＭＳ ゴシック
100
AcDbText
  0
TEXT
  5
203
330
1F
100
AcDbEntity
  8
0-A_文字
  6
Continuous
 62
     7
370
     9
100
AcDbText
 10
1981.129399059381
 20
1955.55151584918
 30
0.0
 40
91.44
  1
（丁番側）
 41
1.1
  7
ＭＳ ゴシック
100
AcDbText
  0
TEXT
  5
204
330
1F
100
AcDbEntity
  8
0-A_文字
  6
Continuous
 62
     7
370
     9
100
AcDbText
 10
1644.263367265547
 20
563.193147911102
 30
0.0
 40
68.58
  1
※図示：右吊り元
  7
ＭＳ ゴシック
100
AcDbText
  0
TEXT
  5
205
330
1F
100
AcDbEntity
  8
0-B_寸法
  6
Continuous
 62
     7
370
     0
100
AcDbText
 10
-2117.814225299515
 20
3167.423781332196
 30
0.0
 40
91.44
  1
24
 41
1.0625
  7
ＭＳ ゴシック
100
AcDbText
  0
TEXT
  5
206
330
1F
100
AcDbEntity
  8
0-B_寸法
  6
Continuous
 62
     7
370
     0
100
AcDbText
 10
-1990.323956297887
 20
3029.129313343013
 30
0.0
 40
91.44
  1
10
 41
1.0625
  7
ＭＳ ゴシック
100
AcDbText
  0
TEXT
  5
207
330
1F
100
AcDbEntity
  8
0-B_寸法
  6
Continuous
 62
     7
370
     0
100
AcDbText
 10
-2187.581054997475
 20
3027.163720460136
 30
0.0
 40
91.44
  1
5
  7
ＭＳ ゴシック
100
AcDbText
  0
TEXT
  5
208
330
1F
100
AcDbEntity
  8
0-B_寸法
  6
Continuous
 62
     7
370
     0
100
AcDbText
 10
-2098.201558964482
 20
3025.198127577258
 30
0.0
 40
91.44
  1
9
  7
ＭＳ ゴシック
100
AcDbText
  0
TEXT
  5
209
330
1F
100
AcDbEntity
  8
0-B_寸法
  6
Continuous
 62
     7
370
     0
100
AcDbText
 10
-1693.968964253547
 20
2355.137076243678
 30
0.0
 40
91.44
  1
113
 50
90.0
 41
1.083333333333333
  7
ＭＳ ゴシック
100
AcDbText
  0
TEXT
  5
20A
330
1F
100
AcDbEntity
  8
0-B_寸法
  6
Continuous
 62
     7
370
   211
100
AcDbText
 10
-1340.395282970548
 20
2174.249683277027
 30
0.0
 40
91.44
  1
36
 50
90.0
 41
1.0625
  7
ＭＳ ゴシック
100
AcDbText
  0
TEXT
  5
20B
330
1F
100
AcDbEntity
  8
0-B_寸法
  6
Continuous
 62
     7
370
     0
100
AcDbText
 10
-1946.70171732596
 20
1378.920197957027
 30
0.0
 40
91.44
  1
5
  7
ＭＳ ゴシック
100
AcDbText
  0
TEXT
  5
20C
330
1F
100
AcDbEntity
  8
0-B_寸法
  6
Continuous
 62
     7
370
     0
100
AcDbText
 10
1924.538803012595
 20
1378.920197957027
 30
0.0
 40
91.44
  1
2
  7
ＭＳ ゴシック
100
AcDbText
  0
TEXT
  5
20D
330
1F
100
AcDbEntity
  8
0-B_寸法
  6
Continuous
 62
     7
370
   211
100
AcDbText
 10
-2116.951717325962
 20
1171.920197957027
 30
0.0
 40
91.44
  1
24
 41
1.0625
  7
ＭＳ ゴシック
100
AcDbText
  0
TEXT
  5
20E
330
1F
100
AcDbEntity
  8
0-B_寸法
  6
Continuous
 62
     7
370
   211
100
AcDbText
 10
2009.288803012593
 20
1171.920197957027
 30
0.0
 40
91.44
  1
24
 41
1.0625
  7
ＭＳ ゴシック
100
AcDbText
  0
TEXT
  5
20F
330
1F
100
AcDbEntity
  8
0-B_寸法
  6
Continuous
 62
     7
370
   211
100
AcDbText
 10
-2170.201717325961
 20
961.9201979570265
 30
0.0
 40
91.44
  1
5
  7
ＭＳ ゴシック
100
AcDbText
  0
TEXT
  5
210
330
1F
100
AcDbEntity
  8
0-B_寸法
  6
Continuous
 62
     7
370
   211
100
AcDbText
 10
2130.038803012594
 20
961.9201979570265
 30
0.0
 40
91.44
  1
5
  7
ＭＳ ゴシック
100
AcDbText
  0
LINE
  5
211
330
1F
100
AcDbEntity
  8
0-A_文字
  6
Continuous
 62
    92
370
    13
100
AcDbLine
 10
4083.835838693025
 20
3730.000181455871
 30
0.0
 11
4083.835838693025
 21
2764.000181455872
 31
0.0
  0
LINE
  5
212
330
1F
100
AcDbEntity
  8
0-A_文字
  6
Continuous
 62
    92
370
    13
100
AcDbLine
 10
4083.835838693025
 20
3604.000181455871
 30
0.0
 11
5679.835838693025
 21
3604.000181455871
 31
0.0
  0
LINE
  5
213
330
1F
100
AcDbEntity
  8
0-A_文字
  6
Continuous
 62
    92
370
    13
100
AcDbLine
 10
5679.835838693025
 20
3730.000181455871
 30
0.0
 11
4083.835838693025
 21
3730.000181455871
 31
0.0
  0
LINE
  5
214
330
1F
100
AcDbEntity
  8
0-A_文字
  6
Continuous
 62
    92
370
    13
100
AcDbLine
 10
5679.835838693025
 20
3730.000181455871
 30
0.0
 11
5679.835838693025
 21
2764.000181455872
 31
0.0
  0
LINE
  5
215
330
1F
100
AcDbEntity
  8
0-A_文字
  6
Continuous
 62
    92
370
    13
100
AcDbLine
 10
5679.835838693025
 20
2764.000181455872
 30
0.0
 11
4083.835838693025
 21
2764.000181455872
 31
0.0
  0
LINE
  5
216
330
1F
100
AcDbEntity
  8
0-A_文字
  6
Continuous
 62
    92
370
    13
100
AcDbLine
 10
4881.835838693025
 20
3730.000181455871
 30
0.0
 11
4881.835838693025
 21
2764.000181455872
 31
0.0
  0
LINE
  5
217
330
1F
100
AcDbEntity
  8
0-0_補助線
  6
JWW_HOJO
 62
   120
370
     5
100
AcDbLine
 10
5658.835838693025
 20
3730.000181455871
 30
0.0
 11
5658.835838693025
 21
2764.000181455872
 31
0.0
  0
LINE
  5
218
330
1F
100
AcDbEntity
  8
0-0_補助線
  6
JWW_HOJO
 62
   120
370
     5
100
AcDbLine
 10
4902.835838693025
 20
3730.000181455871
 30
0.0
 11
4902.835838693025
 21
2764.000181455872
 31
0.0
  0
LINE
  5
219
330
1F
100
AcDbEntity
  8
0-8_戸当
  6
Continuous
 62
    40
370
    15
100
AcDbLine
 10
5436.235838693025
 20
3481.846273380329
 30
0.0
 11
5658.835838693025
 21
3481.846273380329
 31
0.0
  0
LINE
  5
21A
330
1F
100
AcDbEntity
  8
0-8_戸当
  6
Continuous
 62
    40
370
    15
100
AcDbLine
 10
5436.235838693025
 20
3481.846273380329
 30
0.0
 11
5436.235838693025
 21
3444.046273380329
 31
0.0
  0
LINE
  5
21B
330
1F
100
AcDbEntity
  8
0-8_戸当
  6
Continuous
 62
    40
370
    15
100
AcDbLine
 10
5125.435838693026
 20
3481.846273380329
 30
0.0
 11
4902.835838693025
 21
3481.846273380329
 31
0.0
  0
LINE
  5
21C
330
1F
100
AcDbEntity
  8
0-8_戸当
  6
Continuous
 62
    40
370
    15
100
AcDbLine
 10
4638.235838693025
 20
3481.846273380329
 30
0.0
 11
4860.835838693025
 21
3481.846273380329
 31
0.0
  0
LINE
  5
21D
330
1F
100
AcDbEntity
  8
0-8_戸当
  6
Continuous
 62
    40
370
    15
100
AcDbLine
 10
4327.435838693025
 20
3481.846273380329
 30
0.0
 11
4327.435838693025
 21
3444.046273380329
 31
0.0
  0
LINE
  5
21E
330
1F
100
AcDbEntity
  8
0-8_戸当
  6
Continuous
 62
    40
370
    15
100
AcDbLine
 10
4327.435838693025
 20
3481.846273380329
 30
0.0
 11
4104.835838693025
 21
3481.846273380329
 31
0.0
  0
LINE
  5
21F
330
1F
100
AcDbEntity
  8
0-0_補助線
  6
JWW_HOJO
 62
   120
370
     5
100
AcDbLine
 10
4860.835838693025
 20
3730.000181455871
 30
0.0
 11
4860.835838693025
 21
2764.000181455872
 31
0.0
  0
LINE
  5
220
330
1F
100
AcDbEntity
  8
0-0_補助線
  6
JWW_HOJO
 62
   120
370
     5
100
AcDbLine
 10
4104.835838693025
 20
3730.000181455871
 30
0.0
 11
4104.835838693025
 21
2764.000181455872
 31
0.0
  0
LINE
  5
221
330
1F
100
AcDbEntity
  8
0-8_戸当
  6
Continuous
 62
    40
370
    15
100
AcDbLine
 10
4104.835838693025
 20
3444.046273380329
 30
0.0
 11
4860.835838693025
 21
3444.046273380329
 31
0.0
  0
LINE
  5
222
330
1F
100
AcDbEntity
  8
0-8_戸当
  6
Continuous
 62
    40
370
    15
100
AcDbLine
 10
4638.235838693025
 20
3481.846273380329
 30
0.0
 11
4638.235838693025
 21
3133.246273380328
 31
0.0
  0
ARC
  5
223
330
1F
100
AcDbEntity
  8
0-8_戸当
  6
Continuous
 62
    40
370
    15
100
AcDbCircle
 10
4638.235838693025
 20
3444.046273380329
 30
0.0
 40
310.8
100
AcDbArc
 50
180.0
 51
270.0
  0
LINE
  5
224
330
1F
100
AcDbEntity
  8
0-8_戸当
  6
Continuous
 62
    40
370
    15
100
AcDbLine
 10
5658.835838693025
 20
3444.046273380329
 30
0.0
 11
4902.835838693025
 21
3444.046273380329
 31
0.0
  0
LINE
  5
225
330
1F
100
AcDbEntity
  8
0-8_戸当
  6
Continuous
 62
    40
370
    15
100
AcDbLine
 10
5125.435838693026
 20
3481.846273380329
 30
0.0
 11
5125.435838693024
 21
3133.246273380328
 31
0.0
  0
ARC
  5
226
330
1F
100
AcDbEntity
  8
0-8_戸当
  6
Continuous
 62
    40
370
    15
100
AcDbCircle
 10
5125.435838693024
 20
3444.046273380329
 30
0.0
 40
310.8
100
AcDbArc
 50
270.0
 51
0.0
  0
ELLIPSE
  5
227
330
1F
100
AcDbEntity
  8
0-8_戸当
  6
Continuous
 62
    92
370
    13
100
AcDbEllipse
 10
5207.192036141518
 20
2972.884428393056
 30
0.0
 11
-17.7763823922528
 21
100.8148742797557
 31
0.0
210
0.0
220
0.0
230
1.0
 40
0.4000000000000001
 41
1.85063327265668
 42
2.442876790075129
  0
ELLIPSE
  5
228
330
1F
100
AcDbEntity
  8
0-8_戸当
  6
Continuous
 62
    92
370
    13
100
AcDbEllipse
 10
5207.192036141518
 20
2972.884428393056
 30
0.0
 11
-17.7763823922528
 21
100.8148742797557
 31
0.0
210
0.0
220
0.0
230
1.0
 40
0.4000000000000001
 41
3.840308517104467
 42
4.432552034522944
  0
ELLIPSE
  5
229
330
1F
100
AcDbEntity
  8
0-8_戸当
  6
Continuous
 62
    92
370
    13
100
AcDbEllipse
 10
5206.772290091618
 20
2975.264926534712
 30
0.0
 11
-14.67024424252691
 21
83.19908946199425
 31
0.0
210
0.0
220
0.0
230
1.0
 40
0.5
 41
4.340591432030095
 42
8.225779182329084
  0
LINE
  5
22A
330
1F
100
AcDbEntity
  8
0-8_戸当
  6
Continuous
 62
    92
370
    13
100
AcDbLine
 10
5246.74191991428
 20
2900.267379069787
 30
0.0
 11
5194.863795824744
 21
2891.119866084259
 31
0.0
  0
LINE
  5
22B
330
1F
100
AcDbEntity
  8
0-8_戸当
  6
Continuous
 62
    92
370
    13
100
AcDbLine
 10
5248.929886952883
 20
2887.858801381833
 30
0.0
 11
5197.051762863347
 21
2878.711288396305
 31
0.0
  0
ELLIPSE
  5
22C
330
1F
100
AcDbEntity
  8
0-8_戸当
  6
Continuous
 62
    92
370
    13
100
AcDbEllipse
 10
5222.990824908115
 20
2883.285044889069
 30
0.0
 11
-7.622927487939132
 21
43.23177007461331
 31
0.0
210
0.0
220
0.0
230
1.0
 40
0.6
 41
1.570796326794897
 42
4.71238898038469
  0
ELLIPSE
  5
22D
330
1F
100
AcDbEntity
  8
0-8_戸当
  6
Continuous
 62
    92
370
    13
100
AcDbEllipse
 10
5361.652805079396
 20
3008.935263882863
 30
0.0
 11
26.49533313827762
 21
98.88192943551533
 31
0.0
210
0.0
220
0.0
230
1.0
 40
0.4
 41
1.85063327265668
 42
2.442876790075129
  0
ELLIPSE
  5
22E
330
1F
100
AcDbEntity
  8
0-8_戸当
  6
Continuous
 62
    92
370
    13
100
AcDbEllipse
 10
5361.652805079396
 20
3008.935263882863
 30
0.0
 11
26.49533313827762
 21
98.88192943551533
 31
0.0
210
0.0
220
0.0
230
1.0
 40
0.4
 41
3.840308517104467
 42
4.432552034522944
  0
ELLIPSE
  5
22F
330
1F
100
AcDbEntity
  8
0-8_戸当
  6
Continuous
 62
    92
370
    13
100
AcDbEllipse
 10
5362.278427952497
 20
3011.270120231655
 30
0.0
 11
21.86569797210526
 21
81.6038957748525
 31
0.0
210
0.0
220
0.0
230
1.0
 40
0.5
 41
4.340591432030095
 42
8.225779182329084
  0
LINE
  5
230
330
1F
100
AcDbEntity
  8
0-8_戸当
  6
Continuous
 62
    92
370
    13
100
AcDbLine
 10
5366.807881561305
 20
2926.407363477469
 30
0.0
 11
5315.924427684911
 21
2940.041543851755
 31
0.0
  0
LINE
  5
231
330
1F
100
AcDbEntity
  8
0-8_戸当
  6
Continuous
 62
    92
370
    13
100
AcDbLine
 10
5363.546761593014
 20
2914.236698066227
 30
0.0
 11
5312.66330771662
 21
2927.870878440513
 31
0.0
  0
ELLIPSE
  5
232
330
1F
100
AcDbEntity
  8
0-8_戸当
  6
Continuous
 62
    92
370
    13
100
AcDbEllipse
 10
5338.105034654818
 20
2921.05378825337
 30
0.0
 11
11.36181697857171
 21
42.40287823032828
 31
0.0
210
0.0
220
0.0
230
1.0
 40
0.6
 41
1.570796326794897
 42
4.71238898038469
  0
LINE
  5
233
330
1F
100
AcDbEntity
  8
0-0_補助線
  6
JWW_HOJO
 62
   120
370
     5
100
AcDbLine
 10
5280.835838693025
 20
3730.000181455871
 30
0.0
 11
5280.835838693025
 21
2764.000181455872
 31
0.0
  0
LINE
  5
234
330
1F
100
AcDbEntity
  8
0-0_補助線
  6
JWW_HOJO
 62
   120
370
     5
100
AcDbLine
 10
4482.835838693024
 20
3730.000181455871
 30
0.0
 11
4482.835838693024
 21
2764.000181455872
 31
0.0
  0
ELLIPSE
  5
235
330
1F
100
AcDbEntity
  8
0-8_戸当
  6
Continuous
 62
    92
370
    13
100
AcDbEllipse
 10
4409.192036141519
 20
2972.884428393056
 30
0.0
 11
-17.7763823922528
 21
100.8148742797557
 31
0.0
210
0.0
220
0.0
230
1.0
 40
0.4000000000000001
 41
1.85063327265668
 42
2.442876790075129
  0
ELLIPSE
  5
236
330
1F
100
AcDbEntity
  8
0-8_戸当
  6
Continuous
 62
    92
370
    13
100
AcDbEllipse
 10
4409.192036141519
 20
2972.884428393056
 30
0.0
 11
-17.7763823922528
 21
100.8148742797557
 31
0.0
210
0.0
220
0.0
230
1.0
 40
0.4000000000000001
 41
3.840308517104467
 42
4.432552034522944
  0
ELLIPSE
  5
237
330
1F
100
AcDbEntity
  8
0-8_戸当
  6
Continuous
 62
    92
370
    13
100
AcDbEllipse
 10
4408.772290091617
 20
2975.264926534712
 30
0.0
 11
-14.67024424252691
 21
83.19908946199425
 31
0.0
210
0.0
220
0.0
230
1.0
 40
0.5
 41
4.340591432030095
 42
8.225779182329084
  0
LINE
  5
238
330
1F
100
AcDbEntity
  8
0-8_戸当
  6
Continuous
 62
    92
370
    13
100
AcDbLine
 10
4448.741919914279
 20
2900.267379069787
 30
0.0
 11
4396.863795824744
 21
2891.119866084259
 31
0.0
  0
LINE
  5
239
330
1F
100
AcDbEntity
  8
0-8_戸当
  6
Continuous
 62
    92
370
    13
100
AcDbLine
 10
4450.929886952883
 20
2887.858801381833
 30
0.0
 11
4399.051762863347
 21
2878.711288396305
 31
0.0
  0
ELLIPSE
  5
23A
330
1F
100
AcDbEntity
  8
0-8_戸当
  6
Continuous
 62
    92
370
    13
100
AcDbEllipse
 10
4424.990824908115
 20
2883.285044889069
 30
0.0
 11
-7.622927487939132
 21
43.23177007461331
 31
0.0
210
0.0
220
0.0
230
1.0
 40
0.6
 41
1.570796326794897
 42
4.71238898038469
  0
ELLIPSE
  5
23B
330
1F
100
AcDbEntity
  8
0-8_戸当
  6
Continuous
 62
    92
370
    13
100
AcDbEllipse
 10
4563.652805079395
 20
3008.935263882863
 30
0.0
 11
26.49533313827762
 21
98.88192943551533
 31
0.0
210
0.0
220
0.0
230
1.0
 40
0.4
 41
1.85063327265668
 42
2.442876790075129
  0
ELLIPSE
  5
23C
330
1F
100
AcDbEntity
  8
0-8_戸当
  6
Continuous
 62
    92
370
    13
100
AcDbEllipse
 10
4563.652805079395
 20
3008.935263882863
 30
0.0
 11
26.49533313827762
 21
98.88192943551533
 31
0.0
210
0.0
220
0.0
230
1.0
 40
0.4
 41
3.840308517104467
 42
4.432552034522944
  0
ELLIPSE
  5
23D
330
1F
100
AcDbEntity
  8
0-8_戸当
  6
Continuous
 62
    92
370
    13
100
AcDbEllipse
 10
4564.278427952496
 20
3011.270120231655
 30
0.0
 11
21.86569797210526
 21
81.6038957748525
 31
0.0
210
0.0
220
0.0
230
1.0
 40
0.5
 41
4.340591432030095
 42
8.225779182329084
  0
LINE
  5
23E
330
1F
100
AcDbEntity
  8
0-8_戸当
  6
Continuous
 62
    92
370
    13
100
AcDbLine
 10
4568.807881561304
 20
2926.407363477469
 30
0.0
 11
4517.92442768491
 21
2940.041543851755
 31
0.0
  0
LINE
  5
23F
330
1F
100
AcDbEntity
  8
0-8_戸当
  6
Continuous
 62
    92
370
    13
100
AcDbLine
 10
4565.546761593013
 20
2914.236698066227
 30
0.0
 11
4514.66330771662
 21
2927.870878440513
 31
0.0
  0
ELLIPSE
  5
240
330
1F
100
AcDbEntity
  8
0-8_戸当
  6
Continuous
 62
    92
370
    13
100
AcDbEllipse
 10
4540.105034654816
 20
2921.05378825337
 30
0.0
 11
11.36181697857171
 21
42.40287823032828
 31
0.0
210
0.0
220
0.0
230
1.0
 40
0.6
 41
1.570796326794897
 42
4.71238898038469
  0
TEXT
  5
241
330
1F
100
AcDbEntity
  8
0-A_文字
  6
Continuous
 62
     7
370
     9
100
AcDbText
 10
4083.835838693027
 20
3776.920181455872
 30
0.0
 40
91.44
  1
■吊り手方向
 41
1.104166666666667
  7
ＭＳ ゴシック
100
AcDbText
  0
TEXT
  5
242
330
1F
100
AcDbEntity
  8
0-A_文字
  6
Continuous
 62
     7
370
     9
100
AcDbText
 10
4332.835838693027
 20
3634.690181455871
 30
0.0
 40
68.58
  1
右吊元
 41
1.111111111111111
  7
ＭＳ ゴシック
100
AcDbText
  0
TEXT
  5
243
330
1F
100
AcDbEntity
  8
0-A_文字
  6
Continuous
 62
     7
370
     9
100
AcDbText
 10
5130.835838693025
 20
3634.690181455871
 30
0.0
 40
68.58
  1
左吊元
 41
1.111111111111111
  7
ＭＳ ゴシック
100
AcDbText
  0
LINE
  5
244
330
1F
100
AcDbEntity
  8
F-0_補助線
  6
JWW_HOJO
 62
   120
370
     5
100
AcDbLine
 10
-6140.081333436773
 20
194.9998020481422
 30
0.0
 11
6159.917676803936
 21
194.9998020481422
 31
0.0
  0
LINE
  5
245
330
1F
100
AcDbEntity
  8
F-0_補助線
  6
JWW_HOJO
 62
   120
370
     5
100
AcDbLine
 10
-5659.999495325861
 20
4424.999604096284
 30
0.0
 11
-5659.999495325861
 21
-4455.0
 31
0.0
  0
LINE
  5
246
330
1F
100
AcDbEntity
  8
F-0_補助線
  6
JWW_HOJO
 62
   120
370
     5
100
AcDbLine
 10
-6140.081333436773
 20
2438.999683277028
 30
0.0
 11
6159.917676803936
 21
2438.999683277028
 31
0.0
  0
LINE
  5
247
330
1F
100
AcDbEntity
  8
F-0_補助線
  6
JWW_HOJO
 62
   120
370
     5
100
AcDbLine
 10
-6140.081333436773
 20
-3159.000197951857
 30
0.0
 11
6159.917676803936
 21
-3159.000197951857
 31
0.0
  0
LINE
  5
248
330
1F
100
AcDbEntity
  8
F-0_補助線
  6
JWW_HOJO
 62
   120
370
     5
100
AcDbLine
 10
-200.0818283164182
 20
-4455.0
 30
0.0
 11
-200.0818283164182
 21
194.9998020481422
 31
0.0
  0
LINE
  5
249
330
1F
100
AcDbEntity
  8
F-0_補助線
  6
JWW_HOJO
 62
   120
370
     5
100
AcDbLine
 10
9.918171683581818
 20
-4455.0
 30
0.0
 11
9.918171683581818
 21
4424.999604096284
 31
0.0
  0
LINE
  5
24A
330
1F
100
AcDbEntity
  8
F-0_補助線
  6
JWW_HOJO
 62
   120
370
     5
100
AcDbLine
 10
219.9181716835818
 20
-4455.0
 30
0.0
 11
219.9181716835818
 21
194.9998020481422
 31
0.0
  0
LINE
  5
24B
330
1F
100
AcDbEntity
  8
F-0_補助線
  6
JWW_HOJO
 62
   120
370
     5
100
AcDbLine
 10
5679.835838693025
 20
4000.000181455871
 30
0.0
 11
5679.835838693025
 21
-4455.0
 31
0.0
  0
LINE
  5
24C
330
1F
100
AcDbEntity
  8
F-0_補助線
  6
JWW_HOJO
 62
   120
370
     5
100
AcDbLine
 10
-6140.081333436773
 20
3730.000181455871
 30
0.0
 11
6159.917676803936
 21
3730.000181455871
 31
0.0
  0
LINE
  5
24D
330
1F
100
AcDbEntity
  8
F-0_補助線
  6
JWW_HOJO
 62
   120
370
     5
100
AcDbLine
 10
-6140.081333436773
 20
4000.000181455871
 30
0.0
 11
6159.917676803936
 21
4000.000181455871
 31
0.0
  0
LINE
  5
24E
330
1F
100
AcDbEntity
  8
7-7_金物
  6
Continuous
 62
     7
370
     9
100
AcDbLine
 10
3255.862863451519
 20
-2844.392781877545
 30
0.0
 11
3285.862863451519
 21
-2844.392781877545
 31
0.0
  0
LINE
  5
24F
330
1F
100
AcDbEntity
  8
7-7_金物
  6
Continuous
 62
     7
370
     9
100
AcDbLine
 10
3081.862863451551
 20
-2844.392781877545
 30
0.0
 11
3111.862863451548
 21
-2844.392781877545
 31
0.0
  0
LINE
  5
250
330
1F
100
AcDbEntity
  8
7-7_金物
  6
Continuous
 62
     7
370
     9
100
AcDbLine
 10
2919.862863451548
 20
-2844.392781877545
 30
0.0
 11
2949.862863451545
 21
-2844.392781877545
 31
0.0
  0
LINE
  5
251
330
1F
100
AcDbEntity
  8
7-7_金物
  6
Continuous
 62
     7
370
     9
100
AcDbLine
 10
2730.862863451549
 20
-2844.392781877545
 30
0.0
 11
2760.862863451546
 21
-2844.392781877545
 31
0.0
  0
LINE
  5
252
330
1F
100
AcDbEntity
  8
7-7_金物
  6
Continuous
 62
     7
370
     9
100
AcDbLine
 10
2541.862863451549
 20
-2844.392781877545
 30
0.0
 11
2571.862863451548
 21
-2844.392781877545
 31
0.0
  0
LINE
  5
253
330
1F
100
AcDbEntity
  8
7-7_金物
  6
Continuous
 62
     7
370
     9
100
AcDbLine
 10
2379.862863451546
 20
-2844.392781877545
 30
0.0
 11
2409.862863451546
 21
-2844.392781877545
 31
0.0
  0
LINE
  5
254
330
1F
100
AcDbEntity
  8
7-7_金物
  6
Continuous
 62
     7
370
     9
100
AcDbLine
 10
2205.862863451526
 20
-2844.392781877545
 30
0.0
 11
2235.862863451526
 21
-2844.392781877545
 31
0.0
  0
LINE
  5
255
330
1F
100
AcDbEntity
  8
7-7_金物
  6
Continuous
 62
     7
370
     9
100
AcDbLine
 10
2919.862863451548
 20
-2784.392781877545
 30
0.0
 11
2760.862863451546
 21
-2784.392781877545
 31
0.0
  0
LINE
  5
256
330
1F
100
AcDbEntity
  8
7-7_金物
  6
Continuous
 62
     7
370
     9
100
AcDbLine
 10
2760.862863451546
 20
-2844.392781877545
 30
0.0
 11
2760.862863451546
 21
-2784.392781877545
 31
0.0
  0
LINE
  5
257
330
1F
100
AcDbEntity
  8
7-7_金物
  6
Continuous
 62
     7
370
     9
100
AcDbLine
 10
3081.862863451551
 20
-2784.392781877545
 30
0.0
 11
2949.862863451545
 21
-2784.392781877545
 31
0.0
  0
LINE
  5
258
330
1F
100
AcDbEntity
  8
7-7_金物
  6
Continuous
 62
     7
370
     9
100
AcDbLine
 10
3195.862863451519
 20
-2784.392781877545
 30
0.0
 11
3111.862863451548
 21
-2784.392781877545
 31
0.0
  0
LINE
  5
259
330
1F
100
AcDbEntity
  8
7-7_金物
  6
Continuous
 62
     7
370
     9
100
AcDbLine
 10
2730.862863451549
 20
-2784.392781877545
 30
0.0
 11
2571.862863451548
 21
-2784.392781877545
 31
0.0
  0
LINE
  5
25A
330
1F
100
AcDbEntity
  8
7-7_金物
  6
Continuous
 62
     7
370
     9
100
AcDbLine
 10
2541.862863451549
 20
-2784.392781877545
 30
0.0
 11
2409.862863451546
 21
-2784.392781877545
 31
0.0
  0
LINE
  5
25B
330
1F
100
AcDbEntity
  8
7-7_金物
  6
Continuous
 62
     7
370
     9
100
AcDbLine
 10
2379.862863451546
 20
-2784.392781877545
 30
0.0
 11
2295.862863451526
 21
-2784.392781877545
 31
0.0
  0
LINE
  5
25C
330
1F
100
AcDbEntity
  8
7-7_金物
  6
Continuous
 62
     7
370
     9
100
AcDbLine
 10
2409.862863451546
 20
-2844.392781877545
 30
0.0
 11
2409.862863451546
 21
-2784.392781877545
 31
0.0
  0
LINE
  5
25D
330
1F
100
AcDbEntity
  8
7-7_金物
  6
Continuous
 62
     7
370
     9
100
AcDbLine
 10
2379.862863451546
 20
-2844.392781877545
 30
0.0
 11
2379.862863451546
 21
-2784.392781877545
 31
0.0
  0
LINE
  5
25E
330
1F
100
AcDbEntity
  8
7-7_金物
  6
Continuous
 62
     7
370
     9
100
AcDbLine
 10
2571.862863451548
 20
-2844.392781877545
 30
0.0
 11
2571.862863451548
 21
-2784.392781877545
 31
0.0
  0
LINE
  5
25F
330
1F
100
AcDbEntity
  8
7-7_金物
  6
Continuous
 62
     7
370
     9
100
AcDbLine
 10
2541.862863451549
 20
-2844.392781877545
 30
0.0
 11
2541.862863451549
 21
-2784.392781877545
 31
0.0
  0
LINE
  5
260
330
1F
100
AcDbEntity
  8
7-7_金物
  6
Continuous
 62
     7
370
     9
100
AcDbLine
 10
2730.862863451549
 20
-2844.392781877545
 30
0.0
 11
2730.862863451549
 21
-2784.392781877545
 31
0.0
  0
LINE
  5
261
330
1F
100
AcDbEntity
  8
7-7_金物
  6
Continuous
 62
     7
370
     9
100
AcDbLine
 10
3081.862863451551
 20
-2844.392781877545
 30
0.0
 11
3081.862863451551
 21
-2784.392781877545
 31
0.0
  0
LINE
  5
262
330
1F
100
AcDbEntity
  8
7-7_金物
  6
Continuous
 62
     7
370
     9
100
AcDbLine
 10
3111.862863451548
 20
-2844.392781877545
 30
0.0
 11
3111.862863451548
 21
-2784.392781877545
 31
0.0
  0
LINE
  5
263
330
1F
100
AcDbEntity
  8
7-7_金物
  6
Continuous
 62
     7
370
     9
100
AcDbLine
 10
2919.862863451548
 20
-2844.392781877545
 30
0.0
 11
2919.862863451548
 21
-2784.392781877545
 31
0.0
  0
LINE
  5
264
330
1F
100
AcDbEntity
  8
7-7_金物
  6
Continuous
 62
     7
370
     9
100
AcDbLine
 10
2949.862863451545
 20
-2844.392781877545
 30
0.0
 11
2949.862863451545
 21
-2784.392781877545
 31
0.0
  0
ARC
  5
265
330
1F
100
AcDbEntity
  8
7-7_金物
  6
Continuous
 62
     7
370
     9
100
AcDbCircle
 10
3195.862863451519
 20
-2844.392781877545
 30
0.0
 40
59.99999999999999
100
AcDbArc
 50
0.0
 51
90.0
  0
ARC
  5
266
330
1F
100
AcDbEntity
  8
7-7_金物
  6
Continuous
 62
     7
370
     9
100
AcDbCircle
 10
2295.862863451526
 20
-2844.392781877545
 30
0.0
 40
59.99999999999999
100
AcDbArc
 50
90.0
 51
180.0
  0
ARC
  5
267
330
1F
100
AcDbEntity
  8
7-7_金物
  6
Continuous
 62
     7
370
     9
100
AcDbCircle
 10
3195.862863451519
 20
-2844.392781877545
 30
0.0
 40
90.0
100
AcDbArc
 50
0.0
 51
90.0
  0
LINE
  5
268
330
1F
100
AcDbEntity
  8
7-7_金物
  6
Continuous
 62
     7
370
     9
100
AcDbLine
 10
3195.862863451519
 20
-2754.392781877545
 30
0.0
 11
2295.862863451526
 21
-2754.392781877545
 31
0.0
  0
ARC
  5
269
330
1F
100
AcDbEntity
  8
7-7_金物
  6
Continuous
 62
     7
370
     9
100
AcDbCircle
 10
2295.862863451526
 20
-2844.392781877545
 30
0.0
 40
90.0
100
AcDbArc
 50
90.0
 51
180.0
  0
LINE
  5
26A
330
1F
100
AcDbEntity
  8
7-B_寸法
  6
Continuous
 62
   120
370
     5
100
AcDbLine
 10
1965.862863451526
 20
-2754.392781877545
 30
0.0
 11
2145.862863451526
 21
-2754.392781877545
 31
0.0
  0
LINE
  5
26B
330
1F
100
AcDbEntity
  8
7-B_寸法
  6
Continuous
 62
   120
370
     5
100
AcDbLine
 10
1965.862863451526
 20
-2844.392781877545
 30
0.0
 11
2145.862863451526
 21
-2844.392781877545
 31
0.0
  0
LWPOLYLINE
  5
26C
330
1F
100
AcDbEntity
  8
7-B_寸法
  6
Continuous
 62
     7
370
     9
100
AcDbPolyline
 90
        4
 70
     1
 43
6.0
 10
1968.862863451525
 20
-2754.392781877545
 42
0.4142135623731
 10
1965.862863451526
 20
-2751.392781877545
 42
0.4142135623731
 10
1962.862863451526
 20
-2754.392781877545
 42
0.4142135623731
 10
1965.862863451526
 20
-2757.392781877545
 42
0.4142135623731
  0
LWPOLYLINE
  5
26D
330
1F
100
AcDbEntity
  8
7-B_寸法
  6
Continuous
 62
     7
370
     9
100
AcDbPolyline
 90
        4
 70
     1
 43
6.0
 10
1968.862863451525
 20
-2844.392781877545
 42
0.4142135623731
 10
1965.862863451526
 20
-2841.392781877545
 42
0.4142135623731
 10
1962.862863451526
 20
-2844.392781877545
 42
0.4142135623731
 10
1965.862863451526
 20
-2847.392781877545
 42
0.4142135623731
  0
LINE
  5
26E
330
1F
100
AcDbEntity
  8
7-B_寸法
  6
Continuous
 62
   120
370
     5
100
AcDbLine
 10
1965.862863451526
 20
-2844.392781877545
 30
0.0
 11
1965.862863451526
 21
-2754.392781877545
 31
0.0
  0
LINE
  5
26F
330
1F
100
AcDbEntity
  8
7-B_寸法
  6
Continuous
 62
   120
370
     5
100
AcDbLine
 10
3285.862863451519
 20
-2544.392781877545
 30
0.0
 11
3285.862863451519
 21
-2694.392781877545
 31
0.0
  0
LINE
  5
270
330
1F
100
AcDbEntity
  8
7-B_寸法
  6
Continuous
 62
   120
370
     5
100
AcDbLine
 10
2205.862863451526
 20
-2544.392781877545
 30
0.0
 11
2205.862863451526
 21
-2694.392781877545
 31
0.0
  0
LWPOLYLINE
  5
271
330
1F
100
AcDbEntity
  8
7-B_寸法
  6
Continuous
 62
     7
370
     9
100
AcDbPolyline
 90
        4
 70
     1
 43
6.0
 10
3288.862863451518
 20
-2544.392781877545
 42
0.4142135623731
 10
3285.862863451519
 20
-2541.392781877545
 42
0.4142135623731
 10
3282.862863451519
 20
-2544.392781877545
 42
0.4142135623731
 10
3285.862863451519
 20
-2547.392781877545
 42
0.4142135623731
  0
LWPOLYLINE
  5
272
330
1F
100
AcDbEntity
  8
7-B_寸法
  6
Continuous
 62
     7
370
     9
100
AcDbPolyline
 90
        4
 70
     1
 43
6.0
 10
2208.862863451525
 20
-2544.392781877545
 42
0.4142135623731
 10
2205.862863451526
 20
-2541.392781877545
 42
0.4142135623731
 10
2202.862863451526
 20
-2544.392781877545
 42
0.4142135623731
 10
2205.862863451526
 20
-2547.392781877545
 42
0.4142135623731
  0
LINE
  5
273
330
1F
100
AcDbEntity
  8
7-B_寸法
  6
Continuous
 62
   120
370
     5
100
AcDbLine
 10
2205.862863451526
 20
-2544.392781877545
 30
0.0
 11
3285.862863451519
 21
-2544.392781877545
 31
0.0
  0
LINE
  5
274
330
1F
100
AcDbEntity
  8
7-1_通り芯
  6
JWW_CENTER1
 62
   120
370
     5
100
AcDbLine
 10
3015.862863451546
 20
-2864.187929934023
 30
0.0
 11
3015.862863451546
 21
-2681.002302957324
 31
0.0
  0
LINE
  5
275
330
1F
100
AcDbEntity
  8
7-1_通り芯
  6
JWW_CENTER1
 62
   120
370
     5
100
AcDbLine
 10
2475.862863451546
 20
-2864.187929934023
 30
0.0
 11
2475.862863451546
 21
-2681.002302957324
 31
0.0
  0
LINE
  5
276
330
1F
100
AcDbEntity
  8
0-A_文字
  6
Continuous
 62
    92
370
    13
100
AcDbLine
 10
3519.918171683582
 20
-3159.000197951856
 30
0.0
 11
3519.918171683582
 21
-290.9999919582046
 31
0.0
  0
LINE
  5
277
330
1F
100
AcDbEntity
  8
0-A_文字
  6
Continuous
 62
    92
370
    13
100
AcDbLine
 10
3519.918171683582
 20
-2190.04154883779
 30
0.0
 11
1719.91817168358
 21
-2190.04154883779
 31
0.0
  0
LINE
  5
278
330
1F
100
AcDbEntity
  8
0-A_文字
  6
Continuous
 62
    92
370
    13
100
AcDbLine
 10
3519.918171683582
 20
-3159.000197951857
 30
0.0
 11
1719.918171683582
 21
-3159.000197951857
 31
0.0
  0
LINE
  5
279
330
1F
100
AcDbEntity
  8
0-4_枠
  6
Continuous
 62
    92
370
    13
100
AcDbLine
 10
2814.771030233651
 20
-1830.041548837792
 30
0.0
 11
2814.771030233651
 21
-770.9999919582042
 31
0.0
  0
LINE
  5
27A
330
1F
100
AcDbEntity
  8
0-4_枠
  6
Continuous
 62
    92
370
    13
100
AcDbLine
 10
2598.771030233652
 20
-1830.041548837792
 30
0.0
 11
2598.771030233652
 21
-770.9999919582042
 31
0.0
  0
LINE
  5
27B
330
1F
100
AcDbEntity
  8
0-1_通り芯
  6
JWW_CENTER1
 62
   120
370
     5
100
AcDbLine
 10
2505.771030233651
 20
-710.9999919582042
 30
0.0
 11
2505.771030233651
 21
-1890.041548837792
 31
0.0
  0
TEXT
  5
27C
330
1F
100
AcDbEntity
  8
0-A_文字
  6
Continuous
 62
     7
370
     0
100
AcDbText
 10
2199.91817168359
 20
-667.6284640340765
 30
0.0
 40
91.44
  1
壁(枠)センター
  7
ＭＳ ゴシック
100
AcDbText
  0
TEXT
  5
27D
330
1F
100
AcDbEntity
  8
0-A_文字
  6
Continuous
 62
     7
370
     9
100
AcDbText
 10
2897.665313521296
 20
-924.089976092817
 30
0.0
 40
91.44
  1
（ドア側）
  7
ＭＳ ゴシック
100
AcDbText
  0
TEXT
  5
27E
330
1F
100
AcDbEntity
  8
0-A_文字
  6
Continuous
 62
     7
370
     0
100
AcDbText
 10
2072.418171683584
 20
-1513.409081773916
 30
0.0
 40
91.44
  1
床
  7
ＭＳ ゴシック
100
AcDbText
  0
TEXT
  5
27F
330
1F
100
AcDbEntity
  8
0-A_文字
  6
Continuous
 62
     7
370
     0
100
AcDbText
 10
3047.418171683585
 20
-1513.409081773916
 30
0.0
 40
91.44
  1
床
  7
ＭＳ ゴシック
100
AcDbText
  0
TEXT
  5
280
330
1F
100
AcDbEntity
  8
7-B_寸法
  6
Continuous
 62
     7
370
   211
100
AcDbText
 10
2682.112863451522
 20
-2512.472781877545
 30
0.0
 40
91.44
  1
36
 41
1.0625
  7
ＭＳ ゴシック
100
AcDbText
  0
TEXT
  5
281
330
1F
100
AcDbEntity
  8
7-B_寸法
  6
Continuous
 62
     7
370
   211
100
AcDbText
 10
1933.942863451525
 20
-2829.392781877545
 30
0.0
 40
91.44
  1
3
 50
90.0
  7
ＭＳ ゴシック
100
AcDbText
  0
TEXT
  5
282
330
1F
100
AcDbEntity
  8
0-A_文字
  6
Continuous
 62
     7
370
     0
100
AcDbText
 10
2115.862863451515
 20
-2143.12154883779
 30
0.0
 40
91.44
  1
下枠詳細図 (S=1/1)
  7
ＭＳ ゴシック
100
AcDbText
  0
LWPOLYLINE
  5
283
330
1F
100
AcDbEntity
  8
0-B_寸法
  6
Continuous
 62
     7
370
     9
100
AcDbPolyline
 90
        4
 70
     1
 43
6.0
 10
2508.771030233651
 20
-1129.329598735503
 42
0.4142135623731
 10
2505.771030233651
 20
-1126.329598735502
 42
0.4142135623731
 10
2502.771030233651
 20
-1129.329598735503
 42
0.4142135623731
 10
2505.771030233651
 20
-1132.329598735503
 42
0.4142135623731
  0
LWPOLYLINE
  5
284
330
1F
100
AcDbEntity
  8
0-B_寸法
  6
Continuous
 62
     7
370
     9
100
AcDbPolyline
 90
        4
 70
     1
 43
6.0
 10
2601.771030233652
 20
-1129.329598735503
 42
0.4142135623731
 10
2598.771030233652
 20
-1126.329598735502
 42
0.4142135623731
 10
2595.771030233652
 20
-1129.329598735503
 42
0.4142135623731
 10
2598.771030233652
 20
-1132.329598735503
 42
0.4142135623731
  0
LINE
  5
285
330
1F
100
AcDbEntity
  8
0-B_寸法
  6
Continuous
 62
   120
370
     5
100
AcDbLine
 10
2598.771030233652
 20
-1329.137910111421
 30
0.0
 11
2814.771030233651
 21
-1329.137910111421
 31
0.0
  0
LWPOLYLINE
  5
286
330
1F
100
AcDbEntity
  8
0-B_寸法
  6
Continuous
 62
     7
370
     9
100
AcDbPolyline
 90
        4
 70
     1
 43
6.0
 10
2601.771030233652
 20
-1329.137910111421
 42
0.4142135623731
 10
2598.771030233652
 20
-1326.137910111421
 42
0.4142135623731
 10
2595.771030233652
 20
-1329.137910111421
 42
0.4142135623731
 10
2598.771030233652
 20
-1332.137910111421
 42
0.4142135623731
  0
LWPOLYLINE
  5
287
330
1F
100
AcDbEntity
  8
0-B_寸法
  6
Continuous
 62
     7
370
     9
100
AcDbPolyline
 90
        4
 70
     1
 43
6.0
 10
2817.771030233651
 20
-1329.137910111421
 42
0.4142135623731
 10
2814.771030233651
 20
-1326.137910111421
 42
0.4142135623731
 10
2811.771030233652
 20
-1329.137910111421
 42
0.4142135623731
 10
2814.771030233651
 20
-1332.137910111421
 42
0.4142135623731
  0
TEXT
  5
288
330
1F
100
AcDbEntity
  8
0-B_寸法
  6
Continuous
 62
     7
370
   211
100
AcDbText
 10
2643.021030233651
 20
-1297.217910111421
 30
0.0
 40
91.44
  1
36
 41
1.0625
  7
ＭＳ ゴシック
100
AcDbText
  0
TEXT
  5
289
330
1F
100
AcDbEntity
  8
0-B_寸法
  6
Continuous
 62
     7
370
   211
100
AcDbText
 10
2214.882400178516
 20
-1097.409598735503
 30
0.0
 40
91.44
  1
15.5
 41
1.09375
  7
ＭＳ ゴシック
100
AcDbText
  0
LINE
  5
28A
330
1F
100
AcDbEntity
  8
0-B_寸法
  6
Continuous
 62
   120
370
     5
100
AcDbLine
 10
2193.129238956176
 20
-1129.329598735503
 30
0.0
 11
2598.771030233652
 21
-1129.329598735503
 31
0.0
  0
LINE
  5
28B
330
1F
100
AcDbEntity
  8
0-3_仕上げ
  6
Continuous
 62
   120
370
     5
100
AcDbLine
 10
1959.918171683585
 20
-970.808303334121
 30
0.0
 11
2598.771030233652
 21
-970.808303334121
 31
0.0
  0
LINE
  5
28C
330
1F
100
AcDbEntity
  8
0-3_仕上げ
  6
Continuous
 62
   120
370
     5
100
AcDbLine
 10
1959.918171683585
 20
-1170.616614710039
 30
0.0
 11
2598.771030233652
 21
-1170.616614710039
 31
0.0
  0
LINE
  5
28D
330
1F
100
AcDbEntity
  8
0-3_仕上げ
  6
Continuous
 62
   120
370
     5
100
AcDbLine
 10
1959.918171683585
 20
-1370.424926085958
 30
0.0
 11
2598.771030233652
 21
-1370.424926085958
 31
0.0
  0
LINE
  5
28E
330
1F
100
AcDbEntity
  8
0-3_仕上げ
  6
Continuous
 62
   120
370
     5
100
AcDbLine
 10
1959.918171683585
 20
-1570.233237461875
 30
0.0
 11
2598.771030233652
 21
-1570.233237461875
 31
0.0
  0
LINE
  5
28F
330
1F
100
AcDbEntity
  8
0-3_仕上げ
  6
Continuous
 62
   120
370
     5
100
AcDbLine
 10
1959.918171683585
 20
-1770.041548837792
 30
0.0
 11
2598.771030233652
 21
-1770.041548837792
 31
0.0
  0
LINE
  5
290
330
1F
100
AcDbEntity
  8
0-3_仕上げ
  6
Continuous
 62
   120
370
     5
100
AcDbLine
 10
2814.771030233651
 20
-970.808303334121
 30
0.0
 11
3279.918171683584
 21
-970.808303334121
 31
0.0
  0
LINE
  5
291
330
1F
100
AcDbEntity
  8
0-3_仕上げ
  6
Continuous
 62
   120
370
     5
100
AcDbLine
 10
2814.771030233651
 20
-1170.616614710039
 30
0.0
 11
3279.918171683584
 21
-1170.616614710039
 31
0.0
  0
LINE
  5
292
330
1F
100
AcDbEntity
  8
0-3_仕上げ
  6
Continuous
 62
   120
370
     5
100
AcDbLine
 10
2814.771030233651
 20
-1370.424926085958
 30
0.0
 11
3279.918171683584
 21
-1370.424926085958
 31
0.0
  0
LINE
  5
293
330
1F
100
AcDbEntity
  8
0-3_仕上げ
  6
Continuous
 62
   120
370
     5
100
AcDbLine
 10
2814.771030233651
 20
-1570.233237461875
 30
0.0
 11
3279.918171683584
 21
-1570.233237461875
 31
0.0
  0
LINE
  5
294
330
1F
100
AcDbEntity
  8
0-3_仕上げ
  6
Continuous
 62
   120
370
     5
100
AcDbLine
 10
2814.771030233651
 20
-1770.041548837792
 30
0.0
 11
3279.918171683584
 21
-1770.041548837792
 31
0.0
  0
TEXT
  5
295
330
1F
100
AcDbEntity
  8
0-A_文字
  6
Continuous
 62
     7
370
     9
100
AcDbText
 10
1839.918171683582
 20
-424.0799919582042
 30
0.0
 40
91.44
  1
床直付けレール取付位置目安
 41
1.0
  7
ＭＳ ゴシック
100
AcDbText
  0
LINE
  5
296
330
1F
100
AcDbEntity
  8
0-A_文字
  6
Continuous
 62
    92
370
    13
100
AcDbLine
 10
1719.918171683582
 20
-290.9999919582046
 30
0.0
 11
3519.918171683582
 21
-290.9999919582046
 31
0.0
  0
LINE
  5
297
330
1F
100
AcDbEntity
  8
0-A_文字
  6
Continuous
 62
    92
370
    13
100
AcDbLine
 10
3519.918171683579
 20
-470.9999919582046
 30
0.0
 11
1719.918171683582
 21
-470.9999919582046
 31
0.0
  0
LINE
  5
298
330
1F
100
AcDbEntity
  8
0-4_枠
  6
Continuous
 62
    92
370
    13
100
AcDbLine
 10
219.9181716835818
 20
-2010.041548837792
 30
0.0
 11
219.9181716835818
 21
-290.9999919582046
 31
0.0
  0
TEXT
  5
299
330
1F
100
AcDbEntity
  8
0-4_枠
  6
Continuous
 62
     7
370
     9
100
AcDbText
 10
549.9181716835818
 20
-424.0799919582046
 30
0.0
 40
91.44
  1
竪枠下端加工図
  7
ＭＳ ゴシック
100
AcDbText
  0
LINE
  5
29A
330
1F
100
AcDbEntity
  8
0-4_枠
  6
Continuous
 62
    92
370
    13
100
AcDbLine
 10
1719.918171683582
 20
-470.9999919582046
 30
0.0
 11
219.9181716835818
 21
-470.9999919582046
 31
0.0
  0
LINE
  5
29B
330
1F
100
AcDbEntity
  8
0-4_枠
  6
Continuous
 62
    92
370
    13
100
AcDbLine
 10
1719.918171683582
 20
-290.9999919582046
 30
0.0
 11
219.9181716835818
 21
-290.9999919582046
 31
0.0
  0
LINE
  5
29C
330
1F
100
AcDbEntity
  8
0-4_枠
  6
Continuous
 62
   120
370
     5
100
AcDbLine
 10
663.9181716835668
 20
-661.5962582829329
 30
0.0
 11
663.9181716835668
 21
-811.5962582829329
 31
0.0
  0
LWPOLYLINE
  5
29D
330
1F
100
AcDbEntity
  8
0-4_枠
  6
Continuous
 62
     7
370
     9
100
AcDbPolyline
 90
        4
 70
     1
 43
6.0
 10
666.9181716835668
 20
-661.5962582829329
 42
0.4142135623731
 10
663.9181716835668
 20
-658.5962582829328
 42
0.4142135623731
 10
660.9181716835668
 20
-661.5962582829329
 42
0.4142135623731
 10
663.9181716835668
 20
-664.5962582829329
 42
0.4142135623731
  0
LINE
  5
29E
330
1F
100
AcDbEntity
  8
0-4_枠
  6
Continuous
 62
   120
370
     5
100
AcDbLine
 10
663.9181716835668
 20
-661.5962582829329
 30
0.0
 11
1341.918171683567
 21
-661.5962582829329
 31
0.0
  0
LINE
  5
29F
330
1F
100
AcDbEntity
  8
0-4_枠
  6
Continuous
 62
   120
370
     5
100
AcDbLine
 10
1341.918171683567
 20
-661.5962582829329
 30
0.0
 11
1341.918171683567
 21
-811.5962582829329
 31
0.0
  0
LWPOLYLINE
  5
2A0
330
1F
100
AcDbEntity
  8
0-4_枠
  6
Continuous
 62
     7
370
     9
100
AcDbPolyline
 90
        4
 70
     1
 43
6.0
 10
1344.918171683568
 20
-661.5962582829329
 42
0.4142135623731
 10
1341.918171683567
 20
-658.5962582829328
 42
0.4142135623731
 10
1338.918171683567
 20
-661.5962582829329
 42
0.4142135623731
 10
1341.918171683567
 20
-664.5962582829329
 42
0.4142135623731
  0
TEXT
  5
2A1
330
1F
100
AcDbEntity
  8
0-4_枠
  6
Continuous
 62
     7
370
   211
100
AcDbText
 10
912.9181716835672
 20
-629.676258282933
 30
0.0
 40
91.44
  1
113
  7
ＭＳ ゴシック
100
AcDbText
  0
LWPOLYLINE
  5
2A2
330
1F
100
AcDbEntity
  8
0-4_枠
  6
Continuous
 62
     7
370
     9
100
AcDbPolyline
 90
        4
 70
     1
 43
6.0
 10
474.571530703921
 20
-1725.111910553612
 42
0.4142135623731
 10
471.571530703921
 20
-1722.111910553612
 42
0.4142135623731
 10
468.571530703921
 20
-1725.111910553612
 42
0.4142135623731
 10
471.571530703921
 20
-1728.111910553612
 42
0.4142135623731
  0
LINE
  5
2A3
330
1F
100
AcDbEntity
  8
0-4_枠
  6
Continuous
 62
   120
370
     5
100
AcDbLine
 10
471.571530703921
 20
-1725.111910553612
 30
0.0
 11
591.571530703921
 21
-1725.111910553612
 31
0.0
  0
LINE
  5
2A4
330
1F
100
AcDbEntity
  8
0-4_枠
  6
Continuous
 62
    92
370
    13
100
AcDbLine
 10
663.9181716835668
 20
-1725.111910553612
 30
0.0
 11
1341.918171683567
 21
-1725.111910553612
 31
0.0
  0
LINE
  5
2A5
330
1F
100
AcDbEntity
  8
0-4_枠
  6
Continuous
 62
    92
370
    13
100
AcDbLine
 10
663.9181716835668
 20
-1695.111910553612
 30
0.0
 11
1341.918171683567
 21
-1695.111910553612
 31
0.0
  0
LINE
  5
2A6
330
1F
100
AcDbEntity
  8
0-4_枠
  6
Continuous
 62
     7
370
     9
100
AcDbLine
 10
852.2014092338355
 20
-1715.644423078775
 30
0.0
 11
874.683542707773
 21
-1653.801747023699
 31
0.0
  0
LINE
  5
2A7
330
1F
100
AcDbEntity
  8
0-4_枠
  6
Continuous
 62
     7
370
     9
100
AcDbLine
 10
852.2014092338355
 20
-1715.644423078775
 30
0.0
 11
1030.717469321527
 21
-1468.683354938786
 31
0.0
  0
TEXT
  5
2A8
330
1F
100
AcDbEntity
  8
0-4_枠
  6
Continuous
 62
     7
370
     0
100
AcDbText
 10
820.6934849444889
 20
-1445.504916740467
 30
0.0
 40
91.44
  1
現場ｶｯﾄ
  7
ＭＳ ゴシック
100
AcDbText
  0
LINE
  5
2A9
330
1F
100
AcDbEntity
  8
0-4_枠
  6
Continuous
 62
   120
370
     5
100
AcDbLine
 10
471.571530703921
 20
-1695.111910553612
 30
0.0
 11
591.571530703921
 21
-1695.111910553612
 31
0.0
  0
LWPOLYLINE
  5
2AA
330
1F
100
AcDbEntity
  8
0-4_枠
  6
Continuous
 62
     7
370
     9
100
AcDbPolyline
 90
        4
 70
     1
 43
6.0
 10
474.571530703921
 20
-1695.111910553612
 42
0.4142135623731
 10
471.571530703921
 20
-1692.111910553612
 42
0.4142135623731
 10
468.571530703921
 20
-1695.111910553612
 42
0.4142135623731
 10
471.571530703921
 20
-1698.111910553612
 42
0.4142135623731
  0
TEXT
  5
2AB
330
1F
100
AcDbEntity
  8
0-4_枠
  6
Continuous
 62
     7
370
   211
100
AcDbText
 10
439.651530703921
 20
-1737.86191055361
 30
0.0
 40
91.44
  1
5
 50
90.0
  7
ＭＳ ゴシック
100
AcDbText
  0
LINE
  5
2AC
330
1F
100
AcDbEntity
  8
0-4_枠
  6
Continuous
 62
   120
370
     5
100
AcDbLine
 10
471.571530703921
 20
-1725.111910553612
 30
0.0
 11
471.571530703921
 21
-1695.111910553612
 31
0.0
  0
LINE
  5
2AD
330
1F
100
AcDbEntity
  8
0-4_枠
  6
JWW_DASHED1
 62
   120
370
     5
100
AcDbLine
 10
663.9181716835668
 20
-1721.696211544507
 30
0.0
 11
690.5024726744593
 21
-1695.111910553612
 31
0.0
  0
LINE
  5
2AE
330
1F
100
AcDbEntity
  8
0-4_枠
  6
JWW_DASHED1
 62
   120
370
     5
100
AcDbLine
 10
1296.898575742425
 20
-1725.111910553598
 30
0.0
 11
1326.89857574241
 21
-1695.111910553612
 31
0.0
  0
LINE
  5
2AF
330
1F
100
AcDbEntity
  8
0-4_枠
  6
JWW_DASHED1
 62
   120
370
     5
100
AcDbLine
 10
1254.472168871218
 20
-1725.111910553605
 30
0.0
 11
1284.47216887121
 21
-1695.111910553612
 31
0.0
  0
LINE
  5
2B0
330
1F
100
AcDbEntity
  8
0-4_枠
  6
JWW_DASHED1
 62
   120
370
     5
100
AcDbLine
 10
702.9288795456586
 20
-1725.111910553612
 30
0.0
 11
732.9288795456551
 21
-1695.111910553612
 31
0.0
  0
LINE
  5
2B1
330
1F
100
AcDbEntity
  8
0-4_枠
  6
JWW_DASHED1
 62
   120
370
     5
100
AcDbLine
 10
745.3552864168518
 20
-1725.111910553612
 30
0.0
 11
775.355286416851
 21
-1695.111910553612
 31
0.0
  0
LINE
  5
2B2
330
1F
100
AcDbEntity
  8
0-4_枠
  6
JWW_DASHED1
 62
   120
370
     5
100
AcDbLine
 10
787.7816932880586
 20
-1725.111910553605
 30
0.0
 11
817.781693288051
 21
-1695.111910553612
 31
0.0
  0
LINE
  5
2B3
330
1F
100
AcDbEntity
  8
0-4_枠
  6
JWW_DASHED1
 62
   120
370
     5
100
AcDbLine
 10
830.2081001592381
 20
-1725.111910553612
 30
0.0
 11
860.2081001592423
 21
-1695.111910553612
 31
0.0
  0
LINE
  5
2B4
330
1F
100
AcDbEntity
  8
0-4_枠
  6
JWW_DASHED1
 62
   120
370
     5
100
AcDbLine
 10
876.0502060395464
 20
-1721.696211544507
 30
0.0
 11
902.634507030439
 21
-1695.111910553612
 31
0.0
  0
LINE
  5
2B5
330
1F
100
AcDbEntity
  8
0-4_枠
  6
JWW_DASHED1
 62
   120
370
     5
100
AcDbLine
 10
915.0609139016382
 20
-1725.111910553612
 30
0.0
 11
945.0609139016348
 21
-1695.111910553612
 31
0.0
  0
LINE
  5
2B6
330
1F
100
AcDbEntity
  8
0-4_枠
  6
JWW_DASHED1
 62
   120
370
     5
100
AcDbLine
 10
957.4873207728314
 20
-1725.111910553612
 30
0.0
 11
987.4873207728306
 21
-1695.111910553612
 31
0.0
  0
LINE
  5
2B7
330
1F
100
AcDbEntity
  8
0-4_枠
  6
JWW_DASHED1
 62
   120
370
     5
100
AcDbLine
 10
999.9137276440382
 20
-1725.111910553605
 30
0.0
 11
1029.913727644031
 21
-1695.111910553612
 31
0.0
  0
LINE
  5
2B8
330
1F
100
AcDbEntity
  8
0-4_枠
  6
JWW_DASHED1
 62
   120
370
     5
100
AcDbLine
 10
1042.340134515245
 20
-1725.111910553598
 30
0.0
 11
1072.340134515231
 21
-1695.111910553612
 31
0.0
  0
LINE
  5
2B9
330
1F
100
AcDbEntity
  8
0-4_枠
  6
JWW_DASHED1
 62
   120
370
     5
100
AcDbLine
 10
1084.766541386418
 20
-1725.111910553612
 30
0.0
 11
1114.766541386422
 21
-1695.111910553612
 31
0.0
  0
LINE
  5
2BA
330
1F
100
AcDbEntity
  8
0-4_枠
  6
JWW_DASHED1
 62
   120
370
     5
100
AcDbLine
 10
1130.608647266726
 20
-1721.696211544507
 30
0.0
 11
1157.192948257619
 21
-1695.111910553612
 31
0.0
  0
LINE
  5
2BB
330
1F
100
AcDbEntity
  8
0-4_枠
  6
JWW_DASHED1
 62
   120
370
     5
100
AcDbLine
 10
1169.619355128818
 20
-1725.111910553612
 30
0.0
 11
1199.619355128814
 21
-1695.111910553612
 31
0.0
  0
LINE
  5
2BC
330
1F
100
AcDbEntity
  8
0-4_枠
  6
JWW_DASHED1
 62
   120
370
     5
100
AcDbLine
 10
1212.045762000011
 20
-1725.111910553612
 30
0.0
 11
1242.04576200001
 21
-1695.111910553612
 31
0.0
  0
LINE
  5
2BD
330
1F
100
AcDbEntity
  8
0-4_枠
  6
Continuous
 62
    92
370
    13
100
AcDbLine
 10
663.9181716835668
 20
-881.5966366596581
 30
0.0
 11
663.9181716835668
 21
-1725.111910553612
 31
0.0
  0
LINE
  5
2BE
330
1F
100
AcDbEntity
  8
0-4_枠
  6
Continuous
 62
    92
370
    13
100
AcDbLine
 10
1341.918171683567
 20
-881.5966366596581
 30
0.0
 11
1341.918171683567
 21
-1725.111910553612
 31
0.0
  0
LINE
  5
2BF
330
1F
100
AcDbEntity
  8
0-A_文字
  6
Continuous
 62
    92
370
    13
100
AcDbLine
 10
3519.918171683579
 20
-2010.041548837791
 30
0.0
 11
1719.918171683582
 21
-2010.041548837791
 31
0.0
  0
LINE
  5
2C0
330
1F
100
AcDbEntity
  8
0-A_文字
  6
Continuous
 62
    92
370
    13
100
AcDbLine
 10
1719.918171683582
 20
-3159.000197951857
 30
0.0
 11
1719.918171683582
 21
-290.9999919582046
 31
0.0
  0
LINE
  5
2C1
330
1F
100
AcDbEntity
  8
0-4_枠
  6
Continuous
 62
    92
370
    13
100
AcDbLine
 10
219.9181716835818
 20
-2010.041548837792
 30
0.0
 11
1719.918171683582
 21
-2010.041548837792
 31
0.0
  0
LINE
  5
2C2
330
1F
100
AcDbEntity
  8
0-4_枠
  6
Continuous
 62
    92
370
    13
100
AcDbLine
 10
1719.918171683582
 20
-290.9999919582046
 30
0.0
 11
1719.918171683582
 21
-2010.041548837792
 31
0.0
  0
LINE
  5
2C3
330
1F
100
AcDbEntity
  8
0-B_寸法
  6
Continuous
 62
   120
370
     5
100
AcDbLine
 10
-2110.225075582646
 20
-331.8948652397938
 30
0.0
 11
-2110.225075582646
 21
-475.8948652397959
 31
0.0
  0
LINE
  5
2C4
330
1F
100
AcDbEntity
  8
0-B_寸法
  6
Continuous
 62
   120
370
     5
100
AcDbLine
 10
-2290.225075582646
 20
-331.8948652397938
 30
0.0
 11
-1930.225075582646
 21
-331.8948652397938
 31
0.0
  0
LINE
  5
2C5
330
1F
100
AcDbEntity
  8
0-B_寸法
  6
Continuous
 62
   120
370
     5
100
AcDbLine
 10
-2110.225075582646
 20
-361.8949052941178
 30
0.0
 11
-1930.225075582646
 21
-361.8949052941178
 31
0.0
  0
LINE
  5
2C6
330
1F
100
AcDbEntity
  8
0-B_寸法
  6
Continuous
 62
   120
370
     5
100
AcDbLine
 10
-2110.225075582646
 20
-415.8948652397925
 30
0.0
 11
-1930.225075582646
 21
-415.8948652397925
 31
0.0
  0
LINE
  5
2C7
330
1F
100
AcDbEntity
  8
0-B_寸法
  6
Continuous
 62
   120
370
     5
100
AcDbLine
 10
-2290.225075582646
 20
-475.8948652397959
 30
0.0
 11
-1930.225075582646
 21
-475.8948652397959
 31
0.0
  0
LINE
  5
2C8
330
1F
100
AcDbEntity
  8
0-B_寸法
  6
Continuous
 62
   120
370
     5
100
AcDbLine
 10
-2290.225075582646
 20
-331.8948652397938
 30
0.0
 11
-2290.225075582646
 21
-475.8948652397959
 31
0.0
  0
LWPOLYLINE
  5
2C9
330
1F
100
AcDbEntity
  8
0-B_寸法
  6
Continuous
 62
     7
370
     9
100
AcDbPolyline
 90
        4
 70
     1
 43
6.0
 10
-2107.225075582646
 20
-331.8948652397938
 42
0.4142135623731
 10
-2110.225075582646
 20
-328.8948652397938
 42
0.4142135623731
 10
-2113.225075582646
 20
-331.8948652397938
 42
0.4142135623731
 10
-2110.225075582646
 20
-334.8948652397938
 42
0.4142135623731
  0
LWPOLYLINE
  5
2CA
330
1F
100
AcDbEntity
  8
0-B_寸法
  6
Continuous
 62
     7
370
     9
100
AcDbPolyline
 90
        4
 70
     1
 43
6.0
 10
-2107.225075582646
 20
-361.8949052941178
 42
0.4142135623731
 10
-2110.225075582646
 20
-358.8949052941178
 42
0.4142135623731
 10
-2113.225075582646
 20
-361.8949052941178
 42
0.4142135623731
 10
-2110.225075582646
 20
-364.8949052941178
 42
0.4142135623731
  0
LWPOLYLINE
  5
2CB
330
1F
100
AcDbEntity
  8
0-B_寸法
  6
Continuous
 62
     7
370
     9
100
AcDbPolyline
 90
        4
 70
     1
 43
6.0
 10
-2107.225075582646
 20
-415.8948652397925
 42
0.4142135623731
 10
-2110.225075582646
 20
-412.8948652397925
 42
0.4142135623731
 10
-2113.225075582646
 20
-415.8948652397925
 42
0.4142135623731
 10
-2110.225075582646
 20
-418.8948652397925
 42
0.4142135623731
  0
LWPOLYLINE
  5
2CC
330
1F
100
AcDbEntity
  8
0-B_寸法
  6
Continuous
 62
     7
370
     9
100
AcDbPolyline
 90
        4
 70
     1
 43
6.0
 10
-2107.225075582646
 20
-475.8948652397959
 42
0.4142135623731
 10
-2110.225075582646
 20
-472.8948652397959
 42
0.4142135623731
 10
-2113.225075582646
 20
-475.8948652397959
 42
0.4142135623731
 10
-2110.225075582646
 20
-478.8948652397959
 42
0.4142135623731
  0
LWPOLYLINE
  5
2CD
330
1F
100
AcDbEntity
  8
0-B_寸法
  6
Continuous
 62
     7
370
     9
100
AcDbPolyline
 90
        4
 70
     1
 43
6.0
 10
-2287.225075582646
 20
-331.8948652397938
 42
0.4142135623731
 10
-2290.225075582646
 20
-328.8948652397938
 42
0.4142135623731
 10
-2293.225075582646
 20
-331.8948652397938
 42
0.4142135623731
 10
-2290.225075582646
 20
-334.8948652397938
 42
0.4142135623731
  0
LWPOLYLINE
  5
2CE
330
1F
100
AcDbEntity
  8
0-B_寸法
  6
Continuous
 62
     7
370
     9
100
AcDbPolyline
 90
        4
 70
     1
 43
6.0
 10
-2287.225075582646
 20
-475.8948652397959
 42
0.4142135623731
 10
-2290.225075582646
 20
-472.8948652397959
 42
0.4142135623731
 10
-2293.225075582646
 20
-475.8948652397959
 42
0.4142135623731
 10
-2290.225075582646
 20
-478.8948652397959
 42
0.4142135623731
  0
LINE
  5
2CF
330
1F
100
AcDbEntity
  8
0-B_寸法
  6
Continuous
 62
   120
370
     5
100
AcDbLine
 10
-2500.225075582646
 20
-3158.999991958203
 30
0.0
 11
-2290.225075582646
 21
-3158.999991958203
 31
0.0
  0
LWPOLYLINE
  5
2D0
330
1F
100
AcDbEntity
  8
0-B_寸法
  6
Continuous
 62
     7
370
     9
100
AcDbPolyline
 90
        4
 70
     1
 43
6.0
 10
-2497.225075582647
 20
-3158.999991958203
 42
0.4142135623731
 10
-2500.225075582646
 20
-3155.999991958203
 42
0.4142135623731
 10
-2503.225075582646
 20
-3158.999991958203
 42
0.4142135623731
 10
-2500.225075582646
 20
-3161.999991958202
 42
0.4142135623731
  0
LINE
  5
2D1
330
1F
100
AcDbEntity
  8
0-B_寸法
  6
Continuous
 62
   120
370
     5
100
AcDbLine
 10
-620.0818283164182
 20
-493.8948652397966
 30
0.0
 11
-830.0818283164182
 21
-493.8948652397966
 31
0.0
  0
LWPOLYLINE
  5
2D2
330
1F
100
AcDbEntity
  8
0-B_寸法
  6
Continuous
 62
     7
370
     9
100
AcDbPolyline
 90
        4
 70
     1
 43
6.0
 10
-617.0818283164182
 20
-475.8948652397959
 42
0.4142135623731
 10
-620.0818283164182
 20
-472.8948652397959
 42
0.4142135623731
 10
-623.0818283164182
 20
-475.8948652397959
 42
0.4142135623731
 10
-620.0818283164182
 20
-478.8948652397959
 42
0.4142135623731
  0
LWPOLYLINE
  5
2D3
330
1F
100
AcDbEntity
  8
0-B_寸法
  6
Continuous
 62
     7
370
     9
100
AcDbPolyline
 90
        4
 70
     1
 43
6.0
 10
-617.0818283164182
 20
-493.8948652397966
 42
0.4142135623731
 10
-620.0818283164182
 20
-490.8948652397965
 42
0.4142135623731
 10
-623.0818283164182
 20
-493.8948652397966
 42
0.4142135623731
 10
-620.0818283164182
 20
-496.8948652397966
 42
0.4142135623731
  0
LWPOLYLINE
  5
2D4
330
1F
100
AcDbEntity
  8
0-B_寸法
  6
Continuous
 62
     7
370
     9
100
AcDbPolyline
 90
        4
 70
     1
 43
6.0
 10
-407.0818283164182
 20
-3087.000197951854
 42
0.4142135623731
 10
-410.0818283164182
 20
-3084.000197951854
 42
0.4142135623731
 10
-413.0818283164182
 20
-3087.000197951854
 42
0.4142135623731
 10
-410.0818283164182
 20
-3090.000197951853
 42
0.4142135623731
  0
LINE
  5
2D5
330
1F
100
AcDbEntity
  8
0-B_寸法
  6
Continuous
 62
   120
370
     5
100
AcDbLine
 10
-410.0818283164182
 20
-475.8948652397959
 30
0.0
 11
-830.0818283164182
 21
-475.8948652397959
 31
0.0
  0
LWPOLYLINE
  5
2D6
330
1F
100
AcDbEntity
  8
0-B_寸法
  6
Continuous
 62
     7
370
     9
100
AcDbPolyline
 90
        4
 70
     1
 43
6.0
 10
-407.0818283164182
 20
-331.8948652397938
 42
0.4142135623731
 10
-410.0818283164182
 20
-328.8948652397938
 42
0.4142135623731
 10
-413.0818283164182
 20
-331.8948652397938
 42
0.4142135623731
 10
-410.0818283164182
 20
-334.8948652397938
 42
0.4142135623731
  0
LWPOLYLINE
  5
2D7
330
1F
100
AcDbEntity
  8
0-B_寸法
  6
Continuous
 62
     7
370
     9
100
AcDbPolyline
 90
        4
 70
     1
 43
6.0
 10
-407.0818283164182
 20
-475.8948652397959
 42
0.4142135623731
 10
-410.0818283164182
 20
-472.8948652397959
 42
0.4142135623731
 10
-413.0818283164182
 20
-475.8948652397959
 42
0.4142135623731
 10
-410.0818283164182
 20
-478.8948652397959
 42
0.4142135623731
  0
LINE
  5
2D8
330
1F
100
AcDbEntity
  8
0-B_寸法
  6
Continuous
 62
   120
370
     5
100
AcDbLine
 10
-200.0818283164182
 20
-3087.000197951854
 30
0.0
 11
-830.0818283164182
 21
-3087.000197951854
 31
0.0
  0
LWPOLYLINE
  5
2D9
330
1F
100
AcDbEntity
  8
0-B_寸法
  6
Continuous
 62
     7
370
     9
100
AcDbPolyline
 90
        4
 70
     1
 43
6.0
 10
-197.0818283164182
 20
-3087.000197951854
 42
0.4142135623731
 10
-200.0818283164182
 20
-3084.000197951854
 42
0.4142135623731
 10
-203.0818283164182
 20
-3087.000197951854
 42
0.4142135623731
 10
-200.0818283164182
 20
-3090.000197951853
 42
0.4142135623731
  0
LINE
  5
2DA
330
1F
100
AcDbEntity
  8
0-B_寸法
  6
Continuous
 62
   120
370
     5
100
AcDbLine
 10
-200.0818283164182
 20
-331.8948652397938
 30
0.0
 11
-830.0818283164182
 21
-331.8948652397938
 31
0.0
  0
LWPOLYLINE
  5
2DB
330
1F
100
AcDbEntity
  8
0-B_寸法
  6
Continuous
 62
     7
370
     9
100
AcDbPolyline
 90
        4
 70
     1
 43
6.0
 10
-197.0818283164182
 20
-331.8948652397938
 42
0.4142135623731
 10
-200.0818283164182
 20
-328.8948652397938
 42
0.4142135623731
 10
-203.0818283164182
 20
-331.8948652397938
 42
0.4142135623731
 10
-200.0818283164182
 20
-334.8948652397938
 42
0.4142135623731
  0
LINE
  5
2DC
330
1F
100
AcDbEntity
  8
0-1_通り芯
  6
JWW_CENTER1
 62
   120
370
     5
100
AcDbLine
 10
-2663.539734573277
 20
-3158.999991958203
 30
0.0
 11
-140.0818283164182
 21
-3158.999991958203
 31
0.0
  0
LINE
  5
2DD
330
1F
100
AcDbEntity
  8
0-0_補助線
  6
JWW_HOJO
 62
   120
370
     5
100
AcDbLine
 10
-1042.756058553835
 20
-1663.894865239797
 30
0.0
 11
-2041.155651435425
 21
-1663.894865239797
 31
0.0
  0
LINE
  5
2DE
330
1F
100
AcDbEntity
  8
0-0_補助線
  6
JWW_HOJO
 62
   120
370
     5
100
AcDbLine
 10
-1042.756058553835
 20
-1783.894865239797
 30
0.0
 11
-2041.155651435425
 21
-1783.894865239797
 31
0.0
  0
LWPOLYLINE
  5
2DF
330
1F
100
AcDbEntity
  8
0-B_寸法
  6
Continuous
 62
     7
370
     9
100
AcDbPolyline
 90
        4
 70
     1
 43
6.0
 10
-197.0818283164182
 20
-3159.000197951857
 42
0.4142135623731
 10
-200.0818283164182
 20
-3156.000197951857
 42
0.4142135623731
 10
-203.0818283164182
 20
-3159.000197951857
 42
0.4142135623731
 10
-200.0818283164182
 20
-3162.000197951856
 42
0.4142135623731
  0
LINE
  5
2E0
330
1F
100
AcDbEntity
  8
0-B_寸法
  6
Continuous
 62
   120
370
     5
100
AcDbLine
 10
-200.0818283164182
 20
-3159.000197951857
 30
0.0
 11
-830.0818283164182
 21
-3159.000197951857
 31
0.0
  0
LINE
  5
2E1
330
1F
100
AcDbEntity
  8
0-4_枠
  6
Continuous
 62
    92
370
    13
100
AcDbLine
 10
-1864.756058553837
 20
-475.8948652397925
 30
0.0
 11
-1612.75634465613
 21
-475.8948652397925
 31
0.0
  0
LINE
  5
2E2
330
1F
100
AcDbEntity
  8
0-4_枠
  6
Continuous
 62
    92
370
    13
100
AcDbLine
 10
-1861.756493429324
 20
-472.8953001152848
 30
0.0
 11
-1612.75634465613
 21
-472.8953001152848
 31
0.0
  0
LINE
  5
2E3
330
1F
100
AcDbEntity
  8
0-3_仕上げ
  6
Continuous
 62
     7
370
     9
100
AcDbLine
 10
-2239.430288791251
 20
-3096.000197951856
 30
0.0
 11
-771.7368585882421
 21
-3096.000197951856
 31
0.0
  0
LINE
  5
2E4
330
1F
100
AcDbEntity
  8
0-3_仕上げ
  6
Continuous
 62
     7
370
     9
100
AcDbLine
 10
-2239.430288791251
 20
-3105.000197951854
 30
0.0
 11
-771.7368585882421
 21
-3105.000197951854
 31
0.0
  0
LINE
  5
2E5
330
1F
100
AcDbEntity
  8
0-3_仕上げ
  6
Continuous
 62
     7
370
     9
100
AcDbLine
 10
-2239.430288791251
 20
-3114.000197951857
 30
0.0
 11
-771.7368585882421
 21
-3114.000197951857
 31
0.0
  0
LINE
  5
2E6
330
1F
100
AcDbEntity
  8
0-3_仕上げ
  6
Continuous
 62
     7
370
     9
100
AcDbLine
 10
-2239.430288791251
 20
-3123.000197951855
 30
0.0
 11
-771.7368585882421
 21
-3123.000197951855
 31
0.0
  0
LINE
  5
2E7
330
1F
100
AcDbEntity
  8
0-3_仕上げ
  6
Continuous
 62
     7
370
     9
100
AcDbLine
 10
-2239.430288791251
 20
-3132.000197951854
 30
0.0
 11
-771.7368585882421
 21
-3132.000197951854
 31
0.0
  0
LINE
  5
2E8
330
1F
100
AcDbEntity
  8
0-3_仕上げ
  6
Continuous
 62
     7
370
     9
100
AcDbLine
 10
-2239.430288791251
 20
-3141.000197951856
 30
0.0
 11
-771.7368585882421
 21
-3141.000197951856
 31
0.0
  0
LINE
  5
2E9
330
1F
100
AcDbEntity
  8
0-3_仕上げ
  6
Continuous
 62
     7
370
     9
100
AcDbLine
 10
-2239.430288791251
 20
-3150.000197951854
 30
0.0
 11
-771.7368585882421
 21
-3150.000197951854
 31
0.0
  0
LINE
  5
2EA
330
1F
100
AcDbEntity
  8
0-3_仕上げ
  6
Continuous
 62
    40
370
    15
100
AcDbLine
 10
-2239.430288791251
 20
-3087.000197951854
 30
0.0
 11
-771.7368585882421
 21
-3087.000197951854
 31
0.0
  0
LINE
  5
2EB
330
1F
100
AcDbEntity
  8
0-3_仕上げ
  6
Continuous
 62
    40
370
    15
100
AcDbLine
 10
-2239.430288791251
 20
-3159.000197951857
 30
0.0
 11
-771.7368585882421
 21
-3159.000197951857
 31
0.0
  0
LINE
  5
2EC
330
1F
100
AcDbEntity
  8
0-B_寸法
  6
Continuous
 62
   120
370
     5
100
AcDbLine
 10
-1864.756058553837
 20
-802.4922885331063
 30
0.0
 11
-1204.756058553837
 21
-802.4922885331063
 31
0.0
  0
LWPOLYLINE
  5
2ED
330
1F
100
AcDbEntity
  8
0-B_寸法
  6
Continuous
 62
     7
370
     9
100
AcDbPolyline
 90
        4
 70
     1
 43
6.0
 10
-1201.756058553837
 20
-802.4922885331063
 42
0.4142135623731
 10
-1204.756058553837
 20
-799.4922885331063
 42
0.4142135623731
 10
-1207.756058553837
 20
-802.4922885331063
 42
0.4142135623731
 10
-1204.756058553837
 20
-805.4922885331063
 42
0.4142135623731
  0
LINE
  5
2EE
330
1F
100
AcDbEntity
  8
0-B_寸法
  6
Continuous
 62
   120
370
     5
100
AcDbLine
 10
-1204.756058553837
 20
-802.4922885331063
 30
0.0
 11
-1204.756058553837
 21
-623.8968565116892
 31
0.0
  0
LWPOLYLINE
  5
2EF
330
1F
100
AcDbEntity
  8
0-B_寸法
  6
Continuous
 62
     7
370
     9
100
AcDbPolyline
 90
        4
 70
     1
 43
6.0
 10
-1861.756058553837
 20
-802.4922885331063
 42
0.4142135623731
 10
-1864.756058553837
 20
-799.4922885331063
 42
0.4142135623731
 10
-1867.756058553837
 20
-802.4922885331063
 42
0.4142135623731
 10
-1864.756058553837
 20
-805.4922885331063
 42
0.4142135623731
  0
LINE
  5
2F0
330
1F
100
AcDbEntity
  8
0-B_寸法
  6
Continuous
 62
   120
370
     5
100
AcDbLine
 10
-1864.756058553837
 20
-802.4922885331063
 30
0.0
 11
-1864.756058553837
 21
-623.8968565116892
 31
0.0
  0
LINE
  5
2F1
330
1F
100
AcDbEntity
  8
0-4_枠
  6
Continuous
 62
    92
370
    13
100
AcDbLine
 10
-1204.756058553837
 20
-331.8948652397938
 30
0.0
 11
-1864.756058553837
 21
-331.8948652397938
 31
0.0
  0
LINE
  5
2F2
330
1F
100
AcDbEntity
  8
0-4_枠
  6
Continuous
 62
    92
370
    13
100
AcDbLine
 10
-1204.756058553837
 20
-363.0949041497087
 30
0.0
 11
-1204.756058553837
 21
-331.8948652397938
 31
0.0
  0
LINE
  5
2F3
330
1F
100
AcDbEntity
  8
0-4_枠
  6
Continuous
 62
    92
370
    13
100
AcDbLine
 10
-1861.756493429324
 20
-415.8948652397925
 30
0.0
 11
-1861.756493429324
 21
-472.8953001152848
 31
0.0
  0
LINE
  5
2F4
330
1F
100
AcDbEntity
  8
0-4_枠
  6
Continuous
 62
    92
370
    13
100
AcDbLine
 10
-1864.756058553837
 20
-415.8948652397925
 30
0.0
 11
-1864.756058553837
 21
-475.8948652397925
 31
0.0
  0
LINE
  5
2F5
330
1F
100
AcDbEntity
  8
0-4_枠
  6
Continuous
 62
    92
370
    13
100
AcDbLine
 10
-1804.756058553837
 20
-415.8948652397925
 30
0.0
 11
-1864.756058553837
 21
-415.8948652397925
 31
0.0
  0
LINE
  5
2F6
330
1F
100
AcDbEntity
  8
0-4_枠
  6
Continuous
 62
    92
370
    13
100
AcDbLine
 10
-1864.756058553837
 20
-331.8948652397938
 30
0.0
 11
-1864.756058553837
 21
-361.8948652397938
 31
0.0
  0
LINE
  5
2F7
330
1F
100
AcDbEntity
  8
0-4_枠
  6
Continuous
 62
    92
370
    13
100
AcDbLine
 10
-1804.756058553837
 20
-361.8948652397938
 30
0.0
 11
-1804.756058553837
 21
-415.8948652397925
 31
0.0
  0
LINE
  5
2F8
330
1F
100
AcDbEntity
  8
0-4_枠
  6
Continuous
 62
    92
370
    13
100
AcDbLine
 10
-1804.756058553837
 20
-361.8948652397938
 30
0.0
 11
-1864.756058553837
 21
-361.8948652397938
 31
0.0
  0
LINE
  5
2F9
330
1F
100
AcDbEntity
  8
0-4_枠
  6
Continuous
 62
    92
370
    13
100
AcDbLine
 10
-1204.756058553837
 20
-361.8948652397938
 30
0.0
 11
-1264.75564656653
 21
-361.8948652397938
 31
0.0
  0
LINE
  5
2FA
330
1F
100
AcDbEntity
  8
0-4_枠
  6
Continuous
 62
    92
370
    13
100
AcDbLine
 10
-1207.756218771117
 20
-472.8953001152848
 30
0.0
 11
-1207.756218771117
 21
-415.8948652397925
 31
0.0
  0
LINE
  5
2FB
330
1F
100
AcDbEntity
  8
0-4_枠
  6
Continuous
 62
    92
370
    13
100
AcDbLine
 10
-1204.756058553837
 20
-475.8948652397925
 30
0.0
 11
-1204.756058553837
 21
-415.8948652397925
 31
0.0
  0
LINE
  5
2FC
330
1F
100
AcDbEntity
  8
0-4_枠
  6
Continuous
 62
    92
370
    13
100
AcDbLine
 10
-1264.75564656653
 20
-361.8948652397938
 30
0.0
 11
-1264.75564656653
 21
-415.8948652397925
 31
0.0
  0
LINE
  5
2FD
330
1F
100
AcDbEntity
  8
0-4_枠
  6
Continuous
 62
    92
370
    13
100
AcDbLine
 10
-1204.756058553837
 20
-415.8948652397925
 30
0.0
 11
-1264.75564656653
 21
-415.8948652397925
 31
0.0
  0
LINE
  5
2FE
330
1F
100
AcDbEntity
  8
0-C_ハッチ
  6
Continuous
 62
   120
370
     5
100
AcDbLine
 10
-1248.509244315353
 20
-472.8953001152712
 30
0.0
 11
-1207.756218771117
 21
-432.1422745710328
 31
0.0
  0
LINE
  5
2FF
330
1F
100
AcDbEntity
  8
0-C_ハッチ
  6
Continuous
 62
   120
370
     5
100
AcDbLine
 10
-1307.906213935064
 20
-472.8953001152814
 30
0.0
 11
-1250.905779059579
 21
-415.8948652397925
 31
0.0
  0
LINE
  5
300
330
1F
100
AcDbEntity
  8
0-C_ハッチ
  6
Continuous
 62
   120
370
     5
100
AcDbLine
 10
-1367.303183554705
 20
-472.8953001152746
 30
0.0
 11
-1264.75564656653
 21
-370.3477631270965
 31
0.0
  0
LINE
  5
301
330
1F
100
AcDbEntity
  8
0-C_ハッチ
  6
Continuous
 62
   120
370
     5
100
AcDbLine
 10
-1256.302748679228
 20
-361.8948652397938
 30
0.0
 11
-1226.302748679239
 21
-331.8948652398075
 31
0.0
  0
LINE
  5
302
330
1F
100
AcDbEntity
  8
0-C_ハッチ
  6
Continuous
 62
   120
370
     5
100
AcDbLine
 10
-1426.700153174345
 20
-472.8953001152678
 30
0.0
 11
-1285.699718298881
 21
-331.8948652398007
 31
0.0
  0
LINE
  5
303
330
1F
100
AcDbEntity
  8
0-C_ハッチ
  6
Continuous
 62
   120
370
     5
100
AcDbLine
 10
-1548.493657538229
 20
-475.8948652397993
 30
0.0
 11
-1404.493657538223
 21
-331.8948652397938
 31
0.0
  0
LINE
  5
304
330
1F
100
AcDbEntity
  8
0-C_ハッチ
  6
Continuous
 62
   120
370
     5
100
AcDbLine
 10
-1664.288031653038
 20
-472.895300115261
 30
0.0
 11
-1523.287596777566
 21
-331.894865239787
 31
0.0
  0
LINE
  5
305
330
1F
100
AcDbEntity
  8
0-C_ハッチ
  6
Continuous
 62
   120
370
     5
100
AcDbLine
 10
-1723.685001272752
 20
-472.8953001152712
 30
0.0
 11
-1582.684566397275
 21
-331.8948652397938
 31
0.0
  0
LINE
  5
306
330
1F
100
AcDbEntity
  8
0-C_ハッチ
  6
Continuous
 62
   120
370
     5
100
AcDbLine
 10
-1783.081970892407
 20
-472.8953001152814
 30
0.0
 11
-1642.081536016935
 21
-331.8948652398075
 31
0.0
  0
LINE
  5
307
330
1F
100
AcDbEntity
  8
0-C_ハッチ
  6
Continuous
 62
   120
370
     5
100
AcDbLine
 10
-1842.478940512047
 20
-472.8953001152746
 30
0.0
 11
-1701.478505636563
 21
-331.8948652397904
 31
0.0
  0
LINE
  5
308
330
1F
100
AcDbEntity
  8
0-C_ハッチ
  6
Continuous
 62
   120
370
     5
100
AcDbLine
 10
-1861.756493429329
 20
-432.7758834128525
 30
0.0
 11
-1844.87547525627
 21
-415.8948652397925
 31
0.0
  0
LINE
  5
309
330
1F
100
AcDbEntity
  8
0-C_ハッチ
  6
Continuous
 62
   120
370
     5
100
AcDbLine
 10
-1804.756058553831
 20
-375.7754485373533
 30
0.0
 11
-1760.875475256279
 21
-331.8948652398007
 31
0.0
  0
LINE
  5
30A
330
1F
100
AcDbEntity
  8
0-C_ハッチ
  6
Continuous
 62
   120
370
     5
100
AcDbLine
 10
-1850.272444875912
 20
-361.8948652397904
 30
0.0
 11
-1820.272444875905
 21
-331.8948652397836
 31
0.0
  0
LINE
  5
30B
330
1F
100
AcDbEntity
  8
0-6_扉
  6
Continuous
 62
   200
370
    20
100
AcDbLine
 10
-1441.756058553834
 20
-493.8948652397966
 30
0.0
 11
-1225.756058553837
 21
-493.8948652397966
 31
0.0
  0
LINE
  5
30C
330
1F
100
AcDbEntity
  8
0-4_枠
  6
Continuous
 62
   120
370
     5
100
AcDbLine
 10
-1873.756058553836
 20
-331.8948652397938
 30
0.0
 11
-1873.756058553836
 21
-1663.894865239797
 31
0.0
  0
LINE
  5
30D
330
1F
100
AcDbEntity
  8
0-4_枠
  6
Continuous
 62
   120
370
     5
100
AcDbLine
 10
-1195.756058553837
 20
-331.8948652397938
 30
0.0
 11
-1195.756058553837
 21
-1663.894865239797
 31
0.0
  0
LINE
  5
30E
330
1F
100
AcDbEntity
  8
0-4_枠
  6
Continuous
 62
   120
370
     5
100
AcDbLine
 10
-1204.756058553837
 20
-331.8948652397938
 30
0.0
 11
-1195.756058553832
 21
-331.8948652397938
 31
0.0
  0
LINE
  5
30F
330
1F
100
AcDbEntity
  8
0-4_枠
  6
Continuous
 62
   120
370
     5
100
AcDbLine
 10
-1864.756058553837
 20
-331.8948652397938
 30
0.0
 11
-1873.756058553836
 21
-331.8948652397938
 31
0.0
  0
LINE
  5
310
330
1F
100
AcDbEntity
  8
0-6_扉
  6
Continuous
 62
   200
370
    20
100
AcDbLine
 10
-1441.756058553834
 20
-493.8948652397966
 30
0.0
 11
-1441.756058553834
 21
-1663.894865239797
 31
0.0
  0
LINE
  5
311
330
1F
100
AcDbEntity
  8
0-6_扉
  6
Continuous
 62
   200
370
    20
100
AcDbLine
 10
-1225.756058553837
 20
-493.8948652397966
 30
0.0
 11
-1225.756058553837
 21
-1663.894865239797
 31
0.0
  0
LINE
  5
312
330
1F
100
AcDbEntity
  8
0-4_枠
  6
Continuous
 62
   120
370
     5
100
AcDbLine
 10
-1873.756058553836
 20
-1783.894865239797
 30
0.0
 11
-1873.756058553836
 21
-3087.000197951854
 31
0.0
  0
LINE
  5
313
330
1F
100
AcDbEntity
  8
0-4_枠
  6
Continuous
 62
   120
370
     5
100
AcDbLine
 10
-1195.756058553837
 20
-1783.894865239797
 30
0.0
 11
-1195.756058553837
 21
-3087.000197951854
 31
0.0
  0
LINE
  5
314
330
1F
100
AcDbEntity
  8
0-B_寸法
  6
Continuous
 62
   120
370
     5
100
AcDbLine
 10
-1441.756058553834
 20
-1177.868685379853
 30
0.0
 11
-1225.756058553837
 21
-1177.868685379853
 31
0.0
  0
LWPOLYLINE
  5
315
330
1F
100
AcDbEntity
  8
0-B_寸法
  6
Continuous
 62
     7
370
     9
100
AcDbPolyline
 90
        4
 70
     1
 43
6.0
 10
-1438.756058553834
 20
-1177.868685379853
 42
0.4142135623731
 10
-1441.756058553834
 20
-1174.868685379853
 42
0.4142135623731
 10
-1444.756058553834
 20
-1177.868685379853
 42
0.4142135623731
 10
-1441.756058553834
 20
-1180.868685379853
 42
0.4142135623731
  0
LWPOLYLINE
  5
316
330
1F
100
AcDbEntity
  8
0-B_寸法
  6
Continuous
 62
     7
370
     9
100
AcDbPolyline
 90
        4
 70
     1
 43
6.0
 10
-1222.756058553837
 20
-1177.868685379853
 42
0.4142135623731
 10
-1225.756058553837
 20
-1174.868685379853
 42
0.4142135623731
 10
-1228.756058553837
 20
-1177.868685379853
 42
0.4142135623731
 10
-1225.756058553837
 20
-1180.868685379853
 42
0.4142135623731
  0
LINE
  5
317
330
1F
100
AcDbEntity
  8
0-4_枠
  6
Continuous
 62
    92
370
    13
100
AcDbLine
 10
-1456.631932124733
 20
-424.8949682366214
 30
0.0
 11
-1478.831932124734
 21
-424.8949682366214
 31
0.0
  0
LINE
  5
318
330
1F
100
AcDbEntity
  8
0-4_枠
  6
Continuous
 62
    92
370
    13
100
AcDbLine
 10
-1478.831932124734
 20
-475.8948652397925
 30
0.0
 11
-1590.431932124734
 21
-475.8948652397925
 31
0.0
  0
LINE
  5
319
330
1F
100
AcDbEntity
  8
0-4_枠
  6
Continuous
 62
    92
370
    13
100
AcDbLine
 10
-1456.631932124733
 20
-424.8949682366214
 30
0.0
 11
-1456.631932124733
 21
-475.8949682366227
 31
0.0
  0
LINE
  5
31A
330
1F
100
AcDbEntity
  8
0-4_枠
  6
Continuous
 62
    92
370
    13
100
AcDbLine
 10
-1478.831932124734
 20
-475.8948652397925
 30
0.0
 11
-1478.831932124734
 21
-424.8949682366214
 31
0.0
  0
LINE
  5
31B
330
1F
100
AcDbEntity
  8
0-4_枠
  6
Continuous
 62
    92
370
    13
100
AcDbLine
 10
-1590.431932124734
 20
-475.8948652397925
 30
0.0
 11
-1590.431932124734
 21
-424.8948652397945
 31
0.0
  0
LINE
  5
31C
330
1F
100
AcDbEntity
  8
0-4_枠
  6
Continuous
 62
    92
370
    13
100
AcDbLine
 10
-1590.431932124734
 20
-424.8948652397945
 30
0.0
 11
-1612.631932124734
 21
-424.8948652397945
 31
0.0
  0
LINE
  5
31D
330
1F
100
AcDbEntity
  8
0-4_枠
  6
Continuous
 62
    92
370
    13
100
AcDbLine
 10
-1612.631932124734
 20
-424.8948652397945
 30
0.0
 11
-1612.631932124734
 21
-475.8949682366227
 31
0.0
  0
ARC
  5
31E
330
1F
100
AcDbEntity
  8
0-8_戸当
  6
Continuous
 62
     7
370
     9
100
AcDbCircle
 10
-1480.331932124732
 20
-506.8548652397936
 30
0.0
 40
7.199999999999999
100
AcDbArc
 50
342.6701739020166
 51
41.40962210927217
  0
LINE
  5
31F
330
1F
100
AcDbEntity
  8
0-8_戸当
  6
Continuous
 62
     7
370
     9
100
AcDbLine
 10
-1472.531932124733
 20
-526.8948652397938
 30
0.0
 11
-1472.531932124733
 21
-502.8948652397952
 31
0.0
  0
LINE
  5
320
330
1F
100
AcDbEntity
  8
0-8_戸当
  6
Continuous
 62
     7
370
     9
100
AcDbLine
 10
-1610.531932124734
 20
-526.8948652397938
 30
0.0
 11
-1610.531932124734
 21
-514.2948652397951
 31
0.0
  0
LINE
  5
321
330
1F
100
AcDbEntity
  8
0-8_戸当
  6
Continuous
 62
     7
370
     9
100
AcDbLine
 10
-1610.531932124734
 20
-514.2948652397951
 30
0.0
 11
-1598.531932124733
 21
-514.2948652397951
 31
0.0
  0
LINE
  5
322
330
1F
100
AcDbEntity
  8
0-8_戸当
  6
Continuous
 62
     7
370
     9
100
AcDbLine
 10
-1598.531932124733
 20
-514.2948652397951
 30
0.0
 11
-1598.531932124733
 21
-507.0948652397948
 31
0.0
  0
LINE
  5
323
330
1F
100
AcDbEntity
  8
0-8_戸当
  6
Continuous
 62
     7
370
     9
100
AcDbLine
 10
-1598.531932124733
 20
-507.0948652397948
 30
0.0
 11
-1610.531932124734
 21
-507.0948652397948
 31
0.0
  0
LINE
  5
324
330
1F
100
AcDbEntity
  8
0-8_戸当
  6
Continuous
 62
     7
370
     9
100
AcDbLine
 10
-1610.531932124734
 20
-507.0948652397948
 30
0.0
 11
-1610.531932124734
 21
-490.8948652397925
 31
0.0
  0
ARC
  5
325
330
1F
100
AcDbEntity
  8
0-8_戸当
  6
Continuous
 62
     7
370
     9
100
AcDbCircle
 10
-1617.731932124734
 20
-477.6948652397942
 30
0.0
 40
1.8
100
AcDbArc
 50
41.34777721969273
 51
180.0
  0
LINE
  5
326
330
1F
100
AcDbEntity
  8
0-8_戸当
  6
Continuous
 62
     7
370
     9
100
AcDbLine
 10
-1619.531932124733
 20
-529.8948652397945
 30
0.0
 11
-1619.531932124733
 21
-477.6948652397942
 31
0.0
  0
ARC
  5
327
330
1F
100
AcDbEntity
  8
0-8_戸当
  6
Continuous
 62
     7
370
     9
100
AcDbCircle
 10
-1613.531932124734
 20
-529.8948652397945
 30
0.0
 40
6.0
100
AcDbArc
 50
180.0
 51
270.0
  0
LINE
  5
328
330
1F
100
AcDbEntity
  8
0-8_戸当
  6
Continuous
 62
     7
370
     9
100
AcDbLine
 10
-1444.872970215786
 20
-495.7264752035184
 30
0.0
 11
-1463.531932124734
 21
-532.8948652397952
 31
0.0
  0
LINE
  5
329
330
1F
100
AcDbEntity
  8
0-8_戸当
  6
Continuous
 62
     7
370
     9
100
AcDbLine
 10
-1454.531932124735
 20
-480.0948652397955
 30
0.0
 11
-1463.531932124734
 21
-480.0948652397955
 31
0.0
  0
ARC
  5
32A
330
1F
100
AcDbEntity
  8
0-8_戸当
  6
Continuous
 62
     7
370
     9
100
AcDbCircle
 10
-1466.531932124731
 20
-532.8948652397952
 30
0.0
 40
3.0
100
AcDbArc
 50
270.0
 51
0.0
  0
LINE
  5
32B
330
1F
100
AcDbEntity
  8
0-8_戸当
  6
Continuous
 62
     7
370
     9
100
AcDbLine
 10
-1463.531932124734
 20
-490.8948652397925
 30
0.0
 11
-1467.731932124734
 21
-490.8948652397925
 31
0.0
  0
LINE
  5
32C
330
1F
100
AcDbEntity
  8
0-8_戸当
  6
Continuous
 62
     7
370
     9
100
AcDbLine
 10
-1472.531932124733
 20
-526.8948652397938
 30
0.0
 11
-1610.531932124734
 21
-526.8948652397938
 31
0.0
  0
LINE
  5
32D
330
1F
100
AcDbEntity
  8
0-8_戸当
  6
Continuous
 62
     7
370
     9
100
AcDbLine
 10
-1463.531932124734
 20
-532.8948652397952
 30
0.0
 11
-1463.531932124734
 21
-490.8948652397925
 31
0.0
  0
LINE
  5
32E
330
1F
100
AcDbEntity
  8
0-8_戸当
  6
Continuous
 62
     7
370
     9
100
AcDbLine
 10
-1613.531932124734
 20
-535.8948652397925
 30
0.0
 11
-1466.531932124731
 21
-535.8948652397925
 31
0.0
  0
ARC
  5
32F
330
1F
100
AcDbEntity
  8
0-8_戸当
  6
Continuous
 62
     7
370
     9
100
AcDbCircle
 10
-1454.531932124735
 20
-490.8948652397925
 30
0.0
 40
10.8
100
AcDbArc
 50
333.4248464959397
 51
89.99999999999994
  0
ARC
  5
330
330
1F
100
AcDbEntity
  8
0-8_戸当
  6
Continuous
 62
     7
370
     9
100
AcDbCircle
 10
-1454.531932124735
 20
-490.8948652397925
 30
0.0
 40
6.6
100
AcDbArc
 50
333.4248464959397
 51
89.99999999999994
  0
LINE
  5
331
330
1F
100
AcDbEntity
  8
0-8_戸当
  6
Continuous
 62
     7
370
     9
100
AcDbLine
 10
-1448.626539331834
 20
-493.8421400711508
 30
0.0
 11
-1463.531932124734
 21
-523.5334731514098
 31
0.0
  0
LINE
  5
332
330
1F
100
AcDbEntity
  8
0-8_戸当
  6
Continuous
 62
     7
370
     9
100
AcDbLine
 10
-1605.731932124733
 20
-475.8948652397925
 30
0.0
 11
-1607.231932124733
 21
-475.8948652397925
 31
0.0
  0
LINE
  5
333
330
1F
100
AcDbEntity
  8
0-8_戸当
  6
Continuous
 62
     7
370
     9
100
AcDbLine
 10
-1607.231932124733
 20
-475.8948652397925
 30
0.0
 11
-1607.231932124733
 21
-490.8948652397925
 31
0.0
  0
LINE
  5
334
330
1F
100
AcDbEntity
  8
0-8_戸当
  6
Continuous
 62
     7
370
     9
100
AcDbLine
 10
-1605.731932124733
 20
-475.8948652397925
 30
0.0
 11
-1605.731932124733
 21
-448.8948652397966
 31
0.0
  0
ARC
  5
335
330
1F
100
AcDbEntity
  8
0-8_戸当
  6
Continuous
 62
     7
370
     9
100
AcDbCircle
 10
-1604.231932124733
 20
-502.2948652397957
 30
0.0
 40
3.600000000000001
100
AcDbArc
 50
196.7900255983375
 51
270.0
  0
ARC
  5
336
330
1F
100
AcDbEntity
  8
0-8_戸当
  6
Continuous
 62
     7
370
     9
100
AcDbCircle
 10
-1604.231932124733
 20
-502.2948652397957
 30
0.0
 40
3.600000000000001
100
AcDbArc
 50
270.0
 51
23.33765268897096
  0
LINE
  5
337
330
1F
100
AcDbEntity
  8
0-8_戸当
  6
Continuous
 62
     7
370
     9
100
AcDbLine
 10
-1602.72228582995
 20
-495.8994872438444
 30
0.0
 11
-1600.847707168018
 21
-501.0672572232255
 31
0.0
  0
ARC
  5
338
330
1F
100
AcDbEntity
  8
0-8_戸当
  6
Continuous
 62
     7
370
     9
100
AcDbCircle
 10
-1606.031932124733
 20
-490.8948652397925
 30
0.0
 40
5.999999999999659
100
AcDbArc
 50
303.4773790501727
 51
0.0000000000000127
  0
LINE
  5
339
330
1F
100
AcDbEntity
  8
0-8_戸当
  6
Continuous
 62
     7
370
     9
100
AcDbLine
 10
-1605.731932124733
 20
-448.8948652397966
 30
0.0
 11
-1612.631932124734
 21
-448.8948652397966
 31
0.0
  0
LINE
  5
33A
330
1F
100
AcDbEntity
  8
0-8_戸当
  6
Continuous
 62
     7
370
     9
100
AcDbLine
 10
-1592.231932124733
 20
-448.8948652397966
 30
0.0
 11
-1596.731932124733
 21
-448.8948652397966
 31
0.0
  0
LINE
  5
33B
330
1F
100
AcDbEntity
  8
0-8_戸当
  6
Continuous
 62
     7
370
     9
100
AcDbLine
 10
-1596.731932124733
 20
-448.8948652397966
 30
0.0
 11
-1596.731932124733
 21
-475.8948652397925
 31
0.0
  0
LINE
  5
33C
330
1F
100
AcDbEntity
  8
0-8_戸当
  6
Continuous
 62
     7
370
     9
100
AcDbLine
 10
-1592.231932124733
 20
-448.8948652397966
 30
0.0
 11
-1601.231932124731
 21
-430.8948652397925
 31
0.0
  0
LINE
  5
33D
330
1F
100
AcDbEntity
  8
0-8_戸当
  6
Continuous
 62
     7
370
     9
100
AcDbLine
 10
-1601.231932124731
 20
-430.8948652397925
 30
0.0
 11
-1612.631932124734
 21
-448.8948652397966
 31
0.0
  0
LINE
  5
33E
330
1F
100
AcDbEntity
  8
0-8_戸当
  6
Continuous
 62
     7
370
     9
100
AcDbLine
 10
-1600.031932124733
 20
-487.8948652397952
 30
0.0
 11
-1600.031932124733
 21
-490.8948652397925
 31
0.0
  0
ARC
  5
33F
330
1F
100
AcDbEntity
  8
0-8_戸当
  6
Continuous
 62
     7
370
     9
100
AcDbCircle
 10
-1597.031932124735
 20
-487.8948652397952
 30
0.0
 40
3.0
100
AcDbArc
 50
90.0
 51
180.0
  0
ARC
  5
340
330
1F
100
AcDbEntity
  8
0-8_戸当
  6
Continuous
 62
     7
370
     9
100
AcDbCircle
 10
-1487.531932124733
 20
-487.8948652397952
 30
0.0
 40
3.0
100
AcDbArc
 50
0.0000000000000035
 51
90.0
  0
LINE
  5
341
330
1F
100
AcDbEntity
  8
0-8_戸当
  6
Continuous
 62
     7
370
     9
100
AcDbLine
 10
-1484.531932124735
 20
-487.8948652397952
 30
0.0
 11
-1484.531932124735
 21
-499.6548652397934
 31
0.0
  0
LINE
  5
342
330
1F
100
AcDbEntity
  8
0-8_戸当
  6
Continuous
 62
     7
370
     9
100
AcDbLine
 10
-1487.531932124733
 20
-484.8948652397945
 30
0.0
 11
-1597.031932124735
 21
-484.8948652397945
 31
0.0
  0
ARC
  5
343
330
1F
100
AcDbEntity
  8
0-8_戸当
  6
Continuous
 62
     7
370
     9
100
AcDbCircle
 10
-1477.331932124734
 20
-499.6548652397934
 30
0.0
 40
7.199999999999999
100
AcDbArc
 50
180.0
 51
237.2112623503457
  0
LINE
  5
344
330
1F
100
AcDbEntity
  8
0-8_戸当
  6
Continuous
 62
     7
370
     9
100
AcDbLine
 10
-1481.231041535835
 20
-505.7077113307054
 30
0.0
 11
-1486.141276689198
 21
-521.4438032255833
 31
0.0
  0
ARC
  5
345
330
1F
100
AcDbEntity
  8
0-8_戸当
  6
Continuous
 62
     7
370
     9
100
AcDbCircle
 10
-1482.131932124735
 20
-522.6948652397942
 30
0.0
 40
4.2
100
AcDbArc
 50
162.6701702617455
 51
342.6701720818837
  0
LINE
  5
346
330
1F
100
AcDbEntity
  8
0-8_戸当
  6
Continuous
 62
     7
370
     9
100
AcDbLine
 10
-1473.458769877961
 20
-508.9995425417504
 30
0.0
 11
-1478.122587480782
 21
-523.9459269992705
 31
0.0
  0
ARC
  5
347
330
1F
100
AcDbEntity
  8
0-8_戸当
  6
Continuous
 62
     7
370
     9
100
AcDbCircle
 10
-1471.331932124734
 20
-498.9176113066009
 30
0.0
 40
4.800000000000001
100
AcDbArc
 50
180.0
 51
221.4096221092701
  0
LINE
  5
348
330
1F
100
AcDbEntity
  8
0-8_戸当
  6
Continuous
 62
     7
370
     9
100
AcDbLine
 10
-1476.131932124734
 20
-484.8948652397945
 30
0.0
 11
-1476.131932124734
 21
-498.9176113066009
 31
0.0
  0
LINE
  5
349
330
1F
100
AcDbEntity
  8
0-8_戸当
  6
Continuous
 62
     7
370
     9
100
AcDbLine
 10
-1469.531932124735
 20
-484.8948652397945
 30
0.0
 11
-1476.131932124734
 21
-484.8948652397945
 31
0.0
  0
LINE
  5
34A
330
1F
100
AcDbEntity
  8
0-8_戸当
  6
Continuous
 62
     7
370
     9
100
AcDbLine
 10
-1469.531932124735
 20
-480.0948652397955
 30
0.0
 11
-1469.531932124735
 21
-484.8948652397945
 31
0.0
  0
LINE
  5
34B
330
1F
100
AcDbEntity
  8
0-8_戸当
  6
Continuous
 62
     7
370
     9
100
AcDbLine
 10
-1463.531932124734
 20
-480.0948652397955
 30
0.0
 11
-1469.531932124735
 21
-480.0948652397955
 31
0.0
  0
LINE
  5
34C
330
1F
100
AcDbEntity
  8
0-8_戸当
  6
Continuous
 62
     7
370
     9
100
AcDbLine
 10
-1463.531932124734
 20
-480.0948652397955
 30
0.0
 11
-1463.531932124734
 21
-448.8948652397931
 31
0.0
  0
LINE
  5
34D
330
1F
100
AcDbEntity
  8
0-8_戸当
  6
Continuous
 62
     7
370
     9
100
AcDbLine
 10
-1472.531932124733
 20
-475.8948652397925
 30
0.0
 11
-1596.731932124733
 21
-475.8948652397925
 31
0.0
  0
LINE
  5
34E
330
1F
100
AcDbEntity
  8
0-8_戸当
  6
Continuous
 62
     7
370
     9
100
AcDbLine
 10
-1468.031932124734
 20
-430.8948652397925
 30
0.0
 11
-1456.631932124733
 21
-448.8948652397931
 31
0.0
  0
LINE
  5
34F
330
1F
100
AcDbEntity
  8
0-8_戸当
  6
Continuous
 62
     7
370
     9
100
AcDbLine
 10
-1477.031932124735
 20
-448.8948652397931
 30
0.0
 11
-1468.031932124734
 21
-430.8948652397925
 31
0.0
  0
LINE
  5
350
330
1F
100
AcDbEntity
  8
0-8_戸当
  6
Continuous
 62
     7
370
     9
100
AcDbLine
 10
-1472.531932124733
 20
-448.8948652397931
 30
0.0
 11
-1472.531932124733
 21
-475.8948652397925
 31
0.0
  0
LINE
  5
351
330
1F
100
AcDbEntity
  8
0-8_戸当
  6
Continuous
 62
     7
370
     9
100
AcDbLine
 10
-1477.031932124735
 20
-448.8948652397931
 30
0.0
 11
-1472.531932124733
 21
-448.8948652397931
 31
0.0
  0
LINE
  5
352
330
1F
100
AcDbEntity
  8
0-8_戸当
  6
Continuous
 62
     7
370
     9
100
AcDbLine
 10
-1463.531932124734
 20
-448.8948652397931
 30
0.0
 11
-1456.631932124733
 21
-448.8948652397931
 31
0.0
  0
LINE
  5
353
330
1F
100
AcDbEntity
  8
0-8_戸当
  6
Continuous
 62
     7
370
     9
100
AcDbLine
 10
-1454.531932124735
 20
-484.2948652397916
 30
0.0
 11
-1469.531932124735
 21
-484.2948652397916
 31
0.0
  0
ARC
  5
354
330
1F
100
AcDbEntity
  8
0-8_戸当
  6
Continuous
 62
     7
370
     9
100
AcDbCircle
 10
-1472.829407878239
 20
-499.8948652397945
 30
0.0
 40
3.0
100
AcDbArc
 50
143.6152131060223
 51
270.0
  0
LINE
  5
355
330
1F
100
AcDbEntity
  8
0-8_戸当
  6
Continuous
 62
     7
370
     9
100
AcDbLine
 10
-1467.731932124734
 20
-490.8948652397925
 30
0.0
 11
-1475.244561876777
 21
-498.1152497860097
 31
0.0
  0
LINE
  5
356
330
1F
100
AcDbEntity
  8
0-8_戸当
  6
Continuous
 62
     7
370
     9
100
AcDbLine
 10
-1472.829407878239
 20
-502.8948652397952
 30
0.0
 11
-1472.531932124733
 21
-502.8948652397952
 31
0.0
  0
LINE
  5
357
330
1F
100
AcDbEntity
  8
0-8_戸当
  6
Continuous
 62
     7
370
     9
100
AcDbLine
 10
-1609.031932124731
 20
-490.8948652397925
 30
0.0
 11
-1610.531932124734
 21
-490.8948652397925
 31
0.0
  0
ARC
  5
358
330
1F
100
AcDbEntity
  8
0-8_戸当
  6
Continuous
 62
     7
370
     9
100
AcDbCircle
 10
-1609.031932124731
 20
-489.0948652397941
 30
0.0
 40
1.8
100
AcDbArc
 50
270.0
 51
41.34777721969354
  0
LINE
  5
359
330
1F
100
AcDbEntity
  8
0-8_戸当
  6
Continuous
 62
     7
370
     9
100
AcDbLine
 10
-1616.380647794272
 20
-476.5057350289891
 30
0.0
 11
-1607.680647794273
 21
-487.9057350289889
 31
0.0
  0
LINE
  5
35A
330
1F
100
AcDbEntity
  8
0-8_戸当
  6
Continuous
 62
     7
370
     9
100
AcDbLine
 10
-1608.731932124731
 20
-490.8948652397925
 30
0.0
 11
-1607.231932124733
 21
-490.8948652397925
 31
0.0
  0
LINE
  5
35B
330
1F
100
AcDbEntity
  8
0-8_戸当
  6
Continuous
 62
     7
370
     9
100
AcDbLine
 10
-1610.455197763759
 20
-493.2148224854922
 30
0.0
 11
-1607.61615707691
 21
-503.5224732688692
 31
0.0
  0
ARC
  5
35C
330
1F
100
AcDbEntity
  8
0-8_戸当
  6
Continuous
 62
     7
370
     9
100
AcDbCircle
 10
-1608.731932124731
 20
-492.6948652397942
 30
0.0
 40
1.8
100
AcDbArc
 50
90.0
 51
196.7900255983358
  0
LINE
  5
35D
330
1F
100
AcDbEntity
  8
0-4_枠
  6
Continuous
 62
    92
370
    13
100
AcDbLine
 10
-1207.756218771117
 20
-472.8953001152848
 30
0.0
 11
-1456.631932124733
 21
-472.8953001152848
 31
0.0
  0
LINE
  5
35E
330
1F
100
AcDbEntity
  8
0-4_枠
  6
Continuous
 62
    92
370
    13
100
AcDbLine
 10
-1204.756058553837
 20
-475.8948652397925
 30
0.0
 11
-1456.631932124733
 21
-475.8948652397925
 31
0.0
  0
LINE
  5
35F
330
1F
100
AcDbEntity
  8
0-C_ハッチ
  6
Continuous
 62
   120
370
     5
100
AcDbLine
 10
-1456.631932124733
 20
-443.4301094459505
 30
0.0
 11
-1345.096687918583
 21
-331.8948652398007
 31
0.0
  0
LINE
  5
360
330
1F
100
AcDbEntity
  8
0-C_ハッチ
  6
Continuous
 62
   120
370
     5
100
AcDbLine
 10
-1489.096687918575
 20
-475.8948652397925
 30
0.0
 11
-1478.831932124734
 21
-465.6301094459508
 31
0.0
  0
LINE
  5
361
330
1F
100
AcDbEntity
  8
0-C_ハッチ
  6
Continuous
 62
   120
370
     5
100
AcDbLine
 10
-1590.431932124734
 20
-458.4361702066025
 30
0.0
 11
-1463.89062715793
 21
-331.8948652398007
 31
0.0
  0
ARC
  5
362
330
1F
100
AcDbEntity
  8
0-7_金物
  6
Continuous
 62
     7
370
     9
100
AcDbCircle
 10
-1423.756058553845
 20
-3086.999991958203
 30
0.0
 40
18.0
100
AcDbArc
 50
90.0
 51
180.0
  0
LINE
  5
363
330
1F
100
AcDbEntity
  8
0-7_金物
  6
Continuous
 62
     7
370
     9
100
AcDbLine
 10
-1243.756058553847
 20
-3068.999991958203
 30
0.0
 11
-1423.756058553845
 21
-3068.999991958203
 31
0.0
  0
ARC
  5
364
330
1F
100
AcDbEntity
  8
0-7_金物
  6
Continuous
 62
     7
370
     9
100
AcDbCircle
 10
-1243.756058553847
 20
-3086.999991958203
 30
0.0
 40
18.0
100
AcDbArc
 50
0.0
 51
90.0
  0
ARC
  5
365
330
1F
100
AcDbEntity
  8
0-7_金物
  6
Continuous
 62
     7
370
     9
100
AcDbCircle
 10
-1423.756058553845
 20
-3086.999991958203
 30
0.0
 40
12.0
100
AcDbArc
 50
90.0
 51
180.0
  0
ARC
  5
366
330
1F
100
AcDbEntity
  8
0-7_金物
  6
Continuous
 62
     7
370
     9
100
AcDbCircle
 10
-1243.756058553847
 20
-3086.999991958203
 30
0.0
 40
12.0
100
AcDbArc
 50
0.0
 51
90.0
  0
LINE
  5
367
330
1F
100
AcDbEntity
  8
0-7_金物
  6
Continuous
 62
     7
370
     9
100
AcDbLine
 10
-1292.956058553841
 20
-3086.999991958203
 30
0.0
 11
-1292.956058553841
 21
-3074.999991958204
 31
0.0
  0
LINE
  5
368
330
1F
100
AcDbEntity
  8
0-7_金物
  6
Continuous
 62
     7
370
     9
100
AcDbLine
 10
-1298.956058553841
 20
-3086.999991958203
 30
0.0
 11
-1298.956058553841
 21
-3074.999991958204
 31
0.0
  0
LINE
  5
369
330
1F
100
AcDbEntity
  8
0-7_金物
  6
Continuous
 62
     7
370
     9
100
AcDbLine
 10
-1260.556058553841
 20
-3086.999991958203
 30
0.0
 11
-1260.556058553841
 21
-3074.999991958204
 31
0.0
  0
LINE
  5
36A
330
1F
100
AcDbEntity
  8
0-7_金物
  6
Continuous
 62
     7
370
     9
100
AcDbLine
 10
-1266.55605855384
 20
-3086.999991958203
 30
0.0
 11
-1266.55605855384
 21
-3074.999991958204
 31
0.0
  0
LINE
  5
36B
330
1F
100
AcDbEntity
  8
0-7_金物
  6
Continuous
 62
     7
370
     9
100
AcDbLine
 10
-1336.75605855384
 20
-3086.999991958203
 30
0.0
 11
-1336.75605855384
 21
-3074.999991958204
 31
0.0
  0
LINE
  5
36C
330
1F
100
AcDbEntity
  8
0-7_金物
  6
Continuous
 62
     7
370
     9
100
AcDbLine
 10
-1374.55605855384
 20
-3086.999991958203
 30
0.0
 11
-1374.55605855384
 21
-3074.999991958204
 31
0.0
  0
LINE
  5
36D
330
1F
100
AcDbEntity
  8
0-7_金物
  6
Continuous
 62
     7
370
     9
100
AcDbLine
 10
-1368.556058553841
 20
-3086.999991958203
 30
0.0
 11
-1368.556058553841
 21
-3074.999991958204
 31
0.0
  0
LINE
  5
36E
330
1F
100
AcDbEntity
  8
0-7_金物
  6
Continuous
 62
     7
370
     9
100
AcDbLine
 10
-1406.956058553841
 20
-3086.999991958203
 30
0.0
 11
-1406.956058553841
 21
-3074.999991958204
 31
0.0
  0
LINE
  5
36F
330
1F
100
AcDbEntity
  8
0-7_金物
  6
Continuous
 62
     7
370
     9
100
AcDbLine
 10
-1400.956058553841
 20
-3086.999991958203
 30
0.0
 11
-1400.956058553841
 21
-3074.999991958204
 31
0.0
  0
LINE
  5
370
330
1F
100
AcDbEntity
  8
0-7_金物
  6
Continuous
 62
     7
370
     9
100
AcDbLine
 10
-1406.956058553841
 20
-3074.999991958204
 30
0.0
 11
-1423.756058553845
 21
-3074.999991958204
 31
0.0
  0
LINE
  5
371
330
1F
100
AcDbEntity
  8
0-7_金物
  6
Continuous
 62
     7
370
     9
100
AcDbLine
 10
-1374.55605855384
 20
-3074.999991958204
 30
0.0
 11
-1400.956058553841
 21
-3074.999991958204
 31
0.0
  0
LINE
  5
372
330
1F
100
AcDbEntity
  8
0-7_金物
  6
Continuous
 62
     7
370
     9
100
AcDbLine
 10
-1336.75605855384
 20
-3074.999991958204
 30
0.0
 11
-1368.556058553841
 21
-3074.999991958204
 31
0.0
  0
LINE
  5
373
330
1F
100
AcDbEntity
  8
0-7_金物
  6
Continuous
 62
     7
370
     9
100
AcDbLine
 10
-1243.756058553847
 20
-3074.999991958204
 30
0.0
 11
-1260.556058553841
 21
-3074.999991958204
 31
0.0
  0
LINE
  5
374
330
1F
100
AcDbEntity
  8
0-7_金物
  6
Continuous
 62
     7
370
     9
100
AcDbLine
 10
-1266.55605855384
 20
-3074.999991958204
 30
0.0
 11
-1292.956058553841
 21
-3074.999991958204
 31
0.0
  0
LINE
  5
375
330
1F
100
AcDbEntity
  8
0-7_金物
  6
Continuous
 62
     7
370
     9
100
AcDbLine
 10
-1330.756058553841
 20
-3086.999991958203
 30
0.0
 11
-1330.756058553841
 21
-3074.999991958204
 31
0.0
  0
LINE
  5
376
330
1F
100
AcDbEntity
  8
0-7_金物
  6
Continuous
 62
     7
370
     9
100
AcDbLine
 10
-1298.956058553841
 20
-3074.999991958204
 30
0.0
 11
-1330.756058553841
 21
-3074.999991958204
 31
0.0
  0
LINE
  5
377
330
1F
100
AcDbEntity
  8
0-7_金物
  6
Continuous
 62
     7
370
     9
100
AcDbLine
 10
-1441.756058553845
 20
-3086.999991958203
 30
0.0
 11
-1435.756058553845
 21
-3086.999991958203
 31
0.0
  0
LINE
  5
378
330
1F
100
AcDbEntity
  8
0-7_金物
  6
Continuous
 62
     7
370
     9
100
AcDbLine
 10
-1406.956058553841
 20
-3086.999991958203
 30
0.0
 11
-1400.956058553841
 21
-3086.999991958203
 31
0.0
  0
LINE
  5
379
330
1F
100
AcDbEntity
  8
0-7_金物
  6
Continuous
 62
     7
370
     9
100
AcDbLine
 10
-1374.55605855384
 20
-3086.999991958203
 30
0.0
 11
-1368.556058553841
 21
-3086.999991958203
 31
0.0
  0
LINE
  5
37A
330
1F
100
AcDbEntity
  8
0-7_金物
  6
Continuous
 62
     7
370
     9
100
AcDbLine
 10
-1336.75605855384
 20
-3086.999991958203
 30
0.0
 11
-1330.756058553841
 21
-3086.999991958203
 31
0.0
  0
LINE
  5
37B
330
1F
100
AcDbEntity
  8
0-7_金物
  6
Continuous
 62
     7
370
     9
100
AcDbLine
 10
-1298.956058553841
 20
-3086.999991958203
 30
0.0
 11
-1292.956058553841
 21
-3086.999991958203
 31
0.0
  0
LINE
  5
37C
330
1F
100
AcDbEntity
  8
0-7_金物
  6
Continuous
 62
     7
370
     9
100
AcDbLine
 10
-1266.55605855384
 20
-3086.999991958203
 30
0.0
 11
-1260.556058553841
 21
-3086.999991958203
 31
0.0
  0
LINE
  5
37D
330
1F
100
AcDbEntity
  8
0-7_金物
  6
Continuous
 62
     7
370
     9
100
AcDbLine
 10
-1231.756058553847
 20
-3086.999991958203
 30
0.0
 11
-1225.756058553846
 21
-3086.999991958203
 31
0.0
  0
LINE
  5
37E
330
1F
100
AcDbEntity
  8
0-B_寸法
  6
Continuous
 62
   120
370
     5
100
AcDbLine
 10
-620.0818283164182
 20
-3039.000197951857
 30
0.0
 11
-830.0818283164182
 21
-3039.000197951857
 31
0.0
  0
LWPOLYLINE
  5
37F
330
1F
100
AcDbEntity
  8
0-B_寸法
  6
Continuous
 62
     7
370
     9
100
AcDbPolyline
 90
        4
 70
     1
 43
6.0
 10
-617.0818283164182
 20
-3039.000197951857
 42
0.4142135623731
 10
-620.0818283164182
 20
-3036.000197951857
 42
0.4142135623731
 10
-623.0818283164182
 20
-3039.000197951857
 42
0.4142135623731
 10
-620.0818283164182
 20
-3042.000197951856
 42
0.4142135623731
  0
LINE
  5
380
330
1F
100
AcDbEntity
  8
0-6_扉
  6
Continuous
 62
   200
370
    20
100
AcDbLine
 10
-1225.756058553837
 20
-3039.000197951857
 30
0.0
 11
-1441.756058553834
 21
-3039.000197951857
 31
0.0
  0
LINE
  5
381
330
1F
100
AcDbEntity
  8
0-6_扉
  6
Continuous
 62
   200
370
    20
100
AcDbLine
 10
-1441.756058553834
 20
-1783.894865239797
 30
0.0
 11
-1441.756058553834
 21
-3039.000197951857
 31
0.0
  0
LINE
  5
382
330
1F
100
AcDbEntity
  8
0-6_扉
  6
Continuous
 62
   200
370
    20
100
AcDbLine
 10
-1225.756058553837
 20
-1783.894865239797
 30
0.0
 11
-1225.756058553837
 21
-3039.000197951857
 31
0.0
  0
LINE
  5
383
330
1F
100
AcDbEntity
  8
0-B_寸法
  6
Continuous
 62
   120
370
     5
100
AcDbLine
 10
-620.0818283164182
 20
-475.8948652397959
 30
0.0
 11
-620.0818283164182
 21
-3068.999991958203
 31
0.0
  0
LWPOLYLINE
  5
384
330
1F
100
AcDbEntity
  8
0-B_寸法
  6
Continuous
 62
     7
370
     9
100
AcDbPolyline
 90
        4
 70
     1
 43
6.0
 10
-617.0818283164182
 20
-3068.999991958203
 42
0.4142135623731
 10
-620.0818283164182
 20
-3065.999991958203
 42
0.4142135623731
 10
-623.0818283164182
 20
-3068.999991958203
 42
0.4142135623731
 10
-620.0818283164182
 20
-3071.999991958202
 42
0.4142135623731
  0
LWPOLYLINE
  5
385
330
1F
100
AcDbEntity
  8
0-B_寸法
  6
Continuous
 62
     7
370
     9
100
AcDbPolyline
 90
        4
 70
     1
 43
6.0
 10
-407.0818283164182
 20
-3086.999991958203
 42
0.4142135623731
 10
-410.0818283164182
 20
-3083.999991958204
 42
0.4142135623731
 10
-413.0818283164182
 20
-3086.999991958203
 42
0.4142135623731
 10
-410.0818283164182
 20
-3089.999991958203
 42
0.4142135623731
  0
LWPOLYLINE
  5
386
330
1F
100
AcDbEntity
  8
0-B_寸法
  6
Continuous
 62
     7
370
     9
100
AcDbPolyline
 90
        4
 70
     1
 43
6.0
 10
-407.0818283164182
 20
-3068.999991958203
 42
0.4142135623731
 10
-410.0818283164182
 20
-3065.999991958203
 42
0.4142135623731
 10
-413.0818283164182
 20
-3068.999991958203
 42
0.4142135623731
 10
-410.0818283164182
 20
-3071.999991958202
 42
0.4142135623731
  0
LINE
  5
387
330
1F
100
AcDbEntity
  8
0-B_寸法
  6
Continuous
 62
   120
370
     5
100
AcDbLine
 10
-410.0818283164182
 20
-3086.999991958203
 30
0.0
 11
-830.0818283164182
 21
-3086.999991958203
 31
0.0
  0
LINE
  5
388
330
1F
100
AcDbEntity
  8
0-B_寸法
  6
Continuous
 62
   120
370
     5
100
AcDbLine
 10
-410.0818283164182
 20
-3068.999991958203
 30
0.0
 11
-830.0818283164182
 21
-3068.999991958203
 31
0.0
  0
TEXT
  5
389
330
1F
100
AcDbEntity
  8
0-A_文字
  6
Continuous
 62
     7
370
     9
100
AcDbText
 10
-2500.225075582645
 20
48.45642397729044
 30
0.0
 40
91.44
  1
■縦断面図
 41
1.1
  7
ＭＳ ゴシック
100
AcDbText
  0
TEXT
  5
38A
330
1F
100
AcDbEntity
  8
0-B_寸法
  6
Continuous
 62
     7
370
   211
100
AcDbText
 10
-230.7944065389875
 20
-236.109306208334
 30
0.0
 40
91.44
  1
5
 50
90.0
  7
ＭＳ ゴシック
100
AcDbText
  0
TEXT
  5
38B
330
1F
100
AcDbEntity
  8
0-B_寸法
  6
Continuous
 62
     7
370
   211
100
AcDbText
 10
-2142.145075582646
 20
-336.1180151037064
 30
0.0
 40
91.44
  1
5
 50
90.0
  7
ＭＳ ゴシック
100
AcDbText
  0
TEXT
  5
38C
330
1F
100
AcDbEntity
  8
0-B_寸法
  6
Continuous
 62
     7
370
   211
100
AcDbText
 10
-2142.145075582646
 20
-418.8948852669552
 30
0.0
 40
91.44
  1
9
 50
90.0
  7
ＭＳ ゴシック
100
AcDbText
  0
TEXT
  5
38D
330
1F
100
AcDbEntity
  8
0-B_寸法
  6
Continuous
 62
     7
370
   211
100
AcDbText
 10
-2322.145075582646
 20
-467.6448652397966
 30
0.0
 40
91.44
  1
24
 50
90.0
 41
1.0625
  7
ＭＳ ゴシック
100
AcDbText
  0
TEXT
  5
38E
330
1F
100
AcDbEntity
  8
0-B_寸法
  6
Continuous
 62
     7
370
   211
100
AcDbText
 10
-442.0018283164182
 20
-467.6448652397966
 30
0.0
 40
91.44
  1
24
 50
90.0
 41
1.0625
  7
ＭＳ ゴシック
100
AcDbText
  0
TEXT
  5
38F
330
1F
100
AcDbEntity
  8
0-B_寸法
  6
Continuous
 62
     7
370
   211
100
AcDbText
 10
-2142.145075582646
 20
-596.4085122275793
 30
0.0
 40
91.44
  1
10
 50
90.0
 41
1.0625
  7
ＭＳ ゴシック
100
AcDbText
  0
TEXT
  5
390
330
1F
100
AcDbEntity
  8
0-B_寸法
  6
Continuous
 62
     7
370
     0
100
AcDbText
 10
-1634.725018362184
 20
-770.5722885331063
 30
0.0
 40
91.44
  1
110
 41
1.083333333333333
  7
ＭＳ ゴシック
100
AcDbText
  0
TEXT
  5
391
330
1F
100
AcDbEntity
  8
0-B_寸法
  6
Continuous
 62
     7
370
   211
100
AcDbText
 10
-1397.506058553836
 20
-1145.948685379853
 30
0.0
 40
91.44
  1
36
 41
1.0625
  7
ＭＳ ゴシック
100
AcDbText
  0
LINE
  5
392
330
1F
100
AcDbEntity
  8
0-B_寸法
  6
Continuous
 62
   120
370
     5
100
AcDbLine
 10
-410.0818283164182
 20
-331.8948652397938
 30
0.0
 11
-410.0818283164182
 21
-3087.000197951854
 31
0.0
  0
LINE
  5
393
330
1F
100
AcDbEntity
  8
0-B_寸法
  6
Continuous
 62
   120
370
     5
100
AcDbLine
 10
-2500.225075582646
 20
-253.8948652397936
 30
0.0
 11
-2290.225075582646
 21
-253.8948652397936
 31
0.0
  0
LINE
  5
394
330
1F
100
AcDbEntity
  8
0-B_寸法
  6
Continuous
 62
   120
370
     5
100
AcDbLine
 10
-2500.225075582646
 20
-253.8948652397936
 30
0.0
 11
-2500.225075582646
 21
-3158.999991958203
 31
0.0
  0
LWPOLYLINE
  5
395
330
1F
100
AcDbEntity
  8
0-B_寸法
  6
Continuous
 62
     7
370
     9
100
AcDbPolyline
 90
        4
 70
     1
 43
6.0
 10
-2497.225075582647
 20
-253.8948652397936
 42
0.4142135623731
 10
-2500.225075582646
 20
-250.8948652397936
 42
0.4142135623731
 10
-2503.225075582646
 20
-253.8948652397936
 42
0.4142135623731
 10
-2500.225075582646
 20
-256.8948652397935
 42
0.4142135623731
  0
LINE
  5
396
330
1F
100
AcDbEntity
  8
0-1_通り芯
  6
JWW_CENTER1
 62
   120
370
     5
100
AcDbLine
 10
-200.0818283164182
 20
-253.8948652397936
 30
0.0
 11
-2663.539734573277
 21
-253.8948652397936
 31
0.0
  0
LINE
  5
397
330
1F
100
AcDbEntity
  8
0-0_補助線
  6
JWW_HOJO
 62
   120
370
     5
100
AcDbLine
 10
-830.0818285538364
 20
-8.999785964549858
 30
0.0
 11
-830.0818285538364
 21
-3158.999991958203
 31
0.0
  0
LINE
  5
398
330
1F
100
AcDbEntity
  8
0-0_補助線
  6
JWW_HOJO
 62
   120
370
     5
100
AcDbLine
 10
-2290.225075824635
 20
-8.999785964549858
 30
0.0
 11
-830.0818285538364
 21
-8.999785964549858
 31
0.0
  0
LINE
  5
399
330
1F
100
AcDbEntity
  8
0-0_補助線
  6
JWW_HOJO
 62
   120
370
     5
100
AcDbLine
 10
-2290.225075824635
 20
-8.999785964549858
 30
0.0
 11
-2290.225075824635
 21
-3158.999991958203
 31
0.0
  0
LINE
  5
39A
330
1F
100
AcDbEntity
  8
0-0_補助線
  6
JWW_HOJO
 62
   120
370
     5
100
AcDbLine
 10
-1333.756058553836
 20
-8.999785964546447
 30
0.0
 11
-1333.756058553836
 21
-3436.451233459886
 31
0.0
  0
LINE
  5
39B
330
1F
100
AcDbEntity
  8
0-1_通り芯
  6
JWW_CENTER1
 62
   120
370
     5
100
AcDbLine
 10
-1534.756058553837
 20
-8.999785937653826
 30
0.0
 11
-1534.756058553837
 21
-3328.451233432992
 31
0.0
  0
LINE
  5
39C
330
1F
100
AcDbEntity
  8
0-7_金物
  6
Continuous
 62
     7
370
     9
100
AcDbLine
 10
-1624.756361822267
 20
-295.8952028404996
 30
0.0
 11
-1444.756499151368
 21
-295.8952028404996
 31
0.0
  0
LINE
  5
39D
330
1F
100
AcDbEntity
  8
0-7_金物
  6
Continuous
 62
     7
370
     9
100
AcDbLine
 10
-1444.756499151368
 20
-283.8948652397902
 30
0.0
 11
-1444.756499151368
 21
-295.8952028404996
 31
0.0
  0
LINE
  5
39E
330
1F
100
AcDbEntity
  8
0-7_金物
  6
Continuous
 62
     7
370
     9
100
AcDbLine
 10
-1624.756361822267
 20
-283.8948652397902
 30
0.0
 11
-1624.756361822267
 21
-295.8952028404996
 31
0.0
  0
LINE
  5
39F
330
1F
100
AcDbEntity
  8
0-7_金物
  6
Continuous
 62
     7
370
     9
100
AcDbLine
 10
-1624.756361822267
 20
-283.8948652397902
 30
0.0
 11
-1444.756499151368
 21
-283.8948652397902
 31
0.0
  0
LINE
  5
3A0
330
1F
100
AcDbEntity
  8
0-7_金物
  6
Continuous
 62
     7
370
     9
100
AcDbLine
 10
-1594.756258825443
 20
-295.8952028404996
 30
0.0
 11
-1594.756258825443
 21
-307.8947965752421
 31
0.0
  0
LINE
  5
3A1
330
1F
100
AcDbEntity
  8
0-7_金物
  6
Continuous
 62
     7
370
     9
100
AcDbLine
 10
-1474.756602148197
 20
-295.8952028404996
 30
0.0
 11
-1474.756602148197
 21
-307.8947965752421
 31
0.0
  0
LINE
  5
3A2
330
1F
100
AcDbEntity
  8
0-7_金物
  6
Continuous
 62
     7
370
     9
100
AcDbLine
 10
-1594.756258825443
 20
-307.8947965752421
 30
0.0
 11
-1474.756602148197
 21
-307.8947965752421
 31
0.0
  0
LINE
  5
3A3
330
1F
100
AcDbEntity
  8
0-7_金物
  6
Continuous
 62
     7
370
     9
100
AcDbLine
 10
-1588.756092886112
 20
-307.8947965752421
 30
0.0
 11
-1588.756092886112
 21
-331.8948652397938
 31
0.0
  0
LINE
  5
3A4
330
1F
100
AcDbEntity
  8
0-7_金物
  6
Continuous
 62
     7
370
     9
100
AcDbLine
 10
-1480.756024221562
 20
-331.8948652397938
 30
0.0
 11
-1480.756024221562
 21
-307.8947965752421
 31
0.0
  0
LINE
  5
3A5
330
1F
100
AcDbEntity
  8
0-3_仕上げ
  6
Continuous
 62
     7
370
     9
100
AcDbLine
 10
-1873.756058553836
 20
-283.8948652397936
 30
0.0
 11
-1195.756058553832
 21
-283.8948652397936
 31
0.0
  0
LINE
  5
3A6
330
1F
100
AcDbEntity
  8
0-3_仕上げ
  6
Continuous
 62
     7
370
     9
100
AcDbLine
 10
-1873.756058553836
 20
-253.8948652397936
 30
0.0
 11
-1195.756058553832
 21
-253.8948652397936
 31
0.0
  0
LINE
  5
3A7
330
1F
100
AcDbEntity
  8
0-C_ハッチ
  6
JWW_DASHED1
 62
   120
370
     5
100
AcDbLine
 10
-1219.050838043481
 20
-283.8948652397868
 30
0.0
 11
-1195.756058553846
 21
-260.6000857501543
 31
0.0
  0
LINE
  5
3A8
330
1F
100
AcDbEntity
  8
0-C_ハッチ
  6
JWW_DASHED1
 62
   120
370
     5
100
AcDbLine
 10
-1261.477244914689
 20
-283.894865239797
 30
0.0
 11
-1231.477244914682
 21
-253.8948652397902
 31
0.0
  0
LINE
  5
3A9
330
1F
100
AcDbEntity
  8
0-C_ハッチ
  6
JWW_DASHED1
 62
   120
370
     5
100
AcDbLine
 10
-1303.903651785888
 20
-283.894865239797
 30
0.0
 11
-1273.903651785881
 21
-253.8948652397868
 31
0.0
  0
LINE
  5
3AA
330
1F
100
AcDbEntity
  8
0-C_ハッチ
  6
JWW_DASHED1
 62
   120
370
     5
100
AcDbLine
 10
-1346.330058657082
 20
-283.8948652397902
 30
0.0
 11
-1316.330058657095
 21
-253.894865239797
 31
0.0
  0
LINE
  5
3AB
330
1F
100
AcDbEntity
  8
0-C_ハッチ
  6
JWW_DASHED1
 62
   120
370
     5
100
AcDbLine
 10
-1388.756465528282
 20
-283.8948652397902
 30
0.0
 11
-1358.756465528295
 21
-253.894865239797
 31
0.0
  0
LINE
  5
3AC
330
1F
100
AcDbEntity
  8
0-C_ハッチ
  6
JWW_DASHED1
 62
   120
370
     5
100
AcDbLine
 10
-1431.182872399482
 20
-283.8948652397902
 30
0.0
 11
-1401.182872399489
 21
-253.894865239797
 31
0.0
  0
LINE
  5
3AD
330
1F
100
AcDbEntity
  8
0-C_ハッチ
  6
JWW_DASHED1
 62
   120
370
     5
100
AcDbLine
 10
-1473.609279270681
 20
-283.8948652397868
 30
0.0
 11
-1443.609279270688
 21
-253.8948652397936
 31
0.0
  0
LINE
  5
3AE
330
1F
100
AcDbEntity
  8
0-C_ハッチ
  6
JWW_DASHED1
 62
   120
370
     5
100
AcDbLine
 10
-1516.035686141833
 20
-283.894865239797
 30
0.0
 11
-1486.035686141827
 21
-253.8948652397868
 31
0.0
  0
LINE
  5
3AF
330
1F
100
AcDbEntity
  8
0-C_ハッチ
  6
JWW_DASHED1
 62
   120
370
     5
100
AcDbLine
 10
-1558.462093013033
 20
-283.8948652397902
 30
0.0
 11
-1528.46209301302
 21
-253.8948652397833
 31
0.0
  0
LINE
  5
3B0
330
1F
100
AcDbEntity
  8
0-C_ハッチ
  6
JWW_DASHED1
 62
   120
370
     5
100
AcDbLine
 10
-1600.888499884234
 20
-283.894865239797
 30
0.0
 11
-1570.888499884227
 21
-253.8948652397902
 31
0.0
  0
LINE
  5
3B1
330
1F
100
AcDbEntity
  8
0-C_ハッチ
  6
JWW_DASHED1
 62
   120
370
     5
100
AcDbLine
 10
-1643.314906755433
 20
-283.8948652397902
 30
0.0
 11
-1613.31490675542
 21
-253.8948652397833
 31
0.0
  0
LINE
  5
3B2
330
1F
100
AcDbEntity
  8
0-C_ハッチ
  6
JWW_DASHED1
 62
   120
370
     5
100
AcDbLine
 10
-1685.741313626627
 20
-283.8948652397902
 30
0.0
 11
-1655.741313626635
 21
-253.894865239797
 31
0.0
  0
LINE
  5
3B3
330
1F
100
AcDbEntity
  8
0-C_ハッチ
  6
JWW_DASHED1
 62
   120
370
     5
100
AcDbLine
 10
-1728.167720497835
 20
-283.894865239797
 30
0.0
 11
-1698.167720497841
 21
-253.8948652398038
 31
0.0
  0
LINE
  5
3B4
330
1F
100
AcDbEntity
  8
0-C_ハッチ
  6
JWW_DASHED1
 62
   120
370
     5
100
AcDbLine
 10
-1770.594127369033
 20
-283.8948652397936
 30
0.0
 11
-1740.59412736904
 21
-253.8948652398038
 31
0.0
  0
LINE
  5
3B5
330
1F
100
AcDbEntity
  8
0-C_ハッチ
  6
JWW_DASHED1
 62
   120
370
     5
100
AcDbLine
 10
-1813.020534240187
 20
-283.8948652398038
 30
0.0
 11
-1783.020534240179
 21
-253.894865239797
 31
0.0
  0
LINE
  5
3B6
330
1F
100
AcDbEntity
  8
0-C_ハッチ
  6
JWW_DASHED1
 62
   120
370
     5
100
AcDbLine
 10
-1855.446941111386
 20
-283.8948652398004
 30
0.0
 11
-1825.446941111379
 21
-253.8948652397902
 31
0.0
  0
LINE
  5
3B7
330
1F
100
AcDbEntity
  8
0-C_ハッチ
  6
JWW_DASHED1
 62
   120
370
     5
100
AcDbLine
 10
-1873.756058553837
 20
-259.7775758110537
 30
0.0
 11
-1867.873347982573
 21
-253.8948652397902
 31
0.0
  0
LINE
  5
3B8
330
1F
100
AcDbEntity
  8
0-3_仕上げ
  6
Continuous
 62
     7
370
     9
100
AcDbLine
 10
-1873.756058553836
 20
-8.999785937653826
 30
0.0
 11
-1873.756058553836
 21
-283.8948652397936
 31
0.0
  0
LINE
  5
3B9
330
1F
100
AcDbEntity
  8
0-3_仕上げ
  6
Continuous
 62
     7
370
     9
100
AcDbLine
 10
-1195.756058553832
 20
-8.999785937653826
 30
0.0
 11
-1195.756058553832
 21
-283.8948652397936
 31
0.0
  0
LWPOLYLINE
  5
3BA
330
1F
100
AcDbEntity
  8
0-B_寸法
  6
Continuous
 62
     7
370
     9
100
AcDbPolyline
 90
        4
 70
     1
 43
6.0
 10
-197.0818283164182
 20
-283.8948652397936
 42
0.4142135623731
 10
-200.0818283164182
 20
-280.8948652397936
 42
0.4142135623731
 10
-203.0818283164182
 20
-283.8948652397936
 42
0.4142135623731
 10
-200.0818283164182
 20
-286.8948652397935
 42
0.4142135623731
  0
LINE
  5
3BB
330
1F
100
AcDbEntity
  8
0-B_寸法
  6
Continuous
 62
   120
370
     5
100
AcDbLine
 10
-200.0818283164182
 20
-283.8948652397936
 30
0.0
 11
-830.0818283164182
 21
-283.8948652397936
 31
0.0
  0
LWPOLYLINE
  5
3BC
330
1F
100
AcDbEntity
  8
0-B_寸法
  6
Continuous
 62
     7
370
     9
100
AcDbPolyline
 90
        4
 70
     1
 43
6.0
 10
-197.0818283164182
 20
-253.8948652397936
 42
0.4142135623731
 10
-200.0818283164182
 20
-250.8948652397936
 42
0.4142135623731
 10
-203.0818283164182
 20
-253.8948652397936
 42
0.4142135623731
 10
-200.0818283164182
 20
-256.8948652397935
 42
0.4142135623731
  0
LINE
  5
3BD
330
1F
100
AcDbEntity
  8
0-B_寸法
  6
Continuous
 62
   120
370
     5
100
AcDbLine
 10
-200.0818283164182
 20
-253.8948652397936
 30
0.0
 11
-830.0818283164182
 21
-253.8948652397936
 31
0.0
  0
LINE
  5
3BE
330
1F
100
AcDbEntity
  8
0-B_寸法
  6
Continuous
 62
   120
370
     5
100
AcDbLine
 10
-200.0818283164182
 20
-160.5555994233474
 30
0.0
 11
-200.0818283164182
 21
-3158.999991958203
 31
0.0
  0
TEXT
  5
3BF
330
1F
100
AcDbEntity
  8
0-B_寸法
  6
Continuous
 62
     7
370
     0
100
AcDbText
 10
-652.0018283164181
 20
-3031.500197951857
 30
0.0
 40
91.44
  1
5
 50
90.0
  7
ＭＳ ゴシック
100
AcDbText
  0
TEXT
  5
3C0
330
1F
100
AcDbEntity
  8
0-B_寸法
  6
Continuous
 62
     7
370
   211
100
AcDbText
 10
-442.0018283164182
 20
-3050.999991958206
 30
0.0
 40
91.44
  1
3
 50
90.0
  7
ＭＳ ゴシック
100
AcDbText
  0
TEXT
  5
3C1
330
1F
100
AcDbEntity
  8
0-B_寸法
  6
Continuous
 62
     7
370
   211
100
AcDbText
 10
-232.0018283164182
 20
-3286.500197951857
 30
0.0
 40
91.44
  1
12
 50
90.0
 41
1.0625
  7
ＭＳ ゴシック
100
AcDbText
  0
TEXT
  5
3C2
330
1F
100
AcDbEntity
  8
0-B_寸法
  6
Continuous
 62
     7
370
     0
100
AcDbText
 10
-225.9164787431208
 20
-2390.999840323987
 30
0.0
 40
91.44
  1
枠外＝2,030(2,230)
 50
90.0
  7
ＭＳ ゴシック
100
AcDbText
  0
TEXT
  5
3C3
330
1F
100
AcDbEntity
  8
0-B_寸法
  6
Continuous
 62
     7
370
   211
100
AcDbText
 10
-442.0018283164182
 20
-2390.999840323988
 30
0.0
 40
91.44
  1
枠内＝2,003(2,203)
 50
90.0
 41
1.0
  7
ＭＳ ゴシック
100
AcDbText
  0
TEXT
  5
3C4
330
1F
100
AcDbEntity
  8
0-B_寸法
  6
Continuous
 62
     7
370
     0
100
AcDbText
 10
-650.0826489610965
 20
-2390.999840323988
 30
0.0
 40
91.44
  1
ＤＨ＝1,995(2,195)
 50
90.0
 41
1.0
  7
ＭＳ ゴシック
100
AcDbText
  0
TEXT
  5
3C5
330
1F
100
AcDbEntity
  8
0-B_寸法
  6
Continuous
 62
     7
370
     0
100
AcDbText
 10
-2544.990379450045
 20
-2368.697428598998
 30
0.0
 40
91.44
  1
ＲＯＨ＝2,055(2,255)
 50
90.0
 41
1.11875
  7
ＭＳ ゴシック
100
AcDbText
  0
TEXT
  5
3C6
330
1F
100
AcDbEntity
  8
0-A_文字
  6
Continuous
 62
     7
370
     0
100
AcDbText
 10
-1304.447556495777
 20
-3543.089471410495
 30
0.0
 40
68.58
  1
※(　)内寸法はハイドア
 41
1.151515151515152
  7
ＭＳ ゴシック
100
AcDbText
  0
TEXT
  5
3C7
330
1F
100
AcDbEntity
  8
0-0_補助線
  6
Continuous
 62
     7
370
   211
100
AcDbText
 10
-536.0814571566881
 20
1591.920197957027
 30
0.0
 40
91.44
  1
有効開口寸法＝536
 41
1.117647058823529
  7
ＭＳ ゴシック
100
AcDbText
  0
TEXT
  5
3C8
330
1F
100
AcDbEntity
  8
0-0_補助線
  6
Continuous
 62
     7
370
     0
100
AcDbText
 10
-290.0814571566833
 20
1385.835329582353
 30
0.0
 40
91.44
  1
ＤＷ＝599
 41
1.111111111111111
  7
ＭＳ ゴシック
100
AcDbText
  0
TEXT
  5
3C9
330
1F
100
AcDbEntity
  8
0-0_補助線
  6
Continuous
 62
     7
370
   211
100
AcDbText
 10
-290.0814571566833
 20
1171.920197957027
 30
0.0
 40
91.44
  1
枠内＝606
 41
1.111111111111111
  7
ＭＳ ゴシック
100
AcDbText
  0
TEXT
  5
3CA
330
1F
100
AcDbEntity
  8
0-0_補助線
  6
Continuous
 62
     7
370
     0
100
AcDbText
 10
-290.0814571566833
 20
954.7587446185229
 30
0.0
 40
91.44
  1
枠外＝654
 41
1.111111111111111
  7
ＭＳ ゴシック
100
AcDbText
  0
TEXT
  5
3CB
330
1F
100
AcDbEntity
  8
0-0_補助線
  6
Continuous
 62
     7
370
   211
100
AcDbText
 10
-357.581457156685
 20
751.9201979570265
 30
0.0
 40
91.44
  1
ＲＯＷ＝664
 41
1.113636363636364
  7
ＭＳ ゴシック
100
AcDbText
  0
TEXT
  5
3CC
330
1F
100
AcDbEntity
  8
0-A_文字
  6
Continuous
 62
    92
370
    13
100
AcDbText
 10
-5611.249495325861
 20
3800.380181456216
 30
0.0
 40
137.16
  1
トイレドア　床直付けレール[調整枠]
 41
1.080882352941176
  7
ＭＳ ゴシック
100
AcDbText
  0
TEXT
  5
3CD
330
1F
100
AcDbEntity
  8
F-A_文字
  6
Continuous
 62
     7
370
     0
100
AcDbText
 10
-5087.628710189611
 20
-4027.309936078391
 30
0.0
 40
68.58
  1
ソフトアート　トイレドア　調整枠　気密　床直付けレール(アルミ)　ドアＨ共通　枠外Ｗ654
 41
1.164705882352941
  7
ＭＳ ゴシック
100
AcDbText
  0
TEXT
  5
3CE
330
1F
100
AcDbEntity
  8
F-A_文字
  6
Continuous
 62
     7
370
     0
100
AcDbText
 10
3569.917643811961
 20
-3927.313115907308
 30
0.0
 40
68.58
  1
1/5
 41
1.111111111111111
  7
ＭＳ ゴシック
100
AcDbText
  0
TEXT
  5
3CF
330
1F
100
AcDbEntity
  8
F-A_文字
  6
Continuous
 62
     7
370
     9
100
AcDbText
 10
3254.917643811961
 20
-4127.313118467413
 30
0.0
 40
68.58
  1
F03(X)-T0654KAe_S01
 41
1.157894736842105
  7
ＭＳ ゴシック
100
AcDbText
  0
TEXT
  5
3D0
330
1F
100
AcDbEntity
  8
0-B_寸法
  6
Continuous
 62
     7
370
     0
100
AcDbText
 10
-863.7453968253967
 20
-514.9206349206348
 30
0.0
 40
91.44
  1
3
 50
90.0
  7
ＭＳ ゴシック
100
AcDbText
  0
TEXT
  5
3D1
330
1F
100
AcDbEntity
  8
0-B_寸法
  6
Continuous
 62
     7
370
   211
100
AcDbText
 10
-870.0946031746031
 20
-340.3174603174602
 30
0.0
 40
91.44
  1
8
 50
90.0
  7
ＭＳ ゴシック
100
AcDbText
  0
ENDSEC
  0
SECTION
  2
OBJECTS
  0
DICTIONARY
  5
C
330
0
100
AcDbDictionary
281
     1
  3
ACAD_DETAILVIEWSTYLE
350
409
  3
ACAD_GROUP
350
D
  3
ACAD_LAYOUT
350
1A
  3
ACAD_MATERIAL
350
43
  3
ACAD_MLEADERSTYLE
350
6B
  3
ACAD_MLINESTYLE
350
17
  3
ACAD_PLOTSETTINGS
350
19
  3
ACAD_PLOTSTYLENAME
350
E
  3
ACAD_SCALELIST
350
47
  3
ACAD_SECTIONVIEWSTYLE
350
40A
  3
ACAD_TABLESTYLE
350
69
  3
ACAD_VISUALSTYLE
350
2A
  3
ACDB_RECOMPOSE_DATA
350
406
  3
AcDbVariableDictionary
350
3D2
  0
SUN
  5
6D
330
29
100
AcDbSun
 90
        1
290
     0
 63
     7
421
 16777215
 40
1.0
291
     1
 91
  2455826
 92
 54000000
292
     0
 70
     2
 71
   256
280
     1
  0
DICTIONARY
  5
409
102
{ACAD_REACTORS
330
C
102
}
330
C
100
AcDbDictionary
281
     1
  0
DICTIONARY
  5
D
102
{ACAD_REACTORS
330
C
102
}
330
C
100
AcDbDictionary
281
     1
  0
DICTIONARY
  5
1A
102
{ACAD_REACTORS
330
C
102
}
330
C
100
AcDbDictionary
281
     1
  3
Layout1
350
1E
  3
Layout2
350
26
  3
Model
350
22
  0
DICTIONARY
  5
43
102
{ACAD_REACTORS
330
C
102
}
330
C
100
AcDbDictionary
281
     1
  3
ByBlock
350
45
  3
ByLayer
350
44
  3
Global
350
46
  0
DICTIONARY
  5
6B
102
{ACAD_REACTORS
330
C
102
}
330
C
100
AcDbDictionary
281
     1
  3
Standard
350
6C
  0
DICTIONARY
  5
17
102
{ACAD_REACTORS
330
C
102
}
330
C
100
AcDbDictionary
281
     1
  3
Standard
350
18
  0
DICTIONARY
  5
19
102
{ACAD_REACTORS
330
C
102
}
330
C
100
AcDbDictionary
281
     1
  0
ACDBDICTIONARYWDFLT
  5
E
102
{ACAD_REACTORS
330
C
102
}
330
C
100
AcDbDictionary
281
     1
  3
Normal
350
F
100
AcDbDictionaryWithDefault
340
F
  0
DICTIONARY
  5
47
102
{ACAD_REACTORS
330
C
102
}
330
C
100
AcDbDictionary
281
     1
  3
A0
350
48
  3
A1
350
49
  3
A2
350
4A
  3
A3
350
4B
  3
A4
350
4C
  3
A5
350
4D
  3
A6
350
4E
  3
A7
350
4F
  3
A8
350
50
  3
A9
350
51
  3
B0
350
52
  3
B1
350
53
  3
B2
350
54
  3
B3
350
55
  3
B4
350
56
  3
B5
350
57
  3
B6
350
58
  3
B7
350
59
  3
B8
350
5A
  3
B9
350
5B
  3
C0
350
5C
  3
C1
350
5D
  3
C2
350
5E
  3
C3
350
5F
  3
C4
350
60
  3
C5
350
61
  3
C6
350
62
  3
C7
350
63
  3
C8
350
64
  3
C9
350
65
  3
D0
350
66
  3
D1
350
67
  3
D2
350
68
  0
DICTIONARY
  5
40A
102
{ACAD_REACTORS
330
C
102
}
330
C
100
AcDbDictionary
281
     1
  0
DICTIONARY
  5
69
102
{ACAD_REACTORS
330
C
102
}
330
C
100
AcDbDictionary
281
     1
  3
Standard
350
6A
  0
DICTIONARY
  5
2A
102
{ACAD_REACTORS
330
C
102
}
330
C
100
AcDbDictionary
281
     1
  3
2dWireframe
350
2F
  3
Basic
350
32
  3
Brighten
350
36
  3
ColorChange
350
3A
  3
Conceptual
350
34
  3
Dim
350
35
  3
EdgeColorOff
350
3D
  3
Facepattern
350
39
  3
Flat
350
2B
  3
FlatWithEdges
350
2C
  3
Gouraud
350
2D
  3
GouraudWithEdges
350
2E
  3
Hidden
350
31
  3
JitterOff
350
3B
  3
Linepattern
350
38
  3
OverhangOff
350
3C
  3
Realistic
350
33
  3
Shaded
350
42
  3
Shaded with edges
350
41
  3
Shades of Gray
350
3E
  3
Sketchy
350
3F
  3
Thicken
350
37
  3
Wireframe
350
30
  3
X-Ray
350
40
  0
XRECORD
  5
406
102
{ACAD_REACTORS
330
C
102
}
330
C
100
AcDbXrecord
280
     1
 90
        1
330
6A
  0
DICTIONARY
  5
3D2
102
{ACAD_REACTORS
330
C
102
}
330
C
100
AcDbDictionary
281
     1
  3
CANNOSCALE
350
3D3
  3
CENTEREXE
350
40B
  3
CENTERLTYPEFILE
350
40C
  3
CMLEADERSTYLE
350
408
  3
CTABLESTYLE
350
407
  0
LAYOUT
  5
1E
102
{ACAD_REACTORS
330
1A
102
}
330
1A
100
AcDbPlotSettings
  1

  2
none_device
  4

  6

 40
0.0
 41
0.0
 42
0.0
 43
0.0
 44
0.0
 45
0.0
 46
0.0
 47
0.0
 48
0.0
 49
0.0
140
0.0
141
0.0
142
1.0
143
1.0
 70
   688
 72
     1
 73
     0
 74
     5
  7

 75
    16
 76
     0
 77
     5
 78
   300
147
1.0
148
0.0
149
0.0
100
AcDbLayout
  1
Layout1
 70
     1
 71
     1
 10
0.0
 20
0.0
 11
420.0
 21
297.0
 12
0.0
 22
0.0
 32
0.0
 14
1.000000000000000E+20
 24
1.000000000000000E+20
 34
1.000000000000000E+20
 15
-1.000000000000000E+20
 25
-1.000000000000000E+20
 35
-1.000000000000000E+20
146
0.0
 13
0.0
 23
0.0
 33
0.0
 16
1.0
 26
0.0
 36
0.0
 17
0.0
 27
1.0
 37
0.0
 76
     0
330
1B
  0
LAYOUT
  5
26
102
{ACAD_REACTORS
330
1A
102
}
330
1A
100
AcDbPlotSettings
  1

  2
none_device
  4

  6

 40
0.0
 41
0.0
 42
0.0
 43
0.0
 44
0.0
 45
0.0
 46
0.0
 47
0.0
 48
0.0
 49
0.0
140
0.0
141
0.0
142
1.0
143
1.0
 70
   688
 72
     1
 73
     0
 74
     5
  7

 75
    16
 76
     0
 77
     5
 78
   300
147
1.0
148
0.0
149
0.0
100
AcDbLayout
  1
Layout2
 70
     1
 71
     2
 10
0.0
 20
0.0
 11
0.0
 21
0.0
 12
0.0
 22
0.0
 32
0.0
 14
0.0
 24
0.0
 34
0.0
 15
0.0
 25
0.0
 35
0.0
146
0.0
 13
0.0
 23
0.0
 33
0.0
 16
1.0
 26
0.0
 36
0.0
 17
0.0
 27
1.0
 37
0.0
 76
     0
330
23
  0
LAYOUT
  5
22
102
{ACAD_REACTORS
330
1A
102
}
330
1A
100
AcDbPlotSettings
  1

  2
none_device
  4
Letter_(8.50_x_11.00_Inches)
  6

 40
6.35
 41
6.35
 42
6.35000508
 43
6.35000508
 44
215.9
 45
279.4
 46
0.0
 47
0.0
 48
0.0
 49
0.0
140
0.0
141
0.0
142
1.0
143
1.0
 70
  1712
 72
     1
 73
     0
 74
     0
  7

 75
     0
 76
     0
 77
     5
 78
   300
147
1.0
148
0.0
149
0.0
100
AcDbLayout
  1
Model
 70
     1
 71
     0
 10
-6300.0
 20
-4455.0
 11
6300.0
 21
4455.0
 12
0.0
 22
0.0
 32
0.0
 14
-6300.0
 24
-4455.0
 34
0.0
 15
6300.0
 25
4455.0
 35
0.0
146
0.0
 13
0.0
 23
0.0
 33
0.0
 16
1.0
 26
0.0
 36
0.0
 17
0.0
 27
1.0
 37
0.0
 76
     0
330
1F
331
29
  0
MATERIAL
  5
45
102
{ACAD_REACTORS
330
43
102
}
330
43
100
AcDbMaterial
  1
ByBlock
 72
     1
 94
      127
  0
MATERIAL
  5
44
102
{ACAD_REACTORS
330
43
102
}
330
43
100
AcDbMaterial
  1
ByLayer
 72
     1
 94
      127
  0
MATERIAL
  5
46
102
{ACAD_REACTORS
330
43
102
}
330
43
100
AcDbMaterial
  1
Global
 72
     1
 94
      127
  0
MLEADERSTYLE
  5
6C
102
{ACAD_REACTORS
330
6B
102
}
330
6B
100
AcDbMLeaderStyle
179
     2
170
     2
171
     1
172
     0
 90
        2
 40
0.0
 41
0.0
173
     1
 91
-1056964608
340
14
 92
       -2
290
     1
 42
2.0
291
     1
 43
8.0
  3
Standard
341
0
 44
4.0
300

342
11
174
     1
178
     6
175
     1
176
     0
 93
-1056964608
 45
4.0
292
     0
297
     0
 46
4.0
343
0
 94
-1056964608
 47
1.0
 49
1.0
140
1.0
293
     1
141
0.0
294
     1
177
     0
142
1.0
295
     0
296
     0
143
3.75
271
     0
272
     9
273
     9
  0
MLINESTYLE
  5
18
102
{ACAD_REACTORS
330
17
102
}
330
17
100
AcDbMlineStyle
  2
Standard
 70
     0
  3

 62
   256
 51
90.0
 52
90.0
 71
     2
 49
0.5
 62
   256
  6
BYLAYER
 49
-0.5
 62
   256
  6
BYLAYER
  0
ACDBPLACEHOLDER
  5
F
102
{ACAD_REACTORS
330
E
102
}
330
E
  0
SCALE
  5
48
102
{ACAD_REACTORS
330
47
102
}
330
47
100
AcDbScale
 70
     0
300
1:1
140
1.0
141
1.0
290
     1
  0
SCALE
  5
49
102
{ACAD_REACTORS
330
47
102
}
330
47
100
AcDbScale
 70
     0
300
1:2
140
1.0
141
2.0
290
     0
  0
SCALE
  5
4A
102
{ACAD_REACTORS
330
47
102
}
330
47
100
AcDbScale
 70
     0
300
1:4
140
1.0
141
4.0
290
     0
  0
SCALE
  5
4B
102
{ACAD_REACTORS
330
47
102
}
330
47
100
AcDbScale
 70
     0
300
1:5
140
1.0
141
5.0
290
     0
  0
SCALE
  5
4C
102
{ACAD_REACTORS
330
47
102
}
330
47
100
AcDbScale
 70
     0
300
1:8
140
1.0
141
8.0
290
     0
  0
SCALE
  5
4D
102
{ACAD_REACTORS
330
47
102
}
330
47
100
AcDbScale
 70
     0
300
1:10
140
1.0
141
10.0
290
     0
  0
SCALE
  5
4E
102
{ACAD_REACTORS
330
47
102
}
330
47
100
AcDbScale
 70
     0
300
1:16
140
1.0
141
16.0
290
     0
  0
SCALE
  5
4F
102
{ACAD_REACTORS
330
47
102
}
330
47
100
AcDbScale
 70
     0
300
1:20
140
1.0
141
20.0
290
     0
  0
SCALE
  5
50
102
{ACAD_REACTORS
330
47
102
}
330
47
100
AcDbScale
 70
     0
300
1:30
140
1.0
141
30.0
290
     0
  0
SCALE
  5
51
102
{ACAD_REACTORS
330
47
102
}
330
47
100
AcDbScale
 70
     0
300
1:40
140
1.0
141
40.0
290
     0
  0
SCALE
  5
52
102
{ACAD_REACTORS
330
47
102
}
330
47
100
AcDbScale
 70
     0
300
1:50
140
1.0
141
50.0
290
     0
  0
SCALE
  5
53
102
{ACAD_REACTORS
330
47
102
}
330
47
100
AcDbScale
 70
     0
300
1:100
140
1.0
141
100.0
290
     0
  0
SCALE
  5
54
102
{ACAD_REACTORS
330
47
102
}
330
47
100
AcDbScale
 70
     0
300
2:1
140
2.0
141
1.0
290
     0
  0
SCALE
  5
55
102
{ACAD_REACTORS
330
47
102
}
330
47
100
AcDbScale
 70
     0
300
4:1
140
4.0
141
1.0
290
     0
  0
SCALE
  5
56
102
{ACAD_REACTORS
330
47
102
}
330
47
100
AcDbScale
 70
     0
300
8:1
140
8.0
141
1.0
290
     0
  0
SCALE
  5
57
102
{ACAD_REACTORS
330
47
102
}
330
47
100
AcDbScale
 70
     0
300
10:1
140
10.0
141
1.0
290
     0
  0
SCALE
  5
58
102
{ACAD_REACTORS
330
47
102
}
330
47
100
AcDbScale
 70
     0
300
100:1
140
100.0
141
1.0
290
     0
  0
SCALE
  5
59
102
{ACAD_REACTORS
330
47
102
}
330
47
100
AcDbScale
 70
     0
300
1/128" = 1'-0"
140
0.0078125
141
12.0
290
     0
  0
SCALE
  5
5A
102
{ACAD_REACTORS
330
47
102
}
330
47
100
AcDbScale
 70
     0
300
1/64" = 1'-0"
140
0.015625
141
12.0
290
     0
  0
SCALE
  5
5B
102
{ACAD_REACTORS
330
47
102
}
330
47
100
AcDbScale
 70
     0
300
1/32" = 1'-0"
140
0.03125
141
12.0
290
     0
  0
SCALE
  5
5C
102
{ACAD_REACTORS
330
47
102
}
330
47
100
AcDbScale
 70
     0
300
1/16" = 1'-0"
140
0.0625
141
12.0
290
     0
  0
SCALE
  5
5D
102
{ACAD_REACTORS
330
47
102
}
330
47
100
AcDbScale
 70
     0
300
3/32" = 1'-0"
140
0.09375
141
12.0
290
     0
  0
SCALE
  5
5E
102
{ACAD_REACTORS
330
47
102
}
330
47
100
AcDbScale
 70
     0
300
1/8" = 1'-0"
140
0.125
141
12.0
290
     0
  0
SCALE
  5
5F
102
{ACAD_REACTORS
330
47
102
}
330
47
100
AcDbScale
 70
     0
300
3/16" = 1'-0"
140
0.1875
141
12.0
290
     0
  0
SCALE
  5
60
102
{ACAD_REACTORS
330
47
102
}
330
47
100
AcDbScale
 70
     0
300
1/4" = 1'-0"
140
0.25
141
12.0
290
     0
  0
SCALE
  5
61
102
{ACAD_REACTORS
330
47
102
}
330
47
100
AcDbScale
 70
     0
300
3/8" = 1'-0"
140
0.375
141
12.0
290
     0
  0
SCALE
  5
62
102
{ACAD_REACTORS
330
47
102
}
330
47
100
AcDbScale
 70
     0
300
1/2" = 1'-0"
140
0.5
141
12.0
290
     0
  0
SCALE
  5
63
102
{ACAD_REACTORS
330
47
102
}
330
47
100
AcDbScale
 70
     0
300
3/4" = 1'-0"
140
0.75
141
12.0
290
     0
  0
SCALE
  5
64
102
{ACAD_REACTORS
330
47
102
}
330
47
100
AcDbScale
 70
     0
300
1" = 1'-0"
140
1.0
141
12.0
290
     0
  0
SCALE
  5
65
102
{ACAD_REACTORS
330
47
102
}
330
47
100
AcDbScale
 70
     0
300
1-1/2" = 1'-0"
140
1.5
141
12.0
290
     0
  0
SCALE
  5
66
102
{ACAD_REACTORS
330
47
102
}
330
47
100
AcDbScale
 70
     0
300
3" = 1'-0"
140
3.0
141
12.0
290
     0
  0
SCALE
  5
67
102
{ACAD_REACTORS
330
47
102
}
330
47
100
AcDbScale
 70
     0
300
6" = 1'-0"
140
6.0
141
12.0
290
     0
  0
SCALE
  5
68
102
{ACAD_REACTORS
330
47
102
}
330
47
100
AcDbScale
 70
     0
300
1'-0" = 1'-0"
140
12.0
141
12.0
290
     0
  0
TABLESTYLE
  5
6A
102
{ACAD_REACTORS
330
69
102
}
102
{ACAD_XDICTIONARY
360
404
102
}
330
69
100
AcDbTableStyle
  3
Standard
 70
     0
 71
     0
 40
0.06
 41
0.06
280
     0
281
     0
  7
Standard
140
4.5
170
     2
 62
     0
 63
   257
283
     0
 90
        4
 91
        0
  1

274
    -2
284
     1
 64
     0
275
    -2
285
     1
 65
     0
276
    -2
286
     1
 66
     0
277
    -2
287
     1
 67
     0
278
    -2
288
     1
 68
     0
279
    -2
289
     1
 69
     0
  7
Standard
140
6.0
170
     5
 62
     0
 63
   257
283
     0
 90
        4
 91
        0
  1

274
    -2
284
     1
 64
     0
275
    -2
285
     1
 65
     0
276
    -2
286
     1
 66
     0
277
    -2
287
     1
 67
     0
278
    -2
288
     1
 68
     0
279
    -2
289
     1
 69
     0
  7
Standard
140
4.5
170
     5
 62
     0
 63
   257
283
     0
 90
        4
 91
        0
  1

274
    -2
284
     1
 64
     0
275
    -2
285
     1
 65
     0
276
    -2
286
     1
 66
     0
277
    -2
287
     1
 67
     0
278
    -2
288
     1
 68
     0
279
    -2
289
     1
 69
     0
  0
VISUALSTYLE
  5
2F
102
{ACAD_REACTORS
330
2A
102
}
102
{ACAD_XDICTIONARY
360
3DC
102
}
330
2A
100
AcDbVisualStyle
  2
2dWireframe
 70
     4
177
     2
291
     0
 71
     0
176
     1
 72
     2
176
     1
 73
     0
176
     1
 90
        0
176
     1
 40
0.6
176
     1
 41
30.0
176
     1
 62
     5
 63
     7
421
 16777215
176
     1
 74
     1
176
     1
 91
        4
176
     1
 64
     7
176
     1
 65
   257
176
     1
 75
     1
176
     1
175
     1
176
     1
 42
1.0
176
     1
 92
        0
176
     1
 66
   257
176
     1
 43
1.0
176
     1
 76
     1
176
     1
 77
     6
176
     1
 78
     2
176
     1
 67
     7
176
     1
 79
     5
176
     1
170
     0
176
     1
171
     0
176
     1
290
     0
176
     1
 93
        1
176
     1
 44
0.0
176
     1
173
     0
176
     1
  0
VISUALSTYLE
  5
32
102
{ACAD_REACTORS
330
2A
102
}
102
{ACAD_XDICTIONARY
360
3E2
102
}
330
2A
100
AcDbVisualStyle
  2
Basic
 70
     7
177
     2
291
     1
 71
     1
176
     1
 72
     0
176
     1
 73
     1
176
     1
 90
        0
176
     1
 40
0.6
176
     1
 41
30.0
176
     1
 62
     5
 63
     7
421
 16777215
176
     1
 74
     0
176
     1
 91
        4
176
     1
 64
     7
176
     1
 65
   257
176
     1
 75
     1
176
     1
175
     1
176
     1
 42
1.0
176
     1
 92
        8
176
     1
 66
     7
176
     1
 43
1.0
176
     1
 76
     1
176
     1
 77
     6
176
     1
 78
     2
176
     1
 67
     7
176
     1
 79
     5
176
     1
170
     0
176
     1
171
     0
176
     1
290
     0
176
     1
 93
        1
176
     1
 44
0.0
176
     1
173
     0
176
     1
  0
VISUALSTYLE
  5
36
102
{ACAD_REACTORS
330
2A
102
}
102
{ACAD_XDICTIONARY
360
3EA
102
}
330
2A
100
AcDbVisualStyle
  2
Brighten
 70
    12
177
     2
291
     1
 71
     2
176
     1
 72
     2
176
     1
 73
     0
176
     1
 90
        0
176
     1
 40
0.6
176
     1
 41
30.0
176
     1
 62
     5
 63
     7
421
 16777215
176
     1
 74
     1
176
     1
 91
        4
176
     1
 64
     7
176
     1
 65
   257
176
     1
 75
     1
176
     1
175
     1
176
     1
 42
1.0
176
     1
 92
        8
176
     1
 66
     7
176
     1
 43
1.0
176
     1
 76
     1
176
     1
 77
     6
176
     1
 78
     2
176
     1
 67
     7
176
     1
 79
     5
176
     1
170
     0
176
     1
171
     0
176
     1
290
     0
176
     1
 93
        1
176
     1
 44
50.0
176
     1
173
     0
176
     1
  0
VISUALSTYLE
  5
3A
102
{ACAD_REACTORS
330
2A
102
}
102
{ACAD_XDICTIONARY
360
3F2
102
}
330
2A
100
AcDbVisualStyle
  2
ColorChange
 70
    16
177
     2
291
     1
 71
     2
176
     1
 72
     2
176
     1
 73
     3
176
     1
 90
        0
176
     1
 40
0.6
176
     1
 41
30.0
176
     1
 62
     5
 63
     8
421
  8421504
176
     1
 74
     1
176
     1
 91
        4
176
     1
 64
     7
176
     1
 65
   257
176
     1
 75
     1
176
     1
175
     1
176
     1
 42
1.0
176
     1
 92
        8
176
     1
 66
     8
424
  8421504
176
     1
 43
1.0
176
     1
 76
     1
176
     1
 77
     6
176
     1
 78
     2
176
     1
 67
     7
176
     1
 79
     5
176
     1
170
     0
176
     1
171
     0
176
     1
290
     0
176
     1
 93
        1
176
     1
 44
0.0
176
     1
173
     0
176
     1
  0
VISUALSTYLE
  5
34
102
{ACAD_REACTORS
330
2A
102
}
102
{ACAD_XDICTIONARY
360
3E6
102
}
330
2A
100
AcDbVisualStyle
  2
Conceptual
 70
     9
177
     2
291
     0
 71
     3
176
     1
 72
     2
176
     1
 73
     0
176
     1
 90
        0
176
     1
 40
0.6
176
     1
 41
30.0
176
     1
 62
     5
 63
     7
421
 16777215
176
     1
 74
     2
176
     1
 91
        2
176
     1
 64
     7
176
     1
 65
   257
176
     1
 75
     1
176
     1
175
     1
176
     1
 42
179.0
176
     1
 92
        8
176
     1
 66
     7
176
     1
 43
1.0
176
     1
 76
     1
176
     1
 77
     6
176
     1
 78
     2
176
     1
 67
     7
176
     1
 79
     3
176
     1
170
     0
176
     1
171
     0
176
     1
290
     0
176
     1
 93
        1
176
     1
 44
0.0
176
     1
173
     0
176
     1
  0
VISUALSTYLE
  5
35
102
{ACAD_REACTORS
330
2A
102
}
102
{ACAD_XDICTIONARY
360
3E8
102
}
330
2A
100
AcDbVisualStyle
  2
Dim
 70
    11
177
     2
291
     1
 71
     2
176
     1
 72
     2
176
     1
 73
     0
176
     1
 90
        0
176
     1
 40
0.6
176
     1
 41
30.0
176
     1
 62
     5
 63
     7
421
 16777215
176
     1
 74
     1
176
     1
 91
        4
176
     1
 64
     7
176
     1
 65
   257
176
     1
 75
     1
176
     1
175
     1
176
     1
 42
1.0
176
     1
 92
        8
176
     1
 66
     7
176
     1
 43
1.0
176
     1
 76
     1
176
     1
 77
     6
176
     1
 78
     2
176
     1
 67
     7
176
     1
 79
     5
176
     1
170
     0
176
     1
171
     0
176
     1
290
     0
176
     1
 93
        1
176
     1
 44
-50.0
176
     1
173
     0
176
     1
  0
VISUALSTYLE
  5
3D
102
{ACAD_REACTORS
330
2A
102
}
102
{ACAD_XDICTIONARY
360
3F8
102
}
330
2A
100
AcDbVisualStyle
  2
EdgeColorOff
 70
    22
177
     2
291
     1
 71
     2
176
     0
 72
     2
176
     0
 73
     0
176
     0
 90
        0
176
     0
 40
0.6
176
     0
 41
30.0
176
     0
 62
     5
 63
     7
421
 16777215
176
     0
 74
     1
176
     0
 91
        4
176
     0
 64
     7
176
     0
 65
   257
176
     0
 75
     1
176
     0
175
     1
176
     0
 42
1.0
176
     0
 92
        8
176
     2
 66
     7
176
     0
 43
1.0
176
     0
 76
     1
176
     0
 77
     6
176
     0
 78
     2
176
     0
 67
     7
176
     0
 79
     5
176
     0
170
     0
176
     0
171
     0
176
     0
290
     0
176
     0
 93
        1
176
     0
 44
0.0
176
     0
173
     0
176
     0
  0
VISUALSTYLE
  5
39
102
{ACAD_REACTORS
330
2A
102
}
102
{ACAD_XDICTIONARY
360
3F0
102
}
330
2A
100
AcDbVisualStyle
  2
Facepattern
 70
    15
177
     2
291
     1
 71
     2
176
     1
 72
     2
176
     1
 73
     0
176
     1
 90
        0
176
     1
 40
0.6
176
     1
 41
30.0
176
     1
 62
     5
 63
     7
421
 16777215
176
     1
 74
     1
176
     1
 91
        4
176
     1
 64
     7
176
     1
 65
   257
176
     1
 75
     1
176
     1
175
     1
176
     1
 42
1.0
176
     1
 92
        8
176
     1
 66
     7
176
     1
 43
1.0
176
     1
 76
     1
176
     1
 77
     6
176
     1
 78
     2
176
     1
 67
     7
176
     1
 79
     5
176
     1
170
     0
176
     1
171
     0
176
     1
290
     0
176
     1
 93
        1
176
     1
 44
0.0
176
     1
173
     0
176
     1
  0
VISUALSTYLE
  5
2B
102
{ACAD_REACTORS
330
2A
102
}
102
{ACAD_XDICTIONARY
360
3D4
102
}
330
2A
100
AcDbVisualStyle
  2
Flat
 70
     0
177
     2
291
     1
 71
     2
176
     1
 72
     1
176
     1
 73
     1
176
     1
 90
        2
176
     1
 40
0.6
176
     1
 41
30.0
176
     1
 62
     5
 63
     7
421
 16777215
176
     1
 74
     0
176
     1
 91
        0
176
     1
 64
     7
176
     1
 65
   257
176
     1
 75
     1
176
     1
175
     1
176
     1
 42
1.0
176
     1
 92
        8
176
     1
 66
     7
176
     1
 43
1.0
176
     1
 76
     1
176
     1
 77
     6
176
     1
 78
     2
176
     1
 67
     7
176
     1
 79
     5
176
     1
170
     0
176
     1
171
     0
176
     1
290
     0
176
     1
 93
       13
176
     1
 44
0.0
176
     1
173
     0
176
     1
  0
VISUALSTYLE
  5
2C
102
{ACAD_REACTORS
330
2A
102
}
102
{ACAD_XDICTIONARY
360
3D6
102
}
330
2A
100
AcDbVisualStyle
  2
FlatWithEdges
 70
     1
177
     2
291
     1
 71
     2
176
     1
 72
     1
176
     1
 73
     1
176
     1
 90
        2
176
     1
 40
0.6
176
     1
 41
30.0
176
     1
 62
     5
 63
     7
421
 16777215
176
     1
 74
     1
176
     1
 91
        0
176
     1
 64
     7
176
     1
 65
   257
176
     1
 75
     1
176
     1
175
     1
176
     1
 42
1.0
176
     1
 92
        0
176
     1
 66
   257
176
     1
 43
1.0
176
     1
 76
     1
176
     1
 77
     6
176
     1
 78
     2
176
     1
 67
     7
176
     1
 79
     5
176
     1
170
     0
176
     1
171
     0
176
     1
290
     0
176
     1
 93
       13
176
     1
 44
0.0
176
     1
173
     0
176
     1
  0
VISUALSTYLE
  5
2D
102
{ACAD_REACTORS
330
2A
102
}
102
{ACAD_XDICTIONARY
360
3D8
102
}
330
2A
100
AcDbVisualStyle
  2
Gouraud
 70
     2
177
     2
291
     1
 71
     2
176
     1
 72
     2
176
     1
 73
     1
176
     1
 90
        2
176
     1
 40
0.6
176
     1
 41
30.0
176
     1
 62
     5
 63
     7
421
 16777215
176
     1
 74
     0
176
     1
 91
        0
176
     1
 64
     7
176
     1
 65
   257
176
     1
 75
     1
176
     1
175
     1
176
     1
 42
1.0
176
     1
 92
        0
176
     1
 66
     7
176
     1
 43
1.0
176
     1
 76
     1
176
     1
 77
     6
176
     1
 78
     2
176
     1
 67
     7
176
     1
 79
     5
176
     1
170
     0
176
     1
171
     0
176
     1
290
     0
176
     1
 93
       13
176
     1
 44
0.0
176
     1
173
     0
176
     1
  0
VISUALSTYLE
  5
2E
102
{ACAD_REACTORS
330
2A
102
}
102
{ACAD_XDICTIONARY
360
3DA
102
}
330
2A
100
AcDbVisualStyle
  2
GouraudWithEdges
 70
     3
177
     2
291
     1
 71
     2
176
     1
 72
     2
176
     1
 73
     1
176
     1
 90
        2
176
     1
 40
0.6
176
     1
 41
30.0
176
     1
 62
     5
 63
     7
421
 16777215
176
     1
 74
     1
176
     1
 91
        0
176
     1
 64
     7
176
     1
 65
   257
176
     1
 75
     1
176
     1
175
     1
176
     1
 42
1.0
176
     1
 92
        0
176
     1
 66
   257
176
     1
 43
1.0
176
     1
 76
     1
176
     1
 77
     6
176
     1
 78
     2
176
     1
 67
     7
176
     1
 79
     5
176
     1
170
     0
176
     1
171
     0
176
     1
290
     0
176
     1
 93
       13
176
     1
 44
0.0
176
     1
173
     0
176
     1
  0
VISUALSTYLE
  5
31
102
{ACAD_REACTORS
330
2A
102
}
102
{ACAD_XDICTIONARY
360
3E0
102
}
330
2A
100
AcDbVisualStyle
  2
Hidden
 70
     6
177
     2
291
     0
 71
     1
176
     1
 72
     2
176
     1
 73
     2
176
     1
 90
        0
176
     1
 40
0.6
176
     1
 41
30.0
176
     1
 62
     5
 63
     7
421
 16777215
176
     1
 74
     2
176
     1
 91
        2
176
     1
 64
     7
176
     1
 65
   257
176
     1
 75
     2
176
     1
175
     1
176
     1
 42
40.0
176
     1
 92
        0
176
     1
 66
   257
176
     1
 43
1.0
176
     1
 76
     1
176
     1
 77
     6
176
     1
 78
     2
176
     1
 67
     7
176
     1
 79
     3
176
     1
170
     0
176
     1
171
     0
176
     1
290
     0
176
     1
 93
        1
176
     1
 44
0.0
176
     1
173
     0
176
     1
  0
VISUALSTYLE
  5
3B
102
{ACAD_REACTORS
330
2A
102
}
102
{ACAD_XDICTIONARY
360
3F4
102
}
330
2A
100
AcDbVisualStyle
  2
JitterOff
 70
    20
177
     2
291
     1
 71
     2
176
     0
 72
     2
176
     0
 73
     0
176
     0
 90
        0
176
     0
 40
0.6
176
     0
 41
30.0
176
     0
 62
     5
 63
     7
421
 16777215
176
     0
 74
     1
176
     0
 91
        4
176
     0
 64
     7
176
     0
 65
   257
176
     0
 75
     1
176
     0
175
     1
176
     0
 42
1.0
176
     0
 92
       10
176
     2
 66
     7
176
     0
 43
1.0
176
     0
 76
     1
176
     0
 77
     6
176
     0
 78
     2
176
     0
 67
     7
176
     0
 79
     5
176
     0
170
     0
176
     0
171
     0
176
     0
290
     0
176
     0
 93
        1
176
     0
 44
0.0
176
     0
173
     0
176
     0
  0
VISUALSTYLE
  5
38
102
{ACAD_REACTORS
330
2A
102
}
102
{ACAD_XDICTIONARY
360
3EE
102
}
330
2A
100
AcDbVisualStyle
  2
Linepattern
 70
    14
177
     2
291
     1
 71
     2
176
     1
 72
     2
176
     1
 73
     0
176
     1
 90
        0
176
     1
 40
0.6
176
     1
 41
30.0
176
     1
 62
     5
 63
     7
421
 16777215
176
     1
 74
     1
176
     1
 91
        4
176
     1
 64
     7
176
     1
 65
   257
176
     1
 75
     7
176
     1
175
     7
176
     1
 42
1.0
176
     1
 92
        8
176
     1
 66
     7
176
     1
 43
1.0
176
     1
 76
     1
176
     1
 77
     6
176
     1
 78
     2
176
     1
 67
     7
176
     1
 79
     5
176
     1
170
     0
176
     1
171
     0
176
     1
290
     0
176
     1
 93
        1
176
     1
 44
0.0
176
     1
173
     0
176
     1
  0
VISUALSTYLE
  5
3C
102
{ACAD_REACTORS
330
2A
102
}
102
{ACAD_XDICTIONARY
360
3F6
102
}
330
2A
100
AcDbVisualStyle
  2
OverhangOff
 70
    21
177
     2
291
     1
 71
     2
176
     0
 72
     2
176
     0
 73
     0
176
     0
 90
        0
176
     0
 40
0.6
176
     0
 41
30.0
176
     0
 62
     5
 63
     7
421
 16777215
176
     0
 74
     1
176
     0
 91
        4
176
     0
 64
     7
176
     0
 65
   257
176
     0
 75
     1
176
     0
175
     1
176
     0
 42
1.0
176
     0
 92
        9
176
     2
 66
     7
176
     0
 43
1.0
176
     0
 76
     1
176
     0
 77
     6
176
     0
 78
     2
176
     0
 67
     7
176
     0
 79
     5
176
     0
170
     0
176
     0
171
     0
176
     0
290
     0
176
     0
 93
        1
176
     0
 44
0.0
176
     0
173
     0
176
     0
  0
VISUALSTYLE
  5
33
102
{ACAD_REACTORS
330
2A
102
}
102
{ACAD_XDICTIONARY
360
3E4
102
}
330
2A
100
AcDbVisualStyle
  2
Realistic
 70
     8
177
     2
291
     0
 71
     2
176
     1
 72
     3
176
     1
 73
     0
176
     1
 90
        2
176
     1
 40
0.6
176
     1
 41
30.0
176
     1
 62
     5
 63
     7
421
 16777215
176
     1
 74
     0
176
     1
 91
        0
176
     1
 64
     7
176
     1
 65
   257
176
     1
 75
     1
176
     1
175
     1
176
     1
 42
1.0
176
     1
 92
        8
176
     1
 66
   257
176
     1
 43
1.0
176
     1
 76
     1
176
     1
 77
     6
176
     1
 78
     2
176
     1
 67
     7
176
     1
 79
     3
176
     1
170
     0
176
     1
171
     0
176
     1
290
     0
176
     1
 93
       13
176
     1
 44
0.0
176
     1
173
     0
176
     1
  0
VISUALSTYLE
  5
42
102
{ACAD_REACTORS
330
2A
102
}
102
{ACAD_XDICTIONARY
360
402
102
}
330
2A
100
AcDbVisualStyle
  2
Shaded
 70
    27
177
     2
291
     0
 71
     2
176
     1
 72
     2
176
     1
 73
     1
176
     1
 90
        2
176
     1
 40
0.6
176
     1
 41
30.0
176
     1
 62
     5
 63
     7
421
 16777215
176
     1
 74
     0
176
     1
 91
        4
176
     1
 64
     7
176
     1
 65
   257
176
     1
 75
     1
176
     1
175
     1
176
     1
 42
1.0
176
     1
 92
        8
176
     1
 66
   257
176
     1
 43
1.0
176
     1
 76
     1
176
     1
 77
     6
176
     1
 78
     2
176
     1
 67
     8
425
  7895160
176
     1
 79
     3
176
     1
170
     0
176
     1
171
     0
176
     1
290
     0
176
     1
 93
        5
176
     1
 44
0.0
176
     1
173
     0
176
     1
  0
VISUALSTYLE
  5
41
102
{ACAD_REACTORS
330
2A
102
}
102
{ACAD_XDICTIONARY
360
400
102
}
330
2A
100
AcDbVisualStyle
  2
Shaded with edges
 70
    26
177
     2
291
     0
 71
     2
176
     1
 72
     2
176
     1
 73
     1
176
     1
 90
        2
176
     1
 40
0.6
176
     1
 41
30.0
176
     1
 62
     5
 63
     7
421
 16777215
176
     1
 74
     1
176
     1
 91
       10
176
     1
 64
     7
176
     1
 65
   257
176
     1
 75
     2
176
     1
175
     1
176
     1
 42
1.0
176
     1
 92
        8
176
     1
 66
   257
176
     1
 43
1.0
176
     1
 76
     1
176
     1
 77
     6
176
     1
 78
     2
176
     1
 67
     7
176
     1
 79
     3
176
     1
170
     0
176
     1
171
     0
176
     1
290
     0
176
     1
 93
        5
176
     1
 44
0.0
176
     1
173
     0
176
     1
  0
VISUALSTYLE
  5
3E
102
{ACAD_REACTORS
330
2A
102
}
102
{ACAD_XDICTIONARY
360
3FA
102
}
330
2A
100
AcDbVisualStyle
  2
Shades of Gray
 70
    23
177
     2
291
     0
 71
     2
176
     1
 72
     2
176
     1
 73
     3
176
     1
 90
        0
176
     1
 40
0.6
176
     1
 41
30.0
176
     1
 62
     5
 63
     7
421
 16777215
176
     1
 74
     2
176
     1
 91
        2
176
     1
 64
     7
176
     1
 65
     7
176
     1
 75
     1
176
     1
175
     1
176
     1
 42
40.0
176
     1
 92
        8
176
     1
 66
     7
176
     1
 43
1.0
176
     1
 76
     1
176
     1
 77
     6
176
     1
 78
     2
176
     1
 67
     7
176
     1
 79
     3
176
     1
170
     0
176
     1
171
     0
176
     1
290
     0
176
     1
 93
        1
176
     1
 44
0.0
176
     1
173
     0
176
     1
  0
VISUALSTYLE
  5
3F
102
{ACAD_REACTORS
330
2A
102
}
102
{ACAD_XDICTIONARY
360
3FC
102
}
330
2A
100
AcDbVisualStyle
  2
Sketchy
 70
    24
177
     2
291
     0
 71
     1
176
     1
 72
     2
176
     1
 73
     2
176
     1
 90
        0
176
     1
 40
0.6
176
     1
 41
30.0
176
     1
 62
     5
 63
     7
421
 16777215
176
     1
 74
     2
176
     1
 91
        2
176
     1
 64
     7
176
     1
 65
     7
176
     1
 75
     1
176
     1
175
     1
176
     1
 42
40.0
176
     1
 92
       11
176
     1
 66
     7
176
     1
 43
1.0
176
     1
 76
     1
176
     1
 77
     6
176
     1
 78
     2
176
     1
 67
     7
176
     1
 79
     6
176
     1
170
     0
176
     1
171
     0
176
     1
290
     0
176
     1
 93
        1
176
     1
 44
0.0
176
     1
173
     0
176
     1
  0
VISUALSTYLE
  5
37
102
{ACAD_REACTORS
330
2A
102
}
102
{ACAD_XDICTIONARY
360
3EC
102
}
330
2A
100
AcDbVisualStyle
  2
Thicken
 70
    13
177
     2
291
     1
 71
     2
176
     1
 72
     2
176
     1
 73
     0
176
     1
 90
        0
176
     1
 40
0.6
176
     1
 41
30.0
176
     1
 62
     5
 63
     7
421
 16777215
176
     1
 74
     1
176
     1
 91
        4
176
     1
 64
     7
176
     1
 65
   257
176
     1
 75
     1
176
     1
175
     1
176
     1
 42
1.0
176
     1
 92
       12
176
     1
 66
     7
176
     1
 43
1.0
176
     1
 76
     1
176
     1
 77
     6
176
     1
 78
     2
176
     1
 67
     7
176
     1
 79
     5
176
     1
170
     0
176
     1
171
     0
176
     1
290
     0
176
     1
 93
        1
176
     1
 44
0.0
176
     1
173
     0
176
     1
  0
VISUALSTYLE
  5
30
102
{ACAD_REACTORS
330
2A
102
}
102
{ACAD_XDICTIONARY
360
3DE
102
}
330
2A
100
AcDbVisualStyle
  2
Wireframe
 70
     5
177
     2
291
     0
 71
     0
176
     1
 72
     2
176
     1
 73
     0
176
     1
 90
        0
176
     1
 40
0.6
176
     1
 41
30.0
176
     1
 62
     5
 63
     7
421
 16777215
176
     1
 74
     1
176
     1
 91
        4
176
     1
 64
     7
176
     1
 65
   257
176
     1
 75
     1
176
     1
175
     1
176
     1
 42
1.0
176
     1
 92
        0
176
     1
 66
   257
176
     1
 43
1.0
176
     1
 76
     1
176
     1
 77
     6
176
     1
 78
     2
176
     1
 67
     7
176
     1
 79
     3
176
     1
170
     0
176
     1
171
     0
176
     1
290
     0
176
     1
 93
        1
176
     1
 44
0.0
176
     1
173
     0
176
     1
  0
VISUALSTYLE
  5
40
102
{ACAD_REACTORS
330
2A
102
}
102
{ACAD_XDICTIONARY
360
3FE
102
}
330
2A
100
AcDbVisualStyle
  2
X-Ray
 70
    25
177
     2
291
     0
 71
     2
176
     1
 72
     2
176
     1
 73
     1
176
     1
 90
        1
176
     1
 40
0.5
176
     1
 41
30.0
176
     1
 62
     5
 63
     7
421
 16777215
176
     1
 74
     1
176
     1
 91
        0
176
     1
 64
     7
176
     1
 65
   257
176
     1
 75
     1
176
     1
175
     1
176
     1
 42
1.0
176
     1
 92
        8
176
     1
 66
     7
176
     1
 43
1.0
176
     1
 76
     1
176
     1
 77
     6
176
     1
 78
     2
176
     1
 67
     7
176
     1
 79
     3
176
     1
170
     0
176
     1
171
     0
176
     1
290
     0
176
     1
 93
       13
176
     1
 44
0.0
176
     1
173
     0
176
     1
  0
DICTIONARYVAR
  5
3D3
102
{ACAD_REACTORS
330
3D2
102
}
330
3D2
100
DictionaryVariables
280
     0
  1
1:1
  0
DICTIONARYVAR
  5
40B
102
{ACAD_REACTORS
330
3D2
102
}
330
3D2
100
DictionaryVariables
280
     0
  1
3.500000
  0
DICTIONARYVAR
  5
40C
102
{ACAD_REACTORS
330
3D2
102
}
330
3D2
100
DictionaryVariables
280
     0
  1
acadiso.lin
  0
DICTIONARYVAR
  5
408
102
{ACAD_REACTORS
330
3D2
102
}
330
3D2
100
DictionaryVariables
280
     0
  1
Standard
  0
DICTIONARYVAR
  5
407
102
{ACAD_REACTORS
330
3D2
102
}
330
3D2
100
DictionaryVariables
280
     0
  1
Standard
  0
DICTIONARY
  5
404
330
6A
100
AcDbDictionary
280
     1
281
     1
  3
ACAD_ROUNDTRIP_2008_TABLESTYLE_CELLSTYLEMAP
360
405
  0
DICTIONARY
  5
3DC
330
2F
100
AcDbDictionary
280
     1
281
     1
  3
ACAD_XREC_ROUNDTRIP
360
3DD
  0
DICTIONARY
  5
3E2
330
32
100
AcDbDictionary
280
     1
281
     1
  3
ACAD_XREC_ROUNDTRIP
360
3E3
  0
DICTIONARY
  5
3EA
330
36
100
AcDbDictionary
280
     1
281
     1
  3
ACAD_XREC_ROUNDTRIP
360
3EB
  0
DICTIONARY
  5
3F2
330
3A
100
AcDbDictionary
280
     1
281
     1
  3
ACAD_XREC_ROUNDTRIP
360
3F3
  0
DICTIONARY
  5
3E6
330
34
100
AcDbDictionary
280
     1
281
     1
  3
ACAD_XREC_ROUNDTRIP
360
3E7
  0
DICTIONARY
  5
3E8
330
35
100
AcDbDictionary
280
     1
281
     1
  3
ACAD_XREC_ROUNDTRIP
360
3E9
  0
DICTIONARY
  5
3F8
330
3D
100
AcDbDictionary
280
     1
281
     1
  3
ACAD_XREC_ROUNDTRIP
360
3F9
  0
DICTIONARY
  5
3F0
330
39
100
AcDbDictionary
280
     1
281
     1
  3
ACAD_XREC_ROUNDTRIP
360
3F1
  0
DICTIONARY
  5
3D4
330
2B
100
AcDbDictionary
280
     1
281
     1
  3
ACAD_XREC_ROUNDTRIP
360
3D5
  0
DICTIONARY
  5
3D6
330
2C
100
AcDbDictionary
280
     1
281
     1
  3
ACAD_XREC_ROUNDTRIP
360
3D7
  0
DICTIONARY
  5
3D8
330
2D
100
AcDbDictionary
280
     1
281
     1
  3
ACAD_XREC_ROUNDTRIP
360
3D9
  0
DICTIONARY
  5
3DA
330
2E
100
AcDbDictionary
280
     1
281
     1
  3
ACAD_XREC_ROUNDTRIP
360
3DB
  0
DICTIONARY
  5
3E0
330
31
100
AcDbDictionary
280
     1
281
     1
  3
ACAD_XREC_ROUNDTRIP
360
3E1
  0
DICTIONARY
  5
3F4
330
3B
100
AcDbDictionary
280
     1
281
     1
  3
ACAD_XREC_ROUNDTRIP
360
3F5
  0
DICTIONARY
  5
3EE
330
38
100
AcDbDictionary
280
     1
281
     1
  3
ACAD_XREC_ROUNDTRIP
360
3EF
  0
DICTIONARY
  5
3F6
330
3C
100
AcDbDictionary
280
     1
281
     1
  3
ACAD_XREC_ROUNDTRIP
360
3F7
  0
DICTIONARY
  5
3E4
330
33
100
AcDbDictionary
280
     1
281
     1
  3
ACAD_XREC_ROUNDTRIP
360
3E5
  0
DICTIONARY
  5
402
330
42
100
AcDbDictionary
280
     1
281
     1
  3
ACAD_XREC_ROUNDTRIP
360
403
  0
DICTIONARY
  5
400
330
41
100
AcDbDictionary
280
     1
281
     1
  3
ACAD_XREC_ROUNDTRIP
360
401
  0
DICTIONARY
  5
3FA
330
3E
100
AcDbDictionary
280
     1
281
     1
  3
ACAD_XREC_ROUNDTRIP
360
3FB
  0
DICTIONARY
  5
3FC
330
3F
100
AcDbDictionary
280
     1
281
     1
  3
ACAD_XREC_ROUNDTRIP
360
3FD
  0
DICTIONARY
  5
3EC
330
37
100
AcDbDictionary
280
     1
281
     1
  3
ACAD_XREC_ROUNDTRIP
360
3ED
  0
DICTIONARY
  5
3DE
330
30
100
AcDbDictionary
280
     1
281
     1
  3
ACAD_XREC_ROUNDTRIP
360
3DF
  0
DICTIONARY
  5
3FE
330
40
100
AcDbDictionary
280
     1
281
     1
  3
ACAD_XREC_ROUNDTRIP
360
3FF
  0
CELLSTYLEMAP
  5
405
102
{ACAD_REACTORS
330
404
102
}
330
404
100
AcDbCellStyleMap
 90
        3
300
CELLSTYLE
  1
TABLEFORMAT_BEGIN
 90
        5
170
     1
 91
        0
 92
    32768
 62
   257
 93
        1
300
CONTENTFORMAT
  1
CONTENTFORMAT_BEGIN
 90
        0
 91
        0
 92
        4
 93
        0
300

 40
0.0
140
1.0
 94
        5
 62
     0
340
11
144
6.0
309
CONTENTFORMAT_END
171
     1
301
MARGIN
  1
CELLMARGIN_BEGIN
 40
1.5
 40
1.5
 40
1.5
 40
1.5
 40
1.5
 40
1.5
309
CELLMARGIN_END
 94
        6
 95
        1
302
GRIDFORMAT
  1
GRIDFORMAT_BEGIN
 90
        0
 91
        1
 62
     0
 92
       -2
340
14
 93
        0
 40
0.045
309
GRIDFORMAT_END
 95
        2
302
GRIDFORMAT
  1
GRIDFORMAT_BEGIN
 90
        0
 91
        1
 62
     0
 92
       -2
340
14
 93
        0
 40
0.045
309
GRIDFORMAT_END
 95
        4
302
GRIDFORMAT
  1
GRIDFORMAT_BEGIN
 90
        0
 91
        1
 62
     0
 92
       -2
340
14
 93
        0
 40
0.045
309
GRIDFORMAT_END
 95
        8
302
GRIDFORMAT
  1
GRIDFORMAT_BEGIN
 90
        0
 91
        1
 62
     0
 92
       -2
340
14
 93
        0
 40
0.045
309
GRIDFORMAT_END
 95
       16
302
GRIDFORMAT
  1
GRIDFORMAT_BEGIN
 90
        0
 91
        1
 62
     0
 92
       -2
340
14
 93
        0
 40
0.045
309
GRIDFORMAT_END
 95
       32
302
GRIDFORMAT
  1
GRIDFORMAT_BEGIN
 90
        0
 91
        1
 62
     0
 92
       -2
340
14
 93
        0
 40
0.045
309
GRIDFORMAT_END
309
TABLEFORMAT_END
  1
CELLSTYLE_BEGIN
 90
        1
 91
        1
300
_TITLE
309
CELLSTYLE_END
300
CELLSTYLE
  1
TABLEFORMAT_BEGIN
 90
        5
170
     1
 91
        0
 92
        0
 62
   257
 93
        1
300
CONTENTFORMAT
  1
CONTENTFORMAT_BEGIN
 90
        0
 91
        0
 92
        4
 93
        0
300

 40
0.0
140
1.0
 94
        5
 62
     0
340
11
144
4.5
309
CONTENTFORMAT_END
171
     1
301
MARGIN
  1
CELLMARGIN_BEGIN
 40
1.5
 40
1.5
 40
1.5
 40
1.5
 40
1.5
 40
1.5
309
CELLMARGIN_END
 94
        6
 95
        1
302
GRIDFORMAT
  1
GRIDFORMAT_BEGIN
 90
        0
 91
        1
 62
     0
 92
       -2
340
14
 93
        0
 40
0.045
309
GRIDFORMAT_END
 95
        2
302
GRIDFORMAT
  1
GRIDFORMAT_BEGIN
 90
        0
 91
        1
 62
     0
 92
       -2
340
14
 93
        0
 40
0.045
309
GRIDFORMAT_END
 95
        4
302
GRIDFORMAT
  1
GRIDFORMAT_BEGIN
 90
        0
 91
        1
 62
     0
 92
       -2
340
14
 93
        0
 40
0.045
309
GRIDFORMAT_END
 95
        8
302
GRIDFORMAT
  1
GRIDFORMAT_BEGIN
 90
        0
 91
        1
 62
     0
 92
       -2
340
14
 93
        0
 40
0.045
309
GRIDFORMAT_END
 95
       16
302
GRIDFORMAT
  1
GRIDFORMAT_BEGIN
 90
        0
 91
        1
 62
     0
 92
       -2
340
14
 93
        0
 40
0.045
309
GRIDFORMAT_END
 95
       32
302
GRIDFORMAT
  1
GRIDFORMAT_BEGIN
 90
        0
 91
        1
 62
     0
 92
       -2
340
14
 93
        0
 40
0.045
309
GRIDFORMAT_END
309
TABLEFORMAT_END
  1
CELLSTYLE_BEGIN
 90
        2
 91
        1
300
_HEADER
309
CELLSTYLE_END
300
CELLSTYLE
  1
TABLEFORMAT_BEGIN
 90
        5
170
     1
 91
        0
 92
        0
 62
   257
 93
        1
300
CONTENTFORMAT
  1
CONTENTFORMAT_BEGIN
 90
        0
 91
        0
 92
        4
 93
        0
300

 40
0.0
140
1.0
 94
        2
 62
     0
340
11
144
4.5
309
CONTENTFORMAT_END
171
     1
301
MARGIN
  1
CELLMARGIN_BEGIN
 40
1.5
 40
1.5
 40
1.5
 40
1.5
 40
1.5
 40
1.5
309
CELLMARGIN_END
 94
        6
 95
        1
302
GRIDFORMAT
  1
GRIDFORMAT_BEGIN
 90
        0
 91
        1
 62
     0
 92
       -2
340
14
 93
        0
 40
0.045
309
GRIDFORMAT_END
 95
        2
302
GRIDFORMAT
  1
GRIDFORMAT_BEGIN
 90
        0
 91
        1
 62
     0
 92
       -2
340
14
 93
        0
 40
0.045
309
GRIDFORMAT_END
 95
        4
302
GRIDFORMAT
  1
GRIDFORMAT_BEGIN
 90
        0
 91
        1
 62
     0
 92
       -2
340
14
 93
        0
 40
0.045
309
GRIDFORMAT_END
 95
        8
302
GRIDFORMAT
  1
GRIDFORMAT_BEGIN
 90
        0
 91
        1
 62
     0
 92
       -2
340
14
 93
        0
 40
0.045
309
GRIDFORMAT_END
 95
       16
302
GRIDFORMAT
  1
GRIDFORMAT_BEGIN
 90
        0
 91
        1
 62
     0
 92
       -2
340
14
 93
        0
 40
0.045
309
GRIDFORMAT_END
 95
       32
302
GRIDFORMAT
  1
GRIDFORMAT_BEGIN
 90
        0
 91
        1
 62
     0
 92
       -2
340
14
 93
        0
 40
0.045
309
GRIDFORMAT_END
309
TABLEFORMAT_END
  1
CELLSTYLE_BEGIN
 90
        3
 91
        2
300
_DATA
309
CELLSTYLE_END
  0
XRECORD
  5
3DD
102
{ACAD_REACTORS
330
3DC
102
}
330
3DC
100
AcDbXrecord
280
     1
102
RTVSPost2010Prop28
280
     1
102
RTVSPost2010PropOp28
 70
     1
102
RTVSPost2010Prop29
280
     1
102
RTVSPost2010PropOp29
 70
     1
102
RTVSPost2010Prop30
280
     0
102
RTVSPost2010PropOp30
 70
     1
102
RTVSPost2010Prop31
280
     0
102
RTVSPost2010PropOp31
 70
     1
102
RTVSPost2010Prop32
280
     0
102
RTVSPost2010PropOp32
 70
     1
102
RTVSPost2010Prop33
280
     0
102
RTVSPost2010PropOp33
 70
     1
102
RTVSPost2010Prop34
280
     0
102
RTVSPost2010PropOp34
 70
     1
102
RTVSPost2010Prop35
280
     0
102
RTVSPost2010PropOp35
 70
     1
102
RTVSPost2010Prop36
280
     0
102
RTVSPost2010PropOp36
 70
     1
102
RTVSPost2010Prop37
 90
       50
102
RTVSPost2010PropOp37
 70
     1
102
RTVSPost2010Prop38
140
0.0
102
RTVSPost2010PropOp38
 70
     1
102
RTVSPost2010Prop39
140
1.0
102
RTVSPost2010PropOp39
 70
     1
102
RTVSPost2010Prop40
 90
        0
102
RTVSPost2010PropOp40
 70
     1
102
RTVSPost2010Prop41ColorIndex
 90
       18
102
RTVSPost2010Prop41ColorRGB
 90
        0
102
RTVSPost2010PropOp41
 70
     1
102
RTVSPost2010Prop42
 90
       50
102
RTVSPost2010PropOp42
 70
     1
102
RTVSPost2010Prop43
 90
        3
102
RTVSPost2010PropOp43
 70
     1
102
RTVSPost2010Prop44ColorIndex
 90
        5
102
RTVSPost2010Prop44ColorRGB
 90
      255
102
RTVSPost2010PropOp44
 70
     1
102
RTVSPost2010Prop45
280
     0
102
RTVSPost2010PropOp45
 70
     1
102
RTVSPost2010Prop46
 90
       50
102
RTVSPost2010PropOp46
 70
     1
102
RTVSPost2010Prop47
 90
       50
102
RTVSPost2010PropOp47
 70
     1
102
RTVSPost2010Prop48
 90
       50
102
RTVSPost2010PropOp48
 70
     1
102
RTVSPost2010Prop49
280
     0
102
RTVSPost2010PropOp49
 70
     1
102
RTVSPost2010Prop50
 90
       50
102
RTVSPost2010PropOp50
 70
     1
102
RTVSPost2010Prop51ColorIndex
 90
      256
102
RTVSPost2010Prop51ColorRGB
 90
-16777216
102
RTVSPost2010PropOp51
 70
     0
102
RTVSPost2010Prop52
140
1.0
102
RTVSPost2010PropOp52
 70
     0
102
RTVSPost2010Prop53
 90
        2
102
RTVSPost2010PropOp53
 70
     1
102
RTVSPost2010Prop54
  1
strokes_ogs.tif
102
RTVSPost2010PropOp54
 70
     1
102
RTVSPost2010Prop55
280
     0
102
RTVSPost2010PropOp55
 70
     1
102
RTVSPost2010Prop56
140
1.0
102
RTVSPost2010PropOp56
 70
     1
102
RTVSPost2010Prop57
140
1.0
102
RTVSPost2010PropOp57
 70
     1
  0
XRECORD
  5
3E3
102
{ACAD_REACTORS
330
3E2
102
}
330
3E2
100
AcDbXrecord
280
     1
102
RTVSPost2010Prop28
280
     0
102
RTVSPost2010PropOp28
 70
     1
102
RTVSPost2010Prop29
280
     1
102
RTVSPost2010PropOp29
 70
     1
102
RTVSPost2010Prop30
280
     1
102
RTVSPost2010PropOp30
 70
     1
102
RTVSPost2010Prop31
280
     0
102
RTVSPost2010PropOp31
 70
     1
102
RTVSPost2010Prop32
280
     0
102
RTVSPost2010PropOp32
 70
     1
102
RTVSPost2010Prop33
280
     0
102
RTVSPost2010PropOp33
 70
     1
102
RTVSPost2010Prop34
280
     0
102
RTVSPost2010PropOp34
 70
     1
102
RTVSPost2010Prop35
280
     0
102
RTVSPost2010PropOp35
 70
     1
102
RTVSPost2010Prop36
280
     0
102
RTVSPost2010PropOp36
 70
     1
102
RTVSPost2010Prop37
 90
       50
102
RTVSPost2010PropOp37
 70
     1
102
RTVSPost2010Prop38
140
0.0
102
RTVSPost2010PropOp38
 70
     1
102
RTVSPost2010Prop39
140
1.0
102
RTVSPost2010PropOp39
 70
     1
102
RTVSPost2010Prop40
 90
        0
102
RTVSPost2010PropOp40
 70
     1
102
RTVSPost2010Prop41ColorIndex
 90
       18
102
RTVSPost2010Prop41ColorRGB
 90
        0
102
RTVSPost2010PropOp41
 70
     1
102
RTVSPost2010Prop42
 90
       50
102
RTVSPost2010PropOp42
 70
     1
102
RTVSPost2010Prop43
 90
        3
102
RTVSPost2010PropOp43
 70
     1
102
RTVSPost2010Prop44ColorIndex
 90
        5
102
RTVSPost2010Prop44ColorRGB
 90
      255
102
RTVSPost2010PropOp44
 70
     1
102
RTVSPost2010Prop45
280
     0
102
RTVSPost2010PropOp45
 70
     1
102
RTVSPost2010Prop46
 90
       50
102
RTVSPost2010PropOp46
 70
     1
102
RTVSPost2010Prop47
 90
       50
102
RTVSPost2010PropOp47
 70
     1
102
RTVSPost2010Prop48
 90
       50
102
RTVSPost2010PropOp48
 70
     1
102
RTVSPost2010Prop49
280
     0
102
RTVSPost2010PropOp49
 70
     1
102
RTVSPost2010Prop50
 90
       50
102
RTVSPost2010PropOp50
 70
     1
102
RTVSPost2010Prop51ColorIndex
 90
      256
102
RTVSPost2010Prop51ColorRGB
 90
-16777216
102
RTVSPost2010PropOp51
 70
     0
102
RTVSPost2010Prop52
140
1.0
102
RTVSPost2010PropOp52
 70
     0
102
RTVSPost2010Prop53
 90
        2
102
RTVSPost2010PropOp53
 70
     1
102
RTVSPost2010Prop54
  1
strokes_ogs.tif
102
RTVSPost2010PropOp54
 70
     1
102
RTVSPost2010Prop55
280
     0
102
RTVSPost2010PropOp55
 70
     1
102
RTVSPost2010Prop56
140
1.0
102
RTVSPost2010PropOp56
 70
     1
102
RTVSPost2010Prop57
140
1.0
102
RTVSPost2010PropOp57
 70
     1
  0
XRECORD
  5
3EB
102
{ACAD_REACTORS
330
3EA
102
}
330
3EA
100
AcDbXrecord
280
     1
102
RTVSPost2010Prop28
280
     0
102
RTVSPost2010PropOp28
 70
     1
102
RTVSPost2010Prop29
280
     1
102
RTVSPost2010PropOp29
 70
     1
102
RTVSPost2010Prop30
280
     1
102
RTVSPost2010PropOp30
 70
     1
102
RTVSPost2010Prop31
280
     0
102
RTVSPost2010PropOp31
 70
     1
102
RTVSPost2010Prop32
280
     0
102
RTVSPost2010PropOp32
 70
     1
102
RTVSPost2010Prop33
280
     0
102
RTVSPost2010PropOp33
 70
     1
102
RTVSPost2010Prop34
280
     0
102
RTVSPost2010PropOp34
 70
     1
102
RTVSPost2010Prop35
280
     0
102
RTVSPost2010PropOp35
 70
     1
102
RTVSPost2010Prop36
280
     0
102
RTVSPost2010PropOp36
 70
     1
102
RTVSPost2010Prop37
 90
       50
102
RTVSPost2010PropOp37
 70
     1
102
RTVSPost2010Prop38
140
0.0
102
RTVSPost2010PropOp38
 70
     1
102
RTVSPost2010Prop39
140
1.0
102
RTVSPost2010PropOp39
 70
     1
102
RTVSPost2010Prop40
 90
        0
102
RTVSPost2010PropOp40
 70
     1
102
RTVSPost2010Prop41ColorIndex
 90
       18
102
RTVSPost2010Prop41ColorRGB
 90
        0
102
RTVSPost2010PropOp41
 70
     1
102
RTVSPost2010Prop42
 90
       50
102
RTVSPost2010PropOp42
 70
     1
102
RTVSPost2010Prop43
 90
        3
102
RTVSPost2010PropOp43
 70
     1
102
RTVSPost2010Prop44ColorIndex
 90
        5
102
RTVSPost2010Prop44ColorRGB
 90
      255
102
RTVSPost2010PropOp44
 70
     1
102
RTVSPost2010Prop45
280
     0
102
RTVSPost2010PropOp45
 70
     1
102
RTVSPost2010Prop46
 90
       50
102
RTVSPost2010PropOp46
 70
     1
102
RTVSPost2010Prop47
 90
       50
102
RTVSPost2010PropOp47
 70
     1
102
RTVSPost2010Prop48
 90
       50
102
RTVSPost2010PropOp48
 70
     1
102
RTVSPost2010Prop49
280
     0
102
RTVSPost2010PropOp49
 70
     1
102
RTVSPost2010Prop50
 90
       50
102
RTVSPost2010PropOp50
 70
     1
102
RTVSPost2010Prop51ColorIndex
 90
      256
102
RTVSPost2010Prop51ColorRGB
 90
-16777216
102
RTVSPost2010PropOp51
 70
     0
102
RTVSPost2010Prop52
140
1.0
102
RTVSPost2010PropOp52
 70
     0
102
RTVSPost2010Prop53
 90
        2
102
RTVSPost2010PropOp53
 70
     1
102
RTVSPost2010Prop54
  1
strokes_ogs.tif
102
RTVSPost2010PropOp54
 70
     1
102
RTVSPost2010Prop55
280
     0
102
RTVSPost2010PropOp55
 70
     1
102
RTVSPost2010Prop56
140
1.0
102
RTVSPost2010PropOp56
 70
     1
102
RTVSPost2010Prop57
140
1.0
102
RTVSPost2010PropOp57
 70
     1
  0
XRECORD
  5
3F3
102
{ACAD_REACTORS
330
3F2
102
}
330
3F2
100
AcDbXrecord
280
     1
102
RTVSPost2010Prop28
280
     0
102
RTVSPost2010PropOp28
 70
     1
102
RTVSPost2010Prop29
280
     1
102
RTVSPost2010PropOp29
 70
     1
102
RTVSPost2010Prop30
280
     1
102
RTVSPost2010PropOp30
 70
     1
102
RTVSPost2010Prop31
280
     0
102
RTVSPost2010PropOp31
 70
     1
102
RTVSPost2010Prop32
280
     0
102
RTVSPost2010PropOp32
 70
     1
102
RTVSPost2010Prop33
280
     0
102
RTVSPost2010PropOp33
 70
     1
102
RTVSPost2010Prop34
280
     0
102
RTVSPost2010PropOp34
 70
     1
102
RTVSPost2010Prop35
280
     0
102
RTVSPost2010PropOp35
 70
     1
102
RTVSPost2010Prop36
280
     0
102
RTVSPost2010PropOp36
 70
     1
102
RTVSPost2010Prop37
 90
       50
102
RTVSPost2010PropOp37
 70
     1
102
RTVSPost2010Prop38
140
0.0
102
RTVSPost2010PropOp38
 70
     1
102
RTVSPost2010Prop39
140
1.0
102
RTVSPost2010PropOp39
 70
     1
102
RTVSPost2010Prop40
 90
        0
102
RTVSPost2010PropOp40
 70
     1
102
RTVSPost2010Prop41ColorIndex
 90
       18
102
RTVSPost2010Prop41ColorRGB
 90
        0
102
RTVSPost2010PropOp41
 70
     1
102
RTVSPost2010Prop42
 90
       50
102
RTVSPost2010PropOp42
 70
     1
102
RTVSPost2010Prop43
 90
        3
102
RTVSPost2010PropOp43
 70
     1
102
RTVSPost2010Prop44ColorIndex
 90
        5
102
RTVSPost2010Prop44ColorRGB
 90
      255
102
RTVSPost2010PropOp44
 70
     1
102
RTVSPost2010Prop45
280
     0
102
RTVSPost2010PropOp45
 70
     1
102
RTVSPost2010Prop46
 90
       50
102
RTVSPost2010PropOp46
 70
     1
102
RTVSPost2010Prop47
 90
       50
102
RTVSPost2010PropOp47
 70
     1
102
RTVSPost2010Prop48
 90
       50
102
RTVSPost2010PropOp48
 70
     1
102
RTVSPost2010Prop49
280
     0
102
RTVSPost2010PropOp49
 70
     1
102
RTVSPost2010Prop50
 90
       50
102
RTVSPost2010PropOp50
 70
     1
102
RTVSPost2010Prop51ColorIndex
 90
      256
102
RTVSPost2010Prop51ColorRGB
 90
-16777216
102
RTVSPost2010PropOp51
 70
     0
102
RTVSPost2010Prop52
140
1.0
102
RTVSPost2010PropOp52
 70
     0
102
RTVSPost2010Prop53
 90
        2
102
RTVSPost2010PropOp53
 70
     1
102
RTVSPost2010Prop54
  1
strokes_ogs.tif
102
RTVSPost2010PropOp54
 70
     1
102
RTVSPost2010Prop55
280
     0
102
RTVSPost2010PropOp55
 70
     1
102
RTVSPost2010Prop56
140
1.0
102
RTVSPost2010PropOp56
 70
     1
102
RTVSPost2010Prop57
140
1.0
102
RTVSPost2010PropOp57
 70
     1
  0
XRECORD
  5
3E7
102
{ACAD_REACTORS
330
3E6
102
}
330
3E6
100
AcDbXrecord
280
     1
102
RTVSPost2010Prop28
280
     0
102
RTVSPost2010PropOp28
 70
     1
102
RTVSPost2010Prop29
280
     1
102
RTVSPost2010PropOp29
 70
     1
102
RTVSPost2010Prop30
280
     1
102
RTVSPost2010PropOp30
 70
     1
102
RTVSPost2010Prop31
280
     0
102
RTVSPost2010PropOp31
 70
     1
102
RTVSPost2010Prop32
280
     0
102
RTVSPost2010PropOp32
 70
     1
102
RTVSPost2010Prop33
280
     0
102
RTVSPost2010PropOp33
 70
     1
102
RTVSPost2010Prop34
280
     0
102
RTVSPost2010PropOp34
 70
     1
102
RTVSPost2010Prop35
280
     0
102
RTVSPost2010PropOp35
 70
     1
102
RTVSPost2010Prop36
280
     0
102
RTVSPost2010PropOp36
 70
     1
102
RTVSPost2010Prop37
 90
       50
102
RTVSPost2010PropOp37
 70
     1
102
RTVSPost2010Prop38
140
0.0
102
RTVSPost2010PropOp38
 70
     1
102
RTVSPost2010Prop39
140
1.0
102
RTVSPost2010PropOp39
 70
     1
102
RTVSPost2010Prop40
 90
        0
102
RTVSPost2010PropOp40
 70
     1
102
RTVSPost2010Prop41ColorIndex
 90
       18
102
RTVSPost2010Prop41ColorRGB
 90
        0
102
RTVSPost2010PropOp41
 70
     1
102
RTVSPost2010Prop42
 90
       50
102
RTVSPost2010PropOp42
 70
     1
102
RTVSPost2010Prop43
 90
        3
102
RTVSPost2010PropOp43
 70
     1
102
RTVSPost2010Prop44ColorIndex
 90
        5
102
RTVSPost2010Prop44ColorRGB
 90
      255
102
RTVSPost2010PropOp44
 70
     1
102
RTVSPost2010Prop45
280
     0
102
RTVSPost2010PropOp45
 70
     1
102
RTVSPost2010Prop46
 90
       50
102
RTVSPost2010PropOp46
 70
     1
102
RTVSPost2010Prop47
 90
       50
102
RTVSPost2010PropOp47
 70
     1
102
RTVSPost2010Prop48
 90
       50
102
RTVSPost2010PropOp48
 70
     1
102
RTVSPost2010Prop49
280
     0
102
RTVSPost2010PropOp49
 70
     1
102
RTVSPost2010Prop50
 90
       50
102
RTVSPost2010PropOp50
 70
     1
102
RTVSPost2010Prop51ColorIndex
 90
      256
102
RTVSPost2010Prop51ColorRGB
 90
-16777216
102
RTVSPost2010PropOp51
 70
     0
102
RTVSPost2010Prop52
140
1.0
102
RTVSPost2010PropOp52
 70
     0
102
RTVSPost2010Prop53
 90
        2
102
RTVSPost2010PropOp53
 70
     1
102
RTVSPost2010Prop54
  1
strokes_ogs.tif
102
RTVSPost2010PropOp54
 70
     1
102
RTVSPost2010Prop55
280
     0
102
RTVSPost2010PropOp55
 70
     1
102
RTVSPost2010Prop56
140
1.0
102
RTVSPost2010PropOp56
 70
     1
102
RTVSPost2010Prop57
140
1.0
102
RTVSPost2010PropOp57
 70
     1
  0
XRECORD
  5
3E9
102
{ACAD_REACTORS
330
3E8
102
}
330
3E8
100
AcDbXrecord
280
     1
102
RTVSPost2010Prop28
280
     0
102
RTVSPost2010PropOp28
 70
     1
102
RTVSPost2010Prop29
280
     1
102
RTVSPost2010PropOp29
 70
     1
102
RTVSPost2010Prop30
280
     1
102
RTVSPost2010PropOp30
 70
     1
102
RTVSPost2010Prop31
280
     0
102
RTVSPost2010PropOp31
 70
     1
102
RTVSPost2010Prop32
280
     0
102
RTVSPost2010PropOp32
 70
     1
102
RTVSPost2010Prop33
280
     0
102
RTVSPost2010PropOp33
 70
     1
102
RTVSPost2010Prop34
280
     0
102
RTVSPost2010PropOp34
 70
     1
102
RTVSPost2010Prop35
280
     0
102
RTVSPost2010PropOp35
 70
     1
102
RTVSPost2010Prop36
280
     0
102
RTVSPost2010PropOp36
 70
     1
102
RTVSPost2010Prop37
 90
       50
102
RTVSPost2010PropOp37
 70
     1
102
RTVSPost2010Prop38
140
0.0
102
RTVSPost2010PropOp38
 70
     1
102
RTVSPost2010Prop39
140
1.0
102
RTVSPost2010PropOp39
 70
     1
102
RTVSPost2010Prop40
 90
        0
102
RTVSPost2010PropOp40
 70
     1
102
RTVSPost2010Prop41ColorIndex
 90
       18
102
RTVSPost2010Prop41ColorRGB
 90
        0
102
RTVSPost2010PropOp41
 70
     1
102
RTVSPost2010Prop42
 90
       50
102
RTVSPost2010PropOp42
 70
     1
102
RTVSPost2010Prop43
 90
        3
102
RTVSPost2010PropOp43
 70
     1
102
RTVSPost2010Prop44ColorIndex
 90
        5
102
RTVSPost2010Prop44ColorRGB
 90
      255
102
RTVSPost2010PropOp44
 70
     1
102
RTVSPost2010Prop45
280
     0
102
RTVSPost2010PropOp45
 70
     1
102
RTVSPost2010Prop46
 90
       50
102
RTVSPost2010PropOp46
 70
     1
102
RTVSPost2010Prop47
 90
       50
102
RTVSPost2010PropOp47
 70
     1
102
RTVSPost2010Prop48
 90
       50
102
RTVSPost2010PropOp48
 70
     1
102
RTVSPost2010Prop49
280
     0
102
RTVSPost2010PropOp49
 70
     1
102
RTVSPost2010Prop50
 90
       50
102
RTVSPost2010PropOp50
 70
     1
102
RTVSPost2010Prop51ColorIndex
 90
      256
102
RTVSPost2010Prop51ColorRGB
 90
-16777216
102
RTVSPost2010PropOp51
 70
     0
102
RTVSPost2010Prop52
140
1.0
102
RTVSPost2010PropOp52
 70
     0
102
RTVSPost2010Prop53
 90
        2
102
RTVSPost2010PropOp53
 70
     1
102
RTVSPost2010Prop54
  1
strokes_ogs.tif
102
RTVSPost2010PropOp54
 70
     1
102
RTVSPost2010Prop55
280
     0
102
RTVSPost2010PropOp55
 70
     1
102
RTVSPost2010Prop56
140
1.0
102
RTVSPost2010PropOp56
 70
     1
102
RTVSPost2010Prop57
140
1.0
102
RTVSPost2010PropOp57
 70
     1
  0
XRECORD
  5
3F9
102
{ACAD_REACTORS
330
3F8
102
}
330
3F8
100
AcDbXrecord
280
     1
102
RTVSPost2010Prop28
280
     0
102
RTVSPost2010PropOp28
 70
     0
102
RTVSPost2010Prop29
280
     1
102
RTVSPost2010PropOp29
 70
     0
102
RTVSPost2010Prop30
280
     1
102
RTVSPost2010PropOp30
 70
     0
102
RTVSPost2010Prop31
280
     0
102
RTVSPost2010PropOp31
 70
     0
102
RTVSPost2010Prop32
280
     0
102
RTVSPost2010PropOp32
 70
     0
102
RTVSPost2010Prop33
280
     0
102
RTVSPost2010PropOp33
 70
     0
102
RTVSPost2010Prop34
280
     0
102
RTVSPost2010PropOp34
 70
     0
102
RTVSPost2010Prop35
280
     0
102
RTVSPost2010PropOp35
 70
     0
102
RTVSPost2010Prop36
280
     0
102
RTVSPost2010PropOp36
 70
     0
102
RTVSPost2010Prop37
 90
       50
102
RTVSPost2010PropOp37
 70
     0
102
RTVSPost2010Prop38
140
0.0
102
RTVSPost2010PropOp38
 70
     0
102
RTVSPost2010Prop39
140
1.0
102
RTVSPost2010PropOp39
 70
     0
102
RTVSPost2010Prop40
 90
        0
102
RTVSPost2010PropOp40
 70
     0
102
RTVSPost2010Prop41ColorIndex
 90
       18
102
RTVSPost2010Prop41ColorRGB
 90
        0
102
RTVSPost2010PropOp41
 70
     0
102
RTVSPost2010Prop42
 90
       50
102
RTVSPost2010PropOp42
 70
     0
102
RTVSPost2010Prop43
 90
        3
102
RTVSPost2010PropOp43
 70
     0
102
RTVSPost2010Prop44ColorIndex
 90
        5
102
RTVSPost2010Prop44ColorRGB
 90
      255
102
RTVSPost2010PropOp44
 70
     0
102
RTVSPost2010Prop45
280
     0
102
RTVSPost2010PropOp45
 70
     0
102
RTVSPost2010Prop46
 90
       50
102
RTVSPost2010PropOp46
 70
     0
102
RTVSPost2010Prop47
 90
       50
102
RTVSPost2010PropOp47
 70
     0
102
RTVSPost2010Prop48
 90
       50
102
RTVSPost2010PropOp48
 70
     0
102
RTVSPost2010Prop49
280
     0
102
RTVSPost2010PropOp49
 70
     0
102
RTVSPost2010Prop50
 90
       50
102
RTVSPost2010PropOp50
 70
     0
102
RTVSPost2010Prop51ColorIndex
 90
      256
102
RTVSPost2010Prop51ColorRGB
 90
-16777216
102
RTVSPost2010PropOp51
 70
     0
102
RTVSPost2010Prop52
140
1.0
102
RTVSPost2010PropOp52
 70
     0
102
RTVSPost2010Prop53
 90
        2
102
RTVSPost2010PropOp53
 70
     0
102
RTVSPost2010Prop54
  1
strokes_ogs.tif
102
RTVSPost2010PropOp54
 70
     0
102
RTVSPost2010Prop55
280
     0
102
RTVSPost2010PropOp55
 70
     0
102
RTVSPost2010Prop56
140
1.0
102
RTVSPost2010PropOp56
 70
     0
102
RTVSPost2010Prop57
140
1.0
102
RTVSPost2010PropOp57
 70
     0
  0
XRECORD
  5
3F1
102
{ACAD_REACTORS
330
3F0
102
}
330
3F0
100
AcDbXrecord
280
     1
102
RTVSPost2010Prop28
280
     0
102
RTVSPost2010PropOp28
 70
     1
102
RTVSPost2010Prop29
280
     1
102
RTVSPost2010PropOp29
 70
     1
102
RTVSPost2010Prop30
280
     1
102
RTVSPost2010PropOp30
 70
     1
102
RTVSPost2010Prop31
280
     0
102
RTVSPost2010PropOp31
 70
     1
102
RTVSPost2010Prop32
280
     0
102
RTVSPost2010PropOp32
 70
     1
102
RTVSPost2010Prop33
280
     0
102
RTVSPost2010PropOp33
 70
     1
102
RTVSPost2010Prop34
280
     0
102
RTVSPost2010PropOp34
 70
     1
102
RTVSPost2010Prop35
280
     0
102
RTVSPost2010PropOp35
 70
     1
102
RTVSPost2010Prop36
280
     0
102
RTVSPost2010PropOp36
 70
     1
102
RTVSPost2010Prop37
 90
       50
102
RTVSPost2010PropOp37
 70
     1
102
RTVSPost2010Prop38
140
0.0
102
RTVSPost2010PropOp38
 70
     1
102
RTVSPost2010Prop39
140
1.0
102
RTVSPost2010PropOp39
 70
     1
102
RTVSPost2010Prop40
 90
        0
102
RTVSPost2010PropOp40
 70
     1
102
RTVSPost2010Prop41ColorIndex
 90
       18
102
RTVSPost2010Prop41ColorRGB
 90
        0
102
RTVSPost2010PropOp41
 70
     1
102
RTVSPost2010Prop42
 90
       50
102
RTVSPost2010PropOp42
 70
     1
102
RTVSPost2010Prop43
 90
        3
102
RTVSPost2010PropOp43
 70
     1
102
RTVSPost2010Prop44ColorIndex
 90
        5
102
RTVSPost2010Prop44ColorRGB
 90
      255
102
RTVSPost2010PropOp44
 70
     1
102
RTVSPost2010Prop45
280
     0
102
RTVSPost2010PropOp45
 70
     1
102
RTVSPost2010Prop46
 90
       50
102
RTVSPost2010PropOp46
 70
     1
102
RTVSPost2010Prop47
 90
       50
102
RTVSPost2010PropOp47
 70
     1
102
RTVSPost2010Prop48
 90
       50
102
RTVSPost2010PropOp48
 70
     1
102
RTVSPost2010Prop49
280
     0
102
RTVSPost2010PropOp49
 70
     1
102
RTVSPost2010Prop50
 90
       50
102
RTVSPost2010PropOp50
 70
     1
102
RTVSPost2010Prop51ColorIndex
 90
      256
102
RTVSPost2010Prop51ColorRGB
 90
-16777216
102
RTVSPost2010PropOp51
 70
     0
102
RTVSPost2010Prop52
140
1.0
102
RTVSPost2010PropOp52
 70
     0
102
RTVSPost2010Prop53
 90
        2
102
RTVSPost2010PropOp53
 70
     1
102
RTVSPost2010Prop54
  1
strokes_ogs.tif
102
RTVSPost2010PropOp54
 70
     1
102
RTVSPost2010Prop55
280
     0
102
RTVSPost2010PropOp55
 70
     1
102
RTVSPost2010Prop56
140
1.0
102
RTVSPost2010PropOp56
 70
     1
102
RTVSPost2010Prop57
140
1.0
102
RTVSPost2010PropOp57
 70
     1
  0
XRECORD
  5
3D5
102
{ACAD_REACTORS
330
3D4
102
}
330
3D4
100
AcDbXrecord
280
     1
102
RTVSPost2010Prop28
280
     0
102
RTVSPost2010PropOp28
 70
     1
102
RTVSPost2010Prop29
280
     1
102
RTVSPost2010PropOp29
 70
     1
102
RTVSPost2010Prop30
280
     1
102
RTVSPost2010PropOp30
 70
     1
102
RTVSPost2010Prop31
280
     0
102
RTVSPost2010PropOp31
 70
     1
102
RTVSPost2010Prop32
280
     0
102
RTVSPost2010PropOp32
 70
     1
102
RTVSPost2010Prop33
280
     0
102
RTVSPost2010PropOp33
 70
     1
102
RTVSPost2010Prop34
280
     0
102
RTVSPost2010PropOp34
 70
     1
102
RTVSPost2010Prop35
280
     0
102
RTVSPost2010PropOp35
 70
     1
102
RTVSPost2010Prop36
280
     0
102
RTVSPost2010PropOp36
 70
     1
102
RTVSPost2010Prop37
 90
       50
102
RTVSPost2010PropOp37
 70
     1
102
RTVSPost2010Prop38
140
0.0
102
RTVSPost2010PropOp38
 70
     1
102
RTVSPost2010Prop39
140
1.0
102
RTVSPost2010PropOp39
 70
     1
102
RTVSPost2010Prop40
 90
        0
102
RTVSPost2010PropOp40
 70
     1
102
RTVSPost2010Prop41ColorIndex
 90
       18
102
RTVSPost2010Prop41ColorRGB
 90
        0
102
RTVSPost2010PropOp41
 70
     1
102
RTVSPost2010Prop42
 90
       50
102
RTVSPost2010PropOp42
 70
     1
102
RTVSPost2010Prop43
 90
        3
102
RTVSPost2010PropOp43
 70
     1
102
RTVSPost2010Prop44ColorIndex
 90
        5
102
RTVSPost2010Prop44ColorRGB
 90
      255
102
RTVSPost2010PropOp44
 70
     1
102
RTVSPost2010Prop45
280
     0
102
RTVSPost2010PropOp45
 70
     1
102
RTVSPost2010Prop46
 90
       50
102
RTVSPost2010PropOp46
 70
     1
102
RTVSPost2010Prop47
 90
       50
102
RTVSPost2010PropOp47
 70
     1
102
RTVSPost2010Prop48
 90
       50
102
RTVSPost2010PropOp48
 70
     1
102
RTVSPost2010Prop49
280
     0
102
RTVSPost2010PropOp49
 70
     1
102
RTVSPost2010Prop50
 90
       50
102
RTVSPost2010PropOp50
 70
     1
102
RTVSPost2010Prop51ColorIndex
 90
      256
102
RTVSPost2010Prop51ColorRGB
 90
-16777216
102
RTVSPost2010PropOp51
 70
     0
102
RTVSPost2010Prop52
140
1.0
102
RTVSPost2010PropOp52
 70
     0
102
RTVSPost2010Prop53
 90
        2
102
RTVSPost2010PropOp53
 70
     1
102
RTVSPost2010Prop54
  1
strokes_ogs.tif
102
RTVSPost2010PropOp54
 70
     1
102
RTVSPost2010Prop55
280
     0
102
RTVSPost2010PropOp55
 70
     1
102
RTVSPost2010Prop56
140
1.0
102
RTVSPost2010PropOp56
 70
     1
102
RTVSPost2010Prop57
140
1.0
102
RTVSPost2010PropOp57
 70
     1
  0
XRECORD
  5
3D7
102
{ACAD_REACTORS
330
3D6
102
}
330
3D6
100
AcDbXrecord
280
     1
102
RTVSPost2010Prop28
280
     0
102
RTVSPost2010PropOp28
 70
     1
102
RTVSPost2010Prop29
280
     1
102
RTVSPost2010PropOp29
 70
     1
102
RTVSPost2010Prop30
280
     1
102
RTVSPost2010PropOp30
 70
     1
102
RTVSPost2010Prop31
280
     0
102
RTVSPost2010PropOp31
 70
     1
102
RTVSPost2010Prop32
280
     0
102
RTVSPost2010PropOp32
 70
     1
102
RTVSPost2010Prop33
280
     0
102
RTVSPost2010PropOp33
 70
     1
102
RTVSPost2010Prop34
280
     0
102
RTVSPost2010PropOp34
 70
     1
102
RTVSPost2010Prop35
280
     0
102
RTVSPost2010PropOp35
 70
     1
102
RTVSPost2010Prop36
280
     0
102
RTVSPost2010PropOp36
 70
     1
102
RTVSPost2010Prop37
 90
       50
102
RTVSPost2010PropOp37
 70
     1
102
RTVSPost2010Prop38
140
0.0
102
RTVSPost2010PropOp38
 70
     1
102
RTVSPost2010Prop39
140
1.0
102
RTVSPost2010PropOp39
 70
     1
102
RTVSPost2010Prop40
 90
        0
102
RTVSPost2010PropOp40
 70
     1
102
RTVSPost2010Prop41ColorIndex
 90
       18
102
RTVSPost2010Prop41ColorRGB
 90
        0
102
RTVSPost2010PropOp41
 70
     1
102
RTVSPost2010Prop42
 90
       50
102
RTVSPost2010PropOp42
 70
     1
102
RTVSPost2010Prop43
 90
        3
102
RTVSPost2010PropOp43
 70
     1
102
RTVSPost2010Prop44ColorIndex
 90
        5
102
RTVSPost2010Prop44ColorRGB
 90
      255
102
RTVSPost2010PropOp44
 70
     1
102
RTVSPost2010Prop45
280
     0
102
RTVSPost2010PropOp45
 70
     1
102
RTVSPost2010Prop46
 90
       50
102
RTVSPost2010PropOp46
 70
     1
102
RTVSPost2010Prop47
 90
       50
102
RTVSPost2010PropOp47
 70
     1
102
RTVSPost2010Prop48
 90
       50
102
RTVSPost2010PropOp48
 70
     1
102
RTVSPost2010Prop49
280
     0
102
RTVSPost2010PropOp49
 70
     1
102
RTVSPost2010Prop50
 90
       50
102
RTVSPost2010PropOp50
 70
     1
102
RTVSPost2010Prop51ColorIndex
 90
      256
102
RTVSPost2010Prop51ColorRGB
 90
-16777216
102
RTVSPost2010PropOp51
 70
     0
102
RTVSPost2010Prop52
140
1.0
102
RTVSPost2010PropOp52
 70
     0
102
RTVSPost2010Prop53
 90
        2
102
RTVSPost2010PropOp53
 70
     1
102
RTVSPost2010Prop54
  1
strokes_ogs.tif
102
RTVSPost2010PropOp54
 70
     1
102
RTVSPost2010Prop55
280
     0
102
RTVSPost2010PropOp55
 70
     1
102
RTVSPost2010Prop56
140
1.0
102
RTVSPost2010PropOp56
 70
     1
102
RTVSPost2010Prop57
140
1.0
102
RTVSPost2010PropOp57
 70
     1
  0
XRECORD
  5
3D9
102
{ACAD_REACTORS
330
3D8
102
}
330
3D8
100
AcDbXrecord
280
     1
102
RTVSPost2010Prop28
280
     0
102
RTVSPost2010PropOp28
 70
     1
102
RTVSPost2010Prop29
280
     1
102
RTVSPost2010PropOp29
 70
     1
102
RTVSPost2010Prop30
280
     1
102
RTVSPost2010PropOp30
 70
     1
102
RTVSPost2010Prop31
280
     0
102
RTVSPost2010PropOp31
 70
     1
102
RTVSPost2010Prop32
280
     0
102
RTVSPost2010PropOp32
 70
     1
102
RTVSPost2010Prop33
280
     0
102
RTVSPost2010PropOp33
 70
     1
102
RTVSPost2010Prop34
280
     0
102
RTVSPost2010PropOp34
 70
     1
102
RTVSPost2010Prop35
280
     0
102
RTVSPost2010PropOp35
 70
     1
102
RTVSPost2010Prop36
280
     0
102
RTVSPost2010PropOp36
 70
     1
102
RTVSPost2010Prop37
 90
       50
102
RTVSPost2010PropOp37
 70
     1
102
RTVSPost2010Prop38
140
0.0
102
RTVSPost2010PropOp38
 70
     1
102
RTVSPost2010Prop39
140
1.0
102
RTVSPost2010PropOp39
 70
     1
102
RTVSPost2010Prop40
 90
        0
102
RTVSPost2010PropOp40
 70
     1
102
RTVSPost2010Prop41ColorIndex
 90
       18
102
RTVSPost2010Prop41ColorRGB
 90
        0
102
RTVSPost2010PropOp41
 70
     1
102
RTVSPost2010Prop42
 90
       50
102
RTVSPost2010PropOp42
 70
     1
102
RTVSPost2010Prop43
 90
        3
102
RTVSPost2010PropOp43
 70
     1
102
RTVSPost2010Prop44ColorIndex
 90
        5
102
RTVSPost2010Prop44ColorRGB
 90
      255
102
RTVSPost2010PropOp44
 70
     1
102
RTVSPost2010Prop45
280
     0
102
RTVSPost2010PropOp45
 70
     1
102
RTVSPost2010Prop46
 90
       50
102
RTVSPost2010PropOp46
 70
     1
102
RTVSPost2010Prop47
 90
       50
102
RTVSPost2010PropOp47
 70
     1
102
RTVSPost2010Prop48
 90
       50
102
RTVSPost2010PropOp48
 70
     1
102
RTVSPost2010Prop49
280
     0
102
RTVSPost2010PropOp49
 70
     1
102
RTVSPost2010Prop50
 90
       50
102
RTVSPost2010PropOp50
 70
     1
102
RTVSPost2010Prop51ColorIndex
 90
      256
102
RTVSPost2010Prop51ColorRGB
 90
-16777216
102
RTVSPost2010PropOp51
 70
     0
102
RTVSPost2010Prop52
140
1.0
102
RTVSPost2010PropOp52
 70
     0
102
RTVSPost2010Prop53
 90
        2
102
RTVSPost2010PropOp53
 70
     1
102
RTVSPost2010Prop54
  1
strokes_ogs.tif
102
RTVSPost2010PropOp54
 70
     1
102
RTVSPost2010Prop55
280
     0
102
RTVSPost2010PropOp55
 70
     1
102
RTVSPost2010Prop56
140
1.0
102
RTVSPost2010PropOp56
 70
     1
102
RTVSPost2010Prop57
140
1.0
102
RTVSPost2010PropOp57
 70
     1
  0
XRECORD
  5
3DB
102
{ACAD_REACTORS
330
3DA
102
}
330
3DA
100
AcDbXrecord
280
     1
102
RTVSPost2010Prop28
280
     0
102
RTVSPost2010PropOp28
 70
     1
102
RTVSPost2010Prop29
280
     1
102
RTVSPost2010PropOp29
 70
     1
102
RTVSPost2010Prop30
280
     1
102
RTVSPost2010PropOp30
 70
     1
102
RTVSPost2010Prop31
280
     0
102
RTVSPost2010PropOp31
 70
     1
102
RTVSPost2010Prop32
280
     0
102
RTVSPost2010PropOp32
 70
     1
102
RTVSPost2010Prop33
280
     0
102
RTVSPost2010PropOp33
 70
     1
102
RTVSPost2010Prop34
280
     0
102
RTVSPost2010PropOp34
 70
     1
102
RTVSPost2010Prop35
280
     0
102
RTVSPost2010PropOp35
 70
     1
102
RTVSPost2010Prop36
280
     0
102
RTVSPost2010PropOp36
 70
     1
102
RTVSPost2010Prop37
 90
       50
102
RTVSPost2010PropOp37
 70
     1
102
RTVSPost2010Prop38
140
0.0
102
RTVSPost2010PropOp38
 70
     1
102
RTVSPost2010Prop39
140
1.0
102
RTVSPost2010PropOp39
 70
     1
102
RTVSPost2010Prop40
 90
        0
102
RTVSPost2010PropOp40
 70
     1
102
RTVSPost2010Prop41ColorIndex
 90
       18
102
RTVSPost2010Prop41ColorRGB
 90
        0
102
RTVSPost2010PropOp41
 70
     1
102
RTVSPost2010Prop42
 90
       50
102
RTVSPost2010PropOp42
 70
     1
102
RTVSPost2010Prop43
 90
        3
102
RTVSPost2010PropOp43
 70
     1
102
RTVSPost2010Prop44ColorIndex
 90
        5
102
RTVSPost2010Prop44ColorRGB
 90
      255
102
RTVSPost2010PropOp44
 70
     1
102
RTVSPost2010Prop45
280
     0
102
RTVSPost2010PropOp45
 70
     1
102
RTVSPost2010Prop46
 90
       50
102
RTVSPost2010PropOp46
 70
     1
102
RTVSPost2010Prop47
 90
       50
102
RTVSPost2010PropOp47
 70
     1
102
RTVSPost2010Prop48
 90
       50
102
RTVSPost2010PropOp48
 70
     1
102
RTVSPost2010Prop49
280
     0
102
RTVSPost2010PropOp49
 70
     1
102
RTVSPost2010Prop50
 90
       50
102
RTVSPost2010PropOp50
 70
     1
102
RTVSPost2010Prop51ColorIndex
 90
      256
102
RTVSPost2010Prop51ColorRGB
 90
-16777216
102
RTVSPost2010PropOp51
 70
     0
102
RTVSPost2010Prop52
140
1.0
102
RTVSPost2010PropOp52
 70
     0
102
RTVSPost2010Prop53
 90
        2
102
RTVSPost2010PropOp53
 70
     1
102
RTVSPost2010Prop54
  1
strokes_ogs.tif
102
RTVSPost2010PropOp54
 70
     1
102
RTVSPost2010Prop55
280
     0
102
RTVSPost2010PropOp55
 70
     1
102
RTVSPost2010Prop56
140
1.0
102
RTVSPost2010PropOp56
 70
     1
102
RTVSPost2010Prop57
140
1.0
102
RTVSPost2010PropOp57
 70
     1
  0
XRECORD
  5
3E1
102
{ACAD_REACTORS
330
3E0
102
}
330
3E0
100
AcDbXrecord
280
     1
102
RTVSPost2010Prop28
280
     0
102
RTVSPost2010PropOp28
 70
     1
102
RTVSPost2010Prop29
280
     1
102
RTVSPost2010PropOp29
 70
     1
102
RTVSPost2010Prop30
280
     1
102
RTVSPost2010PropOp30
 70
     1
102
RTVSPost2010Prop31
280
     0
102
RTVSPost2010PropOp31
 70
     1
102
RTVSPost2010Prop32
280
     0
102
RTVSPost2010PropOp32
 70
     1
102
RTVSPost2010Prop33
280
     0
102
RTVSPost2010PropOp33
 70
     1
102
RTVSPost2010Prop34
280
     0
102
RTVSPost2010PropOp34
 70
     1
102
RTVSPost2010Prop35
280
     0
102
RTVSPost2010PropOp35
 70
     1
102
RTVSPost2010Prop36
280
     0
102
RTVSPost2010PropOp36
 70
     1
102
RTVSPost2010Prop37
 90
       50
102
RTVSPost2010PropOp37
 70
     1
102
RTVSPost2010Prop38
140
0.0
102
RTVSPost2010PropOp38
 70
     1
102
RTVSPost2010Prop39
140
1.0
102
RTVSPost2010PropOp39
 70
     1
102
RTVSPost2010Prop40
 90
        0
102
RTVSPost2010PropOp40
 70
     1
102
RTVSPost2010Prop41ColorIndex
 90
       18
102
RTVSPost2010Prop41ColorRGB
 90
        0
102
RTVSPost2010PropOp41
 70
     1
102
RTVSPost2010Prop42
 90
       50
102
RTVSPost2010PropOp42
 70
     1
102
RTVSPost2010Prop43
 90
        3
102
RTVSPost2010PropOp43
 70
     1
102
RTVSPost2010Prop44ColorIndex
 90
        5
102
RTVSPost2010Prop44ColorRGB
 90
      255
102
RTVSPost2010PropOp44
 70
     1
102
RTVSPost2010Prop45
280
     0
102
RTVSPost2010PropOp45
 70
     1
102
RTVSPost2010Prop46
 90
       50
102
RTVSPost2010PropOp46
 70
     1
102
RTVSPost2010Prop47
 90
       50
102
RTVSPost2010PropOp47
 70
     1
102
RTVSPost2010Prop48
 90
       50
102
RTVSPost2010PropOp48
 70
     1
102
RTVSPost2010Prop49
280
     0
102
RTVSPost2010PropOp49
 70
     1
102
RTVSPost2010Prop50
 90
       50
102
RTVSPost2010PropOp50
 70
     1
102
RTVSPost2010Prop51ColorIndex
 90
      256
102
RTVSPost2010Prop51ColorRGB
 90
-16777216
102
RTVSPost2010PropOp51
 70
     0
102
RTVSPost2010Prop52
140
1.0
102
RTVSPost2010PropOp52
 70
     0
102
RTVSPost2010Prop53
 90
        2
102
RTVSPost2010PropOp53
 70
     1
102
RTVSPost2010Prop54
  1
strokes_ogs.tif
102
RTVSPost2010PropOp54
 70
     1
102
RTVSPost2010Prop55
280
     0
102
RTVSPost2010PropOp55
 70
     1
102
RTVSPost2010Prop56
140
1.0
102
RTVSPost2010PropOp56
 70
     1
102
RTVSPost2010Prop57
140
1.0
102
RTVSPost2010PropOp57
 70
     1
  0
XRECORD
  5
3F5
102
{ACAD_REACTORS
330
3F4
102
}
330
3F4
100
AcDbXrecord
280
     1
102
RTVSPost2010Prop28
280
     0
102
RTVSPost2010PropOp28
 70
     0
102
RTVSPost2010Prop29
280
     1
102
RTVSPost2010PropOp29
 70
     0
102
RTVSPost2010Prop30
280
     1
102
RTVSPost2010PropOp30
 70
     0
102
RTVSPost2010Prop31
280
     0
102
RTVSPost2010PropOp31
 70
     0
102
RTVSPost2010Prop32
280
     0
102
RTVSPost2010PropOp32
 70
     0
102
RTVSPost2010Prop33
280
     0
102
RTVSPost2010PropOp33
 70
     0
102
RTVSPost2010Prop34
280
     0
102
RTVSPost2010PropOp34
 70
     0
102
RTVSPost2010Prop35
280
     0
102
RTVSPost2010PropOp35
 70
     0
102
RTVSPost2010Prop36
280
     0
102
RTVSPost2010PropOp36
 70
     0
102
RTVSPost2010Prop37
 90
       50
102
RTVSPost2010PropOp37
 70
     0
102
RTVSPost2010Prop38
140
0.0
102
RTVSPost2010PropOp38
 70
     0
102
RTVSPost2010Prop39
140
1.0
102
RTVSPost2010PropOp39
 70
     0
102
RTVSPost2010Prop40
 90
        0
102
RTVSPost2010PropOp40
 70
     0
102
RTVSPost2010Prop41ColorIndex
 90
       18
102
RTVSPost2010Prop41ColorRGB
 90
        0
102
RTVSPost2010PropOp41
 70
     0
102
RTVSPost2010Prop42
 90
       50
102
RTVSPost2010PropOp42
 70
     0
102
RTVSPost2010Prop43
 90
        3
102
RTVSPost2010PropOp43
 70
     0
102
RTVSPost2010Prop44ColorIndex
 90
        5
102
RTVSPost2010Prop44ColorRGB
 90
      255
102
RTVSPost2010PropOp44
 70
     0
102
RTVSPost2010Prop45
280
     0
102
RTVSPost2010PropOp45
 70
     0
102
RTVSPost2010Prop46
 90
       50
102
RTVSPost2010PropOp46
 70
     0
102
RTVSPost2010Prop47
 90
       50
102
RTVSPost2010PropOp47
 70
     0
102
RTVSPost2010Prop48
 90
       50
102
RTVSPost2010PropOp48
 70
     0
102
RTVSPost2010Prop49
280
     0
102
RTVSPost2010PropOp49
 70
     0
102
RTVSPost2010Prop50
 90
       50
102
RTVSPost2010PropOp50
 70
     0
102
RTVSPost2010Prop51ColorIndex
 90
      256
102
RTVSPost2010Prop51ColorRGB
 90
-16777216
102
RTVSPost2010PropOp51
 70
     0
102
RTVSPost2010Prop52
140
1.0
102
RTVSPost2010PropOp52
 70
     0
102
RTVSPost2010Prop53
 90
        2
102
RTVSPost2010PropOp53
 70
     0
102
RTVSPost2010Prop54
  1
strokes_ogs.tif
102
RTVSPost2010PropOp54
 70
     0
102
RTVSPost2010Prop55
280
     0
102
RTVSPost2010PropOp55
 70
     0
102
RTVSPost2010Prop56
140
1.0
102
RTVSPost2010PropOp56
 70
     0
102
RTVSPost2010Prop57
140
1.0
102
RTVSPost2010PropOp57
 70
     0
  0
XRECORD
  5
3EF
102
{ACAD_REACTORS
330
3EE
102
}
330
3EE
100
AcDbXrecord
280
     1
102
RTVSPost2010Prop28
280
     0
102
RTVSPost2010PropOp28
 70
     1
102
RTVSPost2010Prop29
280
     1
102
RTVSPost2010PropOp29
 70
     1
102
RTVSPost2010Prop30
280
     1
102
RTVSPost2010PropOp30
 70
     1
102
RTVSPost2010Prop31
280
     0
102
RTVSPost2010PropOp31
 70
     1
102
RTVSPost2010Prop32
280
     0
102
RTVSPost2010PropOp32
 70
     1
102
RTVSPost2010Prop33
280
     0
102
RTVSPost2010PropOp33
 70
     1
102
RTVSPost2010Prop34
280
     0
102
RTVSPost2010PropOp34
 70
     1
102
RTVSPost2010Prop35
280
     0
102
RTVSPost2010PropOp35
 70
     1
102
RTVSPost2010Prop36
280
     0
102
RTVSPost2010PropOp36
 70
     1
102
RTVSPost2010Prop37
 90
       50
102
RTVSPost2010PropOp37
 70
     1
102
RTVSPost2010Prop38
140
0.0
102
RTVSPost2010PropOp38
 70
     1
102
RTVSPost2010Prop39
140
1.0
102
RTVSPost2010PropOp39
 70
     1
102
RTVSPost2010Prop40
 90
        0
102
RTVSPost2010PropOp40
 70
     1
102
RTVSPost2010Prop41ColorIndex
 90
       18
102
RTVSPost2010Prop41ColorRGB
 90
        0
102
RTVSPost2010PropOp41
 70
     1
102
RTVSPost2010Prop42
 90
       50
102
RTVSPost2010PropOp42
 70
     1
102
RTVSPost2010Prop43
 90
        3
102
RTVSPost2010PropOp43
 70
     1
102
RTVSPost2010Prop44ColorIndex
 90
        5
102
RTVSPost2010Prop44ColorRGB
 90
      255
102
RTVSPost2010PropOp44
 70
     1
102
RTVSPost2010Prop45
280
     0
102
RTVSPost2010PropOp45
 70
     1
102
RTVSPost2010Prop46
 90
       50
102
RTVSPost2010PropOp46
 70
     1
102
RTVSPost2010Prop47
 90
       50
102
RTVSPost2010PropOp47
 70
     1
102
RTVSPost2010Prop48
 90
       50
102
RTVSPost2010PropOp48
 70
     1
102
RTVSPost2010Prop49
280
     0
102
RTVSPost2010PropOp49
 70
     1
102
RTVSPost2010Prop50
 90
       50
102
RTVSPost2010PropOp50
 70
     1
102
RTVSPost2010Prop51ColorIndex
 90
      256
102
RTVSPost2010Prop51ColorRGB
 90
-16777216
102
RTVSPost2010PropOp51
 70
     0
102
RTVSPost2010Prop52
140
1.0
102
RTVSPost2010PropOp52
 70
     0
102
RTVSPost2010Prop53
 90
        2
102
RTVSPost2010PropOp53
 70
     1
102
RTVSPost2010Prop54
  1
strokes_ogs.tif
102
RTVSPost2010PropOp54
 70
     1
102
RTVSPost2010Prop55
280
     0
102
RTVSPost2010PropOp55
 70
     1
102
RTVSPost2010Prop56
140
1.0
102
RTVSPost2010PropOp56
 70
     1
102
RTVSPost2010Prop57
140
1.0
102
RTVSPost2010PropOp57
 70
     1
  0
XRECORD
  5
3F7
102
{ACAD_REACTORS
330
3F6
102
}
330
3F6
100
AcDbXrecord
280
     1
102
RTVSPost2010Prop28
280
     0
102
RTVSPost2010PropOp28
 70
     0
102
RTVSPost2010Prop29
280
     1
102
RTVSPost2010PropOp29
 70
     0
102
RTVSPost2010Prop30
280
     1
102
RTVSPost2010PropOp30
 70
     0
102
RTVSPost2010Prop31
280
     0
102
RTVSPost2010PropOp31
 70
     0
102
RTVSPost2010Prop32
280
     0
102
RTVSPost2010PropOp32
 70
     0
102
RTVSPost2010Prop33
280
     0
102
RTVSPost2010PropOp33
 70
     0
102
RTVSPost2010Prop34
280
     0
102
RTVSPost2010PropOp34
 70
     0
102
RTVSPost2010Prop35
280
     0
102
RTVSPost2010PropOp35
 70
     0
102
RTVSPost2010Prop36
280
     0
102
RTVSPost2010PropOp36
 70
     0
102
RTVSPost2010Prop37
 90
       50
102
RTVSPost2010PropOp37
 70
     0
102
RTVSPost2010Prop38
140
0.0
102
RTVSPost2010PropOp38
 70
     0
102
RTVSPost2010Prop39
140
1.0
102
RTVSPost2010PropOp39
 70
     0
102
RTVSPost2010Prop40
 90
        0
102
RTVSPost2010PropOp40
 70
     0
102
RTVSPost2010Prop41ColorIndex
 90
       18
102
RTVSPost2010Prop41ColorRGB
 90
        0
102
RTVSPost2010PropOp41
 70
     0
102
RTVSPost2010Prop42
 90
       50
102
RTVSPost2010PropOp42
 70
     0
102
RTVSPost2010Prop43
 90
        3
102
RTVSPost2010PropOp43
 70
     0
102
RTVSPost2010Prop44ColorIndex
 90
        5
102
RTVSPost2010Prop44ColorRGB
 90
      255
102
RTVSPost2010PropOp44
 70
     0
102
RTVSPost2010Prop45
280
     0
102
RTVSPost2010PropOp45
 70
     0
102
RTVSPost2010Prop46
 90
       50
102
RTVSPost2010PropOp46
 70
     0
102
RTVSPost2010Prop47
 90
       50
102
RTVSPost2010PropOp47
 70
     0
102
RTVSPost2010Prop48
 90
       50
102
RTVSPost2010PropOp48
 70
     0
102
RTVSPost2010Prop49
280
     0
102
RTVSPost2010PropOp49
 70
     0
102
RTVSPost2010Prop50
 90
       50
102
RTVSPost2010PropOp50
 70
     0
102
RTVSPost2010Prop51ColorIndex
 90
      256
102
RTVSPost2010Prop51ColorRGB
 90
-16777216
102
RTVSPost2010PropOp51
 70
     0
102
RTVSPost2010Prop52
140
1.0
102
RTVSPost2010PropOp52
 70
     0
102
RTVSPost2010Prop53
 90
        2
102
RTVSPost2010PropOp53
 70
     0
102
RTVSPost2010Prop54
  1
strokes_ogs.tif
102
RTVSPost2010PropOp54
 70
     0
102
RTVSPost2010Prop55
280
     0
102
RTVSPost2010PropOp55
 70
     0
102
RTVSPost2010Prop56
140
1.0
102
RTVSPost2010PropOp56
 70
     0
102
RTVSPost2010Prop57
140
1.0
102
RTVSPost2010PropOp57
 70
     0
  0
XRECORD
  5
3E5
102
{ACAD_REACTORS
330
3E4
102
}
330
3E4
100
AcDbXrecord
280
     1
102
RTVSPost2010Prop28
280
     0
102
RTVSPost2010PropOp28
 70
     1
102
RTVSPost2010Prop29
280
     1
102
RTVSPost2010PropOp29
 70
     1
102
RTVSPost2010Prop30
280
     1
102
RTVSPost2010PropOp30
 70
     1
102
RTVSPost2010Prop31
280
     0
102
RTVSPost2010PropOp31
 70
     1
102
RTVSPost2010Prop32
280
     0
102
RTVSPost2010PropOp32
 70
     1
102
RTVSPost2010Prop33
280
     0
102
RTVSPost2010PropOp33
 70
     1
102
RTVSPost2010Prop34
280
     0
102
RTVSPost2010PropOp34
 70
     1
102
RTVSPost2010Prop35
280
     0
102
RTVSPost2010PropOp35
 70
     1
102
RTVSPost2010Prop36
280
     0
102
RTVSPost2010PropOp36
 70
     1
102
RTVSPost2010Prop37
 90
       50
102
RTVSPost2010PropOp37
 70
     1
102
RTVSPost2010Prop38
140
0.0
102
RTVSPost2010PropOp38
 70
     1
102
RTVSPost2010Prop39
140
1.0
102
RTVSPost2010PropOp39
 70
     1
102
RTVSPost2010Prop40
 90
        0
102
RTVSPost2010PropOp40
 70
     1
102
RTVSPost2010Prop41ColorIndex
 90
       18
102
RTVSPost2010Prop41ColorRGB
 90
        0
102
RTVSPost2010PropOp41
 70
     1
102
RTVSPost2010Prop42
 90
       50
102
RTVSPost2010PropOp42
 70
     1
102
RTVSPost2010Prop43
 90
        3
102
RTVSPost2010PropOp43
 70
     1
102
RTVSPost2010Prop44ColorIndex
 90
        5
102
RTVSPost2010Prop44ColorRGB
 90
      255
102
RTVSPost2010PropOp44
 70
     1
102
RTVSPost2010Prop45
280
     0
102
RTVSPost2010PropOp45
 70
     1
102
RTVSPost2010Prop46
 90
       50
102
RTVSPost2010PropOp46
 70
     1
102
RTVSPost2010Prop47
 90
       50
102
RTVSPost2010PropOp47
 70
     1
102
RTVSPost2010Prop48
 90
       50
102
RTVSPost2010PropOp48
 70
     1
102
RTVSPost2010Prop49
280
     0
102
RTVSPost2010PropOp49
 70
     1
102
RTVSPost2010Prop50
 90
       50
102
RTVSPost2010PropOp50
 70
     1
102
RTVSPost2010Prop51ColorIndex
 90
      256
102
RTVSPost2010Prop51ColorRGB
 90
-16777216
102
RTVSPost2010PropOp51
 70
     0
102
RTVSPost2010Prop52
140
1.0
102
RTVSPost2010PropOp52
 70
     0
102
RTVSPost2010Prop53
 90
        2
102
RTVSPost2010PropOp53
 70
     1
102
RTVSPost2010Prop54
  1
strokes_ogs.tif
102
RTVSPost2010PropOp54
 70
     1
102
RTVSPost2010Prop55
280
     0
102
RTVSPost2010PropOp55
 70
     1
102
RTVSPost2010Prop56
140
1.0
102
RTVSPost2010PropOp56
 70
     1
102
RTVSPost2010Prop57
140
1.0
102
RTVSPost2010PropOp57
 70
     1
  0
XRECORD
  5
403
102
{ACAD_REACTORS
330
402
102
}
330
402
100
AcDbXrecord
280
     1
102
RTVSPost2010Prop28
280
     0
102
RTVSPost2010PropOp28
 70
     1
102
RTVSPost2010Prop29
280
     1
102
RTVSPost2010PropOp29
 70
     1
102
RTVSPost2010Prop30
280
     1
102
RTVSPost2010PropOp30
 70
     1
102
RTVSPost2010Prop31
280
     0
102
RTVSPost2010PropOp31
 70
     1
102
RTVSPost2010Prop32
280
     0
102
RTVSPost2010PropOp32
 70
     1
102
RTVSPost2010Prop33
280
     0
102
RTVSPost2010PropOp33
 70
     1
102
RTVSPost2010Prop34
280
     0
102
RTVSPost2010PropOp34
 70
     1
102
RTVSPost2010Prop35
280
     0
102
RTVSPost2010PropOp35
 70
     1
102
RTVSPost2010Prop36
280
     0
102
RTVSPost2010PropOp36
 70
     1
102
RTVSPost2010Prop37
 90
       50
102
RTVSPost2010PropOp37
 70
     1
102
RTVSPost2010Prop38
140
0.0
102
RTVSPost2010PropOp38
 70
     1
102
RTVSPost2010Prop39
140
1.0
102
RTVSPost2010PropOp39
 70
     1
102
RTVSPost2010Prop40
 90
        0
102
RTVSPost2010PropOp40
 70
     1
102
RTVSPost2010Prop41ColorIndex
 90
       18
102
RTVSPost2010Prop41ColorRGB
 90
        0
102
RTVSPost2010PropOp41
 70
     1
102
RTVSPost2010Prop42
 90
       50
102
RTVSPost2010PropOp42
 70
     1
102
RTVSPost2010Prop43
 90
        3
102
RTVSPost2010PropOp43
 70
     1
102
RTVSPost2010Prop44ColorIndex
 90
        5
102
RTVSPost2010Prop44ColorRGB
 90
      255
102
RTVSPost2010PropOp44
 70
     1
102
RTVSPost2010Prop45
280
     0
102
RTVSPost2010PropOp45
 70
     1
102
RTVSPost2010Prop46
 90
       50
102
RTVSPost2010PropOp46
 70
     1
102
RTVSPost2010Prop47
 90
       50
102
RTVSPost2010PropOp47
 70
     1
102
RTVSPost2010Prop48
 90
       50
102
RTVSPost2010PropOp48
 70
     1
102
RTVSPost2010Prop49
280
     0
102
RTVSPost2010PropOp49
 70
     1
102
RTVSPost2010Prop50
 90
       50
102
RTVSPost2010PropOp50
 70
     1
102
RTVSPost2010Prop51ColorIndex
 90
      256
102
RTVSPost2010Prop51ColorRGB
 90
-16777216
102
RTVSPost2010PropOp51
 70
     0
102
RTVSPost2010Prop52
140
1.0
102
RTVSPost2010PropOp52
 70
     0
102
RTVSPost2010Prop53
 90
        2
102
RTVSPost2010PropOp53
 70
     1
102
RTVSPost2010Prop54
  1
strokes_ogs.tif
102
RTVSPost2010PropOp54
 70
     1
102
RTVSPost2010Prop55
280
     0
102
RTVSPost2010PropOp55
 70
     1
102
RTVSPost2010Prop56
140
1.0
102
RTVSPost2010PropOp56
 70
     1
102
RTVSPost2010Prop57
140
1.0
102
RTVSPost2010PropOp57
 70
     1
  0
XRECORD
  5
401
102
{ACAD_REACTORS
330
400
102
}
330
400
100
AcDbXrecord
280
     1
102
RTVSPost2010Prop28
280
     0
102
RTVSPost2010PropOp28
 70
     1
102
RTVSPost2010Prop29
280
     1
102
RTVSPost2010PropOp29
 70
     1
102
RTVSPost2010Prop30
280
     1
102
RTVSPost2010PropOp30
 70
     1
102
RTVSPost2010Prop31
280
     0
102
RTVSPost2010PropOp31
 70
     1
102
RTVSPost2010Prop32
280
     0
102
RTVSPost2010PropOp32
 70
     1
102
RTVSPost2010Prop33
280
     0
102
RTVSPost2010PropOp33
 70
     1
102
RTVSPost2010Prop34
280
     0
102
RTVSPost2010PropOp34
 70
     1
102
RTVSPost2010Prop35
280
     0
102
RTVSPost2010PropOp35
 70
     1
102
RTVSPost2010Prop36
280
     0
102
RTVSPost2010PropOp36
 70
     1
102
RTVSPost2010Prop37
 90
       50
102
RTVSPost2010PropOp37
 70
     1
102
RTVSPost2010Prop38
140
0.0
102
RTVSPost2010PropOp38
 70
     1
102
RTVSPost2010Prop39
140
1.0
102
RTVSPost2010PropOp39
 70
     1
102
RTVSPost2010Prop40
 90
        0
102
RTVSPost2010PropOp40
 70
     1
102
RTVSPost2010Prop41ColorIndex
 90
       18
102
RTVSPost2010Prop41ColorRGB
 90
        0
102
RTVSPost2010PropOp41
 70
     1
102
RTVSPost2010Prop42
 90
       50
102
RTVSPost2010PropOp42
 70
     1
102
RTVSPost2010Prop43
 90
        3
102
RTVSPost2010PropOp43
 70
     1
102
RTVSPost2010Prop44ColorIndex
 90
        5
102
RTVSPost2010Prop44ColorRGB
 90
      255
102
RTVSPost2010PropOp44
 70
     1
102
RTVSPost2010Prop45
280
     0
102
RTVSPost2010PropOp45
 70
     1
102
RTVSPost2010Prop46
 90
       50
102
RTVSPost2010PropOp46
 70
     1
102
RTVSPost2010Prop47
 90
       50
102
RTVSPost2010PropOp47
 70
     1
102
RTVSPost2010Prop48
 90
       50
102
RTVSPost2010PropOp48
 70
     1
102
RTVSPost2010Prop49
280
     0
102
RTVSPost2010PropOp49
 70
     1
102
RTVSPost2010Prop50
 90
       50
102
RTVSPost2010PropOp50
 70
     1
102
RTVSPost2010Prop51ColorIndex
 90
      256
102
RTVSPost2010Prop51ColorRGB
 90
-16777216
102
RTVSPost2010PropOp51
 70
     0
102
RTVSPost2010Prop52
140
1.0
102
RTVSPost2010PropOp52
 70
     0
102
RTVSPost2010Prop53
 90
        2
102
RTVSPost2010PropOp53
 70
     1
102
RTVSPost2010Prop54
  1
strokes_ogs.tif
102
RTVSPost2010PropOp54
 70
     1
102
RTVSPost2010Prop55
280
     0
102
RTVSPost2010PropOp55
 70
     1
102
RTVSPost2010Prop56
140
1.0
102
RTVSPost2010PropOp56
 70
     1
102
RTVSPost2010Prop57
140
1.0
102
RTVSPost2010PropOp57
 70
     1
  0
XRECORD
  5
3FB
102
{ACAD_REACTORS
330
3FA
102
}
330
3FA
100
AcDbXrecord
280
     1
102
RTVSPost2010Prop28
280
     0
102
RTVSPost2010PropOp28
 70
     1
102
RTVSPost2010Prop29
280
     1
102
RTVSPost2010PropOp29
 70
     1
102
RTVSPost2010Prop30
280
     1
102
RTVSPost2010PropOp30
 70
     1
102
RTVSPost2010Prop31
280
     0
102
RTVSPost2010PropOp31
 70
     1
102
RTVSPost2010Prop32
280
     0
102
RTVSPost2010PropOp32
 70
     1
102
RTVSPost2010Prop33
280
     0
102
RTVSPost2010PropOp33
 70
     1
102
RTVSPost2010Prop34
280
     0
102
RTVSPost2010PropOp34
 70
     1
102
RTVSPost2010Prop35
280
     0
102
RTVSPost2010PropOp35
 70
     1
102
RTVSPost2010Prop36
280
     0
102
RTVSPost2010PropOp36
 70
     1
102
RTVSPost2010Prop37
 90
       50
102
RTVSPost2010PropOp37
 70
     1
102
RTVSPost2010Prop38
140
0.0
102
RTVSPost2010PropOp38
 70
     1
102
RTVSPost2010Prop39
140
1.0
102
RTVSPost2010PropOp39
 70
     1
102
RTVSPost2010Prop40
 90
        0
102
RTVSPost2010PropOp40
 70
     1
102
RTVSPost2010Prop41ColorIndex
 90
       18
102
RTVSPost2010Prop41ColorRGB
 90
        0
102
RTVSPost2010PropOp41
 70
     1
102
RTVSPost2010Prop42
 90
       50
102
RTVSPost2010PropOp42
 70
     1
102
RTVSPost2010Prop43
 90
        3
102
RTVSPost2010PropOp43
 70
     1
102
RTVSPost2010Prop44ColorIndex
 90
        5
102
RTVSPost2010Prop44ColorRGB
 90
      255
102
RTVSPost2010PropOp44
 70
     1
102
RTVSPost2010Prop45
280
     0
102
RTVSPost2010PropOp45
 70
     1
102
RTVSPost2010Prop46
 90
       50
102
RTVSPost2010PropOp46
 70
     1
102
RTVSPost2010Prop47
 90
       50
102
RTVSPost2010PropOp47
 70
     1
102
RTVSPost2010Prop48
 90
       50
102
RTVSPost2010PropOp48
 70
     1
102
RTVSPost2010Prop49
280
     0
102
RTVSPost2010PropOp49
 70
     1
102
RTVSPost2010Prop50
 90
       50
102
RTVSPost2010PropOp50
 70
     1
102
RTVSPost2010Prop51ColorIndex
 90
      256
102
RTVSPost2010Prop51ColorRGB
 90
-16777216
102
RTVSPost2010PropOp51
 70
     0
102
RTVSPost2010Prop52
140
1.0
102
RTVSPost2010PropOp52
 70
     0
102
RTVSPost2010Prop53
 90
        2
102
RTVSPost2010PropOp53
 70
     1
102
RTVSPost2010Prop54
  1
strokes_ogs.tif
102
RTVSPost2010PropOp54
 70
     1
102
RTVSPost2010Prop55
280
     0
102
RTVSPost2010PropOp55
 70
     1
102
RTVSPost2010Prop56
140
1.0
102
RTVSPost2010PropOp56
 70
     1
102
RTVSPost2010Prop57
140
1.0
102
RTVSPost2010PropOp57
 70
     1
  0
XRECORD
  5
3FD
102
{ACAD_REACTORS
330
3FC
102
}
330
3FC
100
AcDbXrecord
280
     1
102
RTVSPost2010Prop28
280
     0
102
RTVSPost2010PropOp28
 70
     1
102
RTVSPost2010Prop29
280
     1
102
RTVSPost2010PropOp29
 70
     1
102
RTVSPost2010Prop30
280
     1
102
RTVSPost2010PropOp30
 70
     1
102
RTVSPost2010Prop31
280
     0
102
RTVSPost2010PropOp31
 70
     1
102
RTVSPost2010Prop32
280
     0
102
RTVSPost2010PropOp32
 70
     1
102
RTVSPost2010Prop33
280
     0
102
RTVSPost2010PropOp33
 70
     1
102
RTVSPost2010Prop34
280
     0
102
RTVSPost2010PropOp34
 70
     1
102
RTVSPost2010Prop35
280
     0
102
RTVSPost2010PropOp35
 70
     1
102
RTVSPost2010Prop36
280
     0
102
RTVSPost2010PropOp36
 70
     1
102
RTVSPost2010Prop37
 90
       50
102
RTVSPost2010PropOp37
 70
     1
102
RTVSPost2010Prop38
140
0.0
102
RTVSPost2010PropOp38
 70
     1
102
RTVSPost2010Prop39
140
1.0
102
RTVSPost2010PropOp39
 70
     1
102
RTVSPost2010Prop40
 90
        0
102
RTVSPost2010PropOp40
 70
     1
102
RTVSPost2010Prop41ColorIndex
 90
       18
102
RTVSPost2010Prop41ColorRGB
 90
        0
102
RTVSPost2010PropOp41
 70
     1
102
RTVSPost2010Prop42
 90
       50
102
RTVSPost2010PropOp42
 70
     1
102
RTVSPost2010Prop43
 90
        3
102
RTVSPost2010PropOp43
 70
     1
102
RTVSPost2010Prop44ColorIndex
 90
        5
102
RTVSPost2010Prop44ColorRGB
 90
      255
102
RTVSPost2010PropOp44
 70
     1
102
RTVSPost2010Prop45
280
     0
102
RTVSPost2010PropOp45
 70
     1
102
RTVSPost2010Prop46
 90
       50
102
RTVSPost2010PropOp46
 70
     1
102
RTVSPost2010Prop47
 90
       50
102
RTVSPost2010PropOp47
 70
     1
102
RTVSPost2010Prop48
 90
       50
102
RTVSPost2010PropOp48
 70
     1
102
RTVSPost2010Prop49
280
     0
102
RTVSPost2010PropOp49
 70
     1
102
RTVSPost2010Prop50
 90
       50
102
RTVSPost2010PropOp50
 70
     1
102
RTVSPost2010Prop51ColorIndex
 90
      256
102
RTVSPost2010Prop51ColorRGB
 90
-16777216
102
RTVSPost2010PropOp51
 70
     0
102
RTVSPost2010Prop52
140
1.0
102
RTVSPost2010PropOp52
 70
     0
102
RTVSPost2010Prop53
 90
        2
102
RTVSPost2010PropOp53
 70
     1
102
RTVSPost2010Prop54
  1
strokes_ogs.tif
102
RTVSPost2010PropOp54
 70
     1
102
RTVSPost2010Prop55
280
     0
102
RTVSPost2010PropOp55
 70
     1
102
RTVSPost2010Prop56
140
1.0
102
RTVSPost2010PropOp56
 70
     1
102
RTVSPost2010Prop57
140
1.0
102
RTVSPost2010PropOp57
 70
     1
  0
XRECORD
  5
3ED
102
{ACAD_REACTORS
330
3EC
102
}
330
3EC
100
AcDbXrecord
280
     1
102
RTVSPost2010Prop28
280
     0
102
RTVSPost2010PropOp28
 70
     1
102
RTVSPost2010Prop29
280
     1
102
RTVSPost2010PropOp29
 70
     1
102
RTVSPost2010Prop30
280
     1
102
RTVSPost2010PropOp30
 70
     1
102
RTVSPost2010Prop31
280
     0
102
RTVSPost2010PropOp31
 70
     1
102
RTVSPost2010Prop32
280
     0
102
RTVSPost2010PropOp32
 70
     1
102
RTVSPost2010Prop33
280
     0
102
RTVSPost2010PropOp33
 70
     1
102
RTVSPost2010Prop34
280
     0
102
RTVSPost2010PropOp34
 70
     1
102
RTVSPost2010Prop35
280
     0
102
RTVSPost2010PropOp35
 70
     1
102
RTVSPost2010Prop36
280
     0
102
RTVSPost2010PropOp36
 70
     1
102
RTVSPost2010Prop37
 90
       50
102
RTVSPost2010PropOp37
 70
     1
102
RTVSPost2010Prop38
140
0.0
102
RTVSPost2010PropOp38
 70
     1
102
RTVSPost2010Prop39
140
1.0
102
RTVSPost2010PropOp39
 70
     1
102
RTVSPost2010Prop40
 90
        0
102
RTVSPost2010PropOp40
 70
     1
102
RTVSPost2010Prop41ColorIndex
 90
       18
102
RTVSPost2010Prop41ColorRGB
 90
        0
102
RTVSPost2010PropOp41
 70
     1
102
RTVSPost2010Prop42
 90
       50
102
RTVSPost2010PropOp42
 70
     1
102
RTVSPost2010Prop43
 90
        3
102
RTVSPost2010PropOp43
 70
     1
102
RTVSPost2010Prop44ColorIndex
 90
        5
102
RTVSPost2010Prop44ColorRGB
 90
      255
102
RTVSPost2010PropOp44
 70
     1
102
RTVSPost2010Prop45
280
     0
102
RTVSPost2010PropOp45
 70
     1
102
RTVSPost2010Prop46
 90
       50
102
RTVSPost2010PropOp46
 70
     1
102
RTVSPost2010Prop47
 90
       50
102
RTVSPost2010PropOp47
 70
     1
102
RTVSPost2010Prop48
 90
       50
102
RTVSPost2010PropOp48
 70
     1
102
RTVSPost2010Prop49
280
     0
102
RTVSPost2010PropOp49
 70
     1
102
RTVSPost2010Prop50
 90
       50
102
RTVSPost2010PropOp50
 70
     1
102
RTVSPost2010Prop51ColorIndex
 90
      256
102
RTVSPost2010Prop51ColorRGB
 90
-16777216
102
RTVSPost2010PropOp51
 70
     0
102
RTVSPost2010Prop52
140
1.0
102
RTVSPost2010PropOp52
 70
     0
102
RTVSPost2010Prop53
 90
        2
102
RTVSPost2010PropOp53
 70
     1
102
RTVSPost2010Prop54
  1
strokes_ogs.tif
102
RTVSPost2010PropOp54
 70
     1
102
RTVSPost2010Prop55
280
     0
102
RTVSPost2010PropOp55
 70
     1
102
RTVSPost2010Prop56
140
1.0
102
RTVSPost2010PropOp56
 70
     1
102
RTVSPost2010Prop57
140
1.0
102
RTVSPost2010PropOp57
 70
     1
  0
XRECORD
  5
3DF
102
{ACAD_REACTORS
330
3DE
102
}
330
3DE
100
AcDbXrecord
280
     1
102
RTVSPost2010Prop28
280
     0
102
RTVSPost2010PropOp28
 70
     1
102
RTVSPost2010Prop29
280
     1
102
RTVSPost2010PropOp29
 70
     1
102
RTVSPost2010Prop30
280
     1
102
RTVSPost2010PropOp30
 70
     1
102
RTVSPost2010Prop31
280
     0
102
RTVSPost2010PropOp31
 70
     1
102
RTVSPost2010Prop32
280
     0
102
RTVSPost2010PropOp32
 70
     1
102
RTVSPost2010Prop33
280
     0
102
RTVSPost2010PropOp33
 70
     1
102
RTVSPost2010Prop34
280
     0
102
RTVSPost2010PropOp34
 70
     1
102
RTVSPost2010Prop35
280
     0
102
RTVSPost2010PropOp35
 70
     1
102
RTVSPost2010Prop36
280
     0
102
RTVSPost2010PropOp36
 70
     1
102
RTVSPost2010Prop37
 90
       50
102
RTVSPost2010PropOp37
 70
     1
102
RTVSPost2010Prop38
140
0.0
102
RTVSPost2010PropOp38
 70
     1
102
RTVSPost2010Prop39
140
1.0
102
RTVSPost2010PropOp39
 70
     1
102
RTVSPost2010Prop40
 90
        0
102
RTVSPost2010PropOp40
 70
     1
102
RTVSPost2010Prop41ColorIndex
 90
       18
102
RTVSPost2010Prop41ColorRGB
 90
        0
102
RTVSPost2010PropOp41
 70
     1
102
RTVSPost2010Prop42
 90
       50
102
RTVSPost2010PropOp42
 70
     1
102
RTVSPost2010Prop43
 90
        3
102
RTVSPost2010PropOp43
 70
     1
102
RTVSPost2010Prop44ColorIndex
 90
        5
102
RTVSPost2010Prop44ColorRGB
 90
      255
102
RTVSPost2010PropOp44
 70
     1
102
RTVSPost2010Prop45
280
     0
102
RTVSPost2010PropOp45
 70
     1
102
RTVSPost2010Prop46
 90
       50
102
RTVSPost2010PropOp46
 70
     1
102
RTVSPost2010Prop47
 90
       50
102
RTVSPost2010PropOp47
 70
     1
102
RTVSPost2010Prop48
 90
       50
102
RTVSPost2010PropOp48
 70
     1
102
RTVSPost2010Prop49
280
     0
102
RTVSPost2010PropOp49
 70
     1
102
RTVSPost2010Prop50
 90
       50
102
RTVSPost2010PropOp50
 70
     1
102
RTVSPost2010Prop51ColorIndex
 90
      256
102
RTVSPost2010Prop51ColorRGB
 90
-16777216
102
RTVSPost2010PropOp51
 70
     0
102
RTVSPost2010Prop52
140
1.0
102
RTVSPost2010PropOp52
 70
     0
102
RTVSPost2010Prop53
 90
        2
102
RTVSPost2010PropOp53
 70
     1
102
RTVSPost2010Prop54
  1
strokes_ogs.tif
102
RTVSPost2010PropOp54
 70
     1
102
RTVSPost2010Prop55
280
     0
102
RTVSPost2010PropOp55
 70
     1
102
RTVSPost2010Prop56
140
1.0
102
RTVSPost2010PropOp56
 70
     1
102
RTVSPost2010Prop57
140
1.0
102
RTVSPost2010PropOp57
 70
     1
  0
XRECORD
  5
3FF
102
{ACAD_REACTORS
330
3FE
102
}
330
3FE
100
AcDbXrecord
280
     1
102
RTVSPost2010Prop28
280
     0
102
RTVSPost2010PropOp28
 70
     1
102
RTVSPost2010Prop29
280
     1
102
RTVSPost2010PropOp29
 70
     1
102
RTVSPost2010Prop30
280
     1
102
RTVSPost2010PropOp30
 70
     1
102
RTVSPost2010Prop31
280
     0
102
RTVSPost2010PropOp31
 70
     1
102
RTVSPost2010Prop32
280
     0
102
RTVSPost2010PropOp32
 70
     1
102
RTVSPost2010Prop33
280
     0
102
RTVSPost2010PropOp33
 70
     1
102
RTVSPost2010Prop34
280
     0
102
RTVSPost2010PropOp34
 70
     1
102
RTVSPost2010Prop35
280
     0
102
RTVSPost2010PropOp35
 70
     1
102
RTVSPost2010Prop36
280
     0
102
RTVSPost2010PropOp36
 70
     1
102
RTVSPost2010Prop37
 90
       50
102
RTVSPost2010PropOp37
 70
     1
102
RTVSPost2010Prop38
140
0.0
102
RTVSPost2010PropOp38
 70
     1
102
RTVSPost2010Prop39
140
1.0
102
RTVSPost2010PropOp39
 70
     1
102
RTVSPost2010Prop40
 90
        0
102
RTVSPost2010PropOp40
 70
     1
102
RTVSPost2010Prop41ColorIndex
 90
       18
102
RTVSPost2010Prop41ColorRGB
 90
        0
102
RTVSPost2010PropOp41
 70
     1
102
RTVSPost2010Prop42
 90
       50
102
RTVSPost2010PropOp42
 70
     1
102
RTVSPost2010Prop43
 90
        3
102
RTVSPost2010PropOp43
 70
     1
102
RTVSPost2010Prop44ColorIndex
 90
        5
102
RTVSPost2010Prop44ColorRGB
 90
      255
102
RTVSPost2010PropOp44
 70
     1
102
RTVSPost2010Prop45
280
     0
102
RTVSPost2010PropOp45
 70
     1
102
RTVSPost2010Prop46
 90
       50
102
RTVSPost2010PropOp46
 70
     1
102
RTVSPost2010Prop47
 90
       50
102
RTVSPost2010PropOp47
 70
     1
102
RTVSPost2010Prop48
 90
       50
102
RTVSPost2010PropOp48
 70
     1
102
RTVSPost2010Prop49
280
     0
102
RTVSPost2010PropOp49
 70
     1
102
RTVSPost2010Prop50
 90
       50
102
RTVSPost2010PropOp50
 70
     1
102
RTVSPost2010Prop51ColorIndex
 90
      256
102
RTVSPost2010Prop51ColorRGB
 90
-16777216
102
RTVSPost2010PropOp51
 70
     0
102
RTVSPost2010Prop52
140
1.0
102
RTVSPost2010PropOp52
 70
     0
102
RTVSPost2010Prop53
 90
        2
102
RTVSPost2010PropOp53
 70
     1
102
RTVSPost2010Prop54
  1
strokes_ogs.tif
102
RTVSPost2010PropOp54
 70
     1
102
RTVSPost2010Prop55
280
     0
102
RTVSPost2010PropOp55
 70
     1
102
RTVSPost2010Prop56
140
1.0
102
RTVSPost2010PropOp56
 70
     1
102
RTVSPost2010Prop57
140
1.0
102
RTVSPost2010PropOp57
 70
     1
  0
ENDSEC
  0
EOF
