  0
SECTION
  2
HEADER
  9
$ACADVER
  1
AC1024
  9
$ACADMAINTVER
 70
     6
  9
$DWGCODEPAGE
  3
ANSI_932
  9
$INSBASE
 10
0.0
 20
0.0
 30
0.0
  9
$EXTMIN
 10
-6300.0
 20
-4455.0
 30
0.0
  9
$EXTMAX
 10
6300.0
 20
4455.0
 30
0.0
  9
$LIMMIN
 10
-6300.0
 20
-4455.0
  9
$LIMMAX
 10
6300.0
 20
4455.0
  9
$ORTHOMODE
 70
     0
  9
$REGENMODE
 70
     1
  9
$FILLMODE
 70
     1
  9
$QTEXTMODE
 70
     0
  9
$MIRRTEXT
 70
     1
  9
$LTSCALE
 40
30.0
  9
$ATTMODE
 70
     1
  9
$TEXTSIZE
 40
2.5
  9
$TRACEWID
 40
1.0
  9
$TEXTSTYLE
  7
Standard
  9
$CLAYER
  8
0
  9
$CELTYPE
  6
ByLayer
  9
$CECOLOR
 62
   256
  9
$CELTSCALE
 40
1.0
  9
$DISPSILH
 70
     0
  9
$DIMSCALE
 40
1.0
  9
$DIMASZ
 40
2.5
  9
$DIMEXO
 40
0.625
  9
$DIMDLI
 40
3.75
  9
$DIMRND
 40
0.0
  9
$DIMDLE
 40
0.0
  9
$DIMEXE
 40
1.25
  9
$DIMTP
 40
0.0
  9
$DIMTM
 40
0.0
  9
$DIMTXT
 40
2.5
  9
$DIMCEN
 40
2.5
  9
$DIMTSZ
 40
0.0
  9
$DIMTOL
 70
     0
  9
$DIMLIM
 70
     0
  9
$DIMTIH
 70
     0
  9
$DIMTOH
 70
     0
  9
$DIMSE1
 70
     0
  9
$DIMSE2
 70
     0
  9
$DIMTAD
 70
     1
  9
$DIMZIN
 70
     8
  9
$DIMBLK
  1

  9
$DIMASO
 70
     1
  9
$DIMSHO
 70
     1
  9
$DIMPOST
  1

  9
$DIMAPOST
  1

  9
$DIMALT
 70
     0
  9
$DIMALTD
 70
     3
  9
$DIMALTF
 40
0.03937007874016
  9
$DIMLFAC
 40
1.0
  9
$DIMTOFL
 70
     1
  9
$DIMTVP
 40
0.0
  9
$DIMTIX
 70
     0
  9
$DIMSOXD
 70
     0
  9
$DIMSAH
 70
     0
  9
$DIMBLK1
  1

  9
$DIMBLK2
  1

  9
$DIMSTYLE
  2
ISO-25
  9
$DIMCLRD
 70
     0
  9
$DIMCLRE
 70
     0
  9
$DIMCLRT
 70
     0
  9
$DIMTFAC
 40
1.0
  9
$DIMGAP
 40
0.625
  9
$DIMJUST
 70
     0
  9
$DIMSD1
 70
     0
  9
$DIMSD2
 70
     0
  9
$DIMTOLJ
 70
     0
  9
$DIMTZIN
 70
     8
  9
$DIMALTZ
 70
     0
  9
$DIMALTTZ
 70
     0
  9
$DIMUPT
 70
     0
  9
$DIMDEC
 70
     2
  9
$DIMTDEC
 70
     2
  9
$DIMALTU
 70
     2
  9
$DIMALTTD
 70
     3
  9
$DIMTXSTY
  7
Standard
  9
$DIMAUNIT
 70
     0
  9
$DIMADEC
 70
     0
  9
$DIMALTRND
 40
0.0
  9
$DIMAZIN
 70
     0
  9
$DIMDSEP
 70
    44
  9
$DIMATFIT
 70
     3
  9
$DIMFRAC
 70
     0
  9
$DIMLDRBLK
  1

  9
$DIMLUNIT
 70
     2
  9
$DIMLWD
 70
    -2
  9
$DIMLWE
 70
    -2
  9
$DIMTMOVE
 70
     0
  9
$DIMFXL
 40
1.0
  9
$DIMFXLON
 70
     0
  9
$DIMJOGANG
 40
0.7853981633974483
  9
$DIMTFILL
 70
     0
  9
$DIMTFILLCLR
 70
     0
  9
$DIMARCSYM
 70
     0
  9
$DIMLTYPE
  6

  9
$DIMLTEX1
  6

  9
$DIMLTEX2
  6

  9
$DIMTXTDIRECTION
 70
     0
  9
$LUNITS
 70
     2
  9
$LUPREC
 70
     4
  9
$SKETCHINC
 40
1.0
  9
$FILLETRAD
 40
10.0
  9
$AUNITS
 70
     0
  9
$AUPREC
 70
     0
  9
$MENU
  1
.
  9
$ELEVATION
 40
0.0
  9
$PELEVATION
 40
0.0
  9
$THICKNESS
 40
0.0
  9
$LIMCHECK
 70
     0
  9
$CHAMFERA
 40
0.0
  9
$CHAMFERB
 40
0.0
  9
$CHAMFERC
 40
0.0
  9
$CHAMFERD
 40
0.0
  9
$SKPOLY
 70
     0
  9
$TDCREATE
 40
2458471.615669989
  9
$TDUCREATE
 40
2458471.240669989
  9
$TDUPDATE
 40
2458471.615670347
  9
$TDUUPDATE
 40
2458471.240670347
  9
$TDINDWG
 40
0.0000000116
  9
$TDUSRTIMER
 40
0.0000000116
  9
$USRTIMER
 70
     1
  9
$ANGBASE
 50
0.0
  9
$ANGDIR
 70
     0
  9
$PDMODE
 70
     0
  9
$PDSIZE
 40
0.0
  9
$PLINEWID
 40
0.0
  9
$SPLFRAME
 70
     0
  9
$SPLINETYPE
 70
     6
  9
$SPLINESEGS
 70
     8
  9
$HANDSEED
  5
3FC
  9
$SURFTAB1
 70
     6
  9
$SURFTAB2
 70
     6
  9
$SURFTYPE
 70
     6
  9
$SURFU
 70
     6
  9
$SURFV
 70
     6
  9
$UCSBASE
  2

  9
$UCSNAME
  2

  9
$UCSORG
 10
0.0
 20
0.0
 30
0.0
  9
$UCSXDIR
 10
1.0
 20
0.0
 30
0.0
  9
$UCSYDIR
 10
0.0
 20
1.0
 30
0.0
  9
$UCSORTHOREF
  2

  9
$UCSORTHOVIEW
 70
     0
  9
$UCSORGTOP
 10
0.0
 20
0.0
 30
0.0
  9
$UCSORGBOTTOM
 10
0.0
 20
0.0
 30
0.0
  9
$UCSORGLEFT
 10
0.0
 20
0.0
 30
0.0
  9
$UCSORGRIGHT
 10
0.0
 20
0.0
 30
0.0
  9
$UCSORGFRONT
 10
0.0
 20
0.0
 30
0.0
  9
$UCSORGBACK
 10
0.0
 20
0.0
 30
0.0
  9
$PUCSBASE
  2

  9
$PUCSNAME
  2

  9
$PUCSORG
 10
0.0
 20
0.0
 30
0.0
  9
$PUCSXDIR
 10
1.0
 20
0.0
 30
0.0
  9
$PUCSYDIR
 10
0.0
 20
1.0
 30
0.0
  9
$PUCSORTHOREF
  2

  9
$PUCSORTHOVIEW
 70
     0
  9
$PUCSORGTOP
 10
0.0
 20
0.0
 30
0.0
  9
$PUCSORGBOTTOM
 10
0.0
 20
0.0
 30
0.0
  9
$PUCSORGLEFT
 10
0.0
 20
0.0
 30
0.0
  9
$PUCSORGRIGHT
 10
0.0
 20
0.0
 30
0.0
  9
$PUCSORGFRONT
 10
0.0
 20
0.0
 30
0.0
  9
$PUCSORGBACK
 10
0.0
 20
0.0
 30
0.0
  9
$USERI1
 70
     0
  9
$USERI2
 70
     0
  9
$USERI3
 70
     0
  9
$USERI4
 70
     0
  9
$USERI5
 70
     0
  9
$USERR1
 40
0.0
  9
$USERR2
 40
0.0
  9
$USERR3
 40
0.0
  9
$USERR4
 40
0.0
  9
$USERR5
 40
0.0
  9
$WORLDVIEW
 70
     1
  9
$SHADEDGE
 70
     3
  9
$SHADEDIF
 70
    70
  9
$TILEMODE
 70
     1
  9
$MAXACTVP
 70
    64
  9
$PINSBASE
 10
0.0
 20
0.0
 30
0.0
  9
$PLIMCHECK
 70
     0
  9
$PEXTMIN
 10
1.000000000000000E+20
 20
1.000000000000000E+20
 30
1.000000000000000E+20
  9
$PEXTMAX
 10
-1.000000000000000E+20
 20
-1.000000000000000E+20
 30
-1.000000000000000E+20
  9
$PLIMMIN
 10
0.0
 20
0.0
  9
$PLIMMAX
 10
420.0
 20
297.0
  9
$UNITMODE
 70
     0
  9
$VISRETAIN
 70
     1
  9
$PLINEGEN
 70
     0
  9
$PSLTSCALE
 70
     1
  9
$TREEDEPTH
 70
  3020
  9
$CMLSTYLE
  2
Standard
  9
$CMLJUST
 70
     0
  9
$CMLSCALE
 40
20.0
  9
$PROXYGRAPHICS
 70
     1
  9
$MEASUREMENT
 70
     1
  9
$CELWEIGHT
370
    -1
  9
$ENDCAPS
280
     0
  9
$JOINSTYLE
280
     0
  9
$LWDISPLAY
290
     0
  9
$INSUNITS
 70
     4
  9
$HYPERLINKBASE
  1

  9
$STYLESHEET
  1

  9
$XEDIT
290
     1
  9
$CEPSNTYPE
380
     0
  9
$PSTYLEMODE
290
     1
  9
$FINGERPRINTGUID
  2
{C4EDCAD6-F918-4090-9710-D7CB0D2A139E}
  9
$VERSIONGUID
  2
{FAEB1C32-E019-11D5-929B-00C0DF256EC4}
  9
$EXTNAMES
290
     1
  9
$PSVPSCALE
 40
0.0
  9
$OLESTARTUP
290
     0
  9
$SORTENTS
280
   127
  9
$INDEXCTL
280
     0
  9
$HIDETEXT
280
     1
  9
$XCLIPFRAME
280
     2
  9
$HALOGAP
280
     0
  9
$OBSCOLOR
 70
   257
  9
$OBSLTYPE
280
     0
  9
$INTERSECTIONDISPLAY
280
     0
  9
$INTERSECTIONCOLOR
 70
   257
  9
$DIMASSOC
280
     2
  9
$PROJECTNAME
  1

  9
$CAMERADISPLAY
290
     0
  9
$LENSLENGTH
 40
50.0
  9
$CAMERAHEIGHT
 40
0.0
  9
$STEPSPERSEC
 40
2.0
  9
$STEPSIZE
 40
6.0
  9
$3DDWFPREC
 40
2.0
  9
$PSOLWIDTH
 40
5.0
  9
$PSOLHEIGHT
 40
80.0
  9
$LOFTANG1
 40
1.570796326794897
  9
$LOFTANG2
 40
1.570796326794897
  9
$LOFTMAG1
 40
0.0
  9
$LOFTMAG2
 40
0.0
  9
$LOFTPARAM
 70
     7
  9
$LOFTNORMALS
280
     1
  9
$LATITUDE
 40
37.795
  9
$LONGITUDE
 40
-122.394
  9
$NORTHDIRECTION
 40
0.0
  9
$TIMEZONE
 70
 -8000
  9
$LIGHTGLYPHDISPLAY
280
     1
  9
$TILEMODELIGHTSYNCH
280
     1
  9
$CMATERIAL
347
44
  9
$SOLIDHIST
280
     0
  9
$SHOWHIST
280
     1
  9
$DWFFRAME
280
     2
  9
$DGNFRAME
280
     2
  9
$REALWORLDSCALE
290
     1
  9
$INTERFERECOLOR
 62
   256
  9
$CSHADOW
280
     0
  9
$SHADOWPLANELOCATION
 40
0.0
  0
ENDSEC
  0
SECTION
  2
CLASSES
  0
CLASS
  1
ACDBDICTIONARYWDFLT
  2
AcDbDictionaryWithDefault
  3
ObjectDBX Classes
 90
        0
 91
        4
280
     0
281
     0
  0
CLASS
  1
VISUALSTYLE
  2
AcDbVisualStyle
  3
ObjectDBX Classes
 90
     4095
 91
        4
280
     0
281
     0
  0
CLASS
  1
MATERIAL
  2
AcDbMaterial
  3
ObjectDBX Classes
 90
     1153
 91
        4
280
     0
281
     0
  0
CLASS
  1
SCALE
  2
AcDbScale
  3
ObjectDBX Classes
 90
     1153
 91
        4
280
     0
281
     0
  0
CLASS
  1
TABLESTYLE
  2
AcDbTableStyle
  3
ObjectDBX Classes
 90
     4095
 91
        4
280
     0
281
     0
  0
CLASS
  1
MLEADERSTYLE
  2
AcDbMLeaderStyle
  3
ACDB_MLEADERSTYLE_CLASS
 90
     4095
 91
        4
280
     0
281
     0
  0
CLASS
  1
SUN
  2
AcDbSun
  3
SCENEOE
 90
     1153
 91
        4
280
     0
281
     0
  0
CLASS
  1
DICTIONARYVAR
  2
AcDbDictionaryVar
  3
ObjectDBX Classes
 90
        0
 91
        4
280
     0
281
     0
  0
CLASS
  1
CELLSTYLEMAP
  2
AcDbCellStyleMap
  3
ObjectDBX Classes
 90
     1152
 91
        4
280
     0
281
     0
  0
ENDSEC
  0
SECTION
  2
TABLES
  0
TABLE
  2
VPORT
  5
8
330
0
100
AcDbSymbolTable
 70
     1
  0
VPORT
  5
29
330
8
100
AcDbSymbolTableRecord
100
AcDbViewportTableRecord
  2
*Active
 70
     0
 10
0.0
 20
0.0
 11
1.0
 21
1.0
 12
0.0
 22
0.0
 13
0.0
 23
0.0
 14
10.0
 24
10.0
 15
10.0
 25
10.0
 16
0.0
 26
0.0
 36
1.0
 17
0.0
 27
0.0
 37
0.0
 40
9801.0
 41
1.414141414141414
 42
50.0
 43
0.0
 44
0.0
 50
0.0
 51
0.0
 71
     0
 72
 10000
 73
     1
 74
     3
 75
     0
 76
     0
 77
     0
 78
     0
281
     0
 65
     1
110
0.0
120
0.0
130
0.0
111
1.0
121
0.0
131
0.0
112
0.0
122
1.0
132
0.0
 79
     0
146
0.0
348
2F
 60
     3
 61
     5
292
     1
282
     1
141
0.0
142
0.0
 63
   250
361
6D
  0
ENDTAB
  0
TABLE
  2
LTYPE
  5
5
330
0
100
AcDbSymbolTable
 70
     5
  0
LTYPE
  5
14
330
5
100
AcDbSymbolTableRecord
100
AcDbLinetypeTableRecord
  2
ByBlock
 70
     0
  3

 72
    65
 73
     0
 40
0.0
  0
LTYPE
  5
15
330
5
100
AcDbSymbolTableRecord
100
AcDbLinetypeTableRecord
  2
ByLayer
 70
     0
  3

 72
    65
 73
     0
 40
0.0
  0
LTYPE
  5
16
330
5
100
AcDbSymbolTableRecord
100
AcDbLinetypeTableRecord
  2
Continuous
 70
     0
  3
Solid line
 72
    65
 73
     0
 40
0.0
  0
LTYPE
  5
70
330
5
100
AcDbSymbolTableRecord
100
AcDbLinetypeTableRecord
  2
JWW_HOJO
 70
     0
  3
  -   -   -   -   -   -   -   - 
 72
    65
 73
     2
 40
1.693333333333333
 49
-1.27
 74
     0
 49
0.4233333333333333
 74
     0
  0
LTYPE
  5
71
330
5
100
AcDbSymbolTableRecord
100
AcDbLinetypeTableRecord
  2
JWW_CENTER1
 70
     0
  3
-----  --  ----------  --  -----
 72
    65
 73
     4
 40
6.773333333333333
 49
4.233333333333333
 74
     0
 49
-0.8466666666666667
 74
     0
 49
0.8466666666666667
 74
     0
 49
-0.8466666666666667
 74
     0
  0
LTYPE
  5
72
330
5
100
AcDbSymbolTableRecord
100
AcDbLinetypeTableRecord
  2
JWW_DASHED1
 70
     0
  3
-  --  --  --  --  --  --  --  -
 72
    65
 73
     2
 40
1.693333333333333
 49
0.8466666666666667
 74
     0
 49
-0.8466666666666667
 74
     0
  0
LTYPE
  5
73
330
5
100
AcDbSymbolTableRecord
100
AcDbLinetypeTableRecord
  2
JWW_DASHED2
 70
     0
  3
--    ----    ----    ----    --
 72
    65
 73
     2
 40
3.386666666666667
 49
1.693333333333333
 74
     0
 49
-1.693333333333333
 74
     0
  0
ENDTAB
  0
TABLE
  2
LAYER
  5
2
330
0
100
AcDbSymbolTable
 70
    16
  0
LAYER
  5
10
330
2
100
AcDbSymbolTableRecord
100
AcDbLayerTableRecord
  2
0
 70
     0
 62
     7
  6
Continuous
370
    -3
390
F
347
46
  0
LAYER
  5
74
330
2
100
AcDbSymbolTableRecord
100
AcDbLayerTableRecord
  2
F-0_補助線
 70
     0
 62
     7
  6
Continuous
370
    -3
390
F
347
46
  0
LAYER
  5
75
330
2
100
AcDbSymbolTableRecord
100
AcDbLayerTableRecord
  2
F-1_枠
 70
     0
 62
     7
  6
Continuous
370
    -3
390
F
347
46
  0
LAYER
  5
76
330
2
100
AcDbSymbolTableRecord
100
AcDbLayerTableRecord
  2
F-A_文字
 70
     0
 62
     7
  6
Continuous
370
    -3
390
F
347
46
  0
LAYER
  5
77
330
2
100
AcDbSymbolTableRecord
100
AcDbLayerTableRecord
  2
0-A_文字
 70
     0
 62
     7
  6
Continuous
370
    -3
390
F
347
46
  0
LAYER
  5
78
330
2
100
AcDbSymbolTableRecord
100
AcDbLayerTableRecord
  2
0-0_補助線
 70
     0
 62
     7
  6
Continuous
370
    -3
390
F
347
46
  0
LAYER
  5
79
330
2
100
AcDbSymbolTableRecord
100
AcDbLayerTableRecord
  2
0-1_通り芯
 70
     0
 62
     7
  6
Continuous
370
    -3
390
F
347
46
  0
LAYER
  5
7A
330
2
100
AcDbSymbolTableRecord
100
AcDbLayerTableRecord
  2
ハッチ
 70
     0
 62
     7
  6
Continuous
370
    -3
390
F
347
46
  0
LAYER
  5
7B
330
2
100
AcDbSymbolTableRecord
100
AcDbLayerTableRecord
  2
仕上げ
 70
     0
 62
     7
  6
Continuous
370
    -3
390
F
347
46
  0
LAYER
  5
7C
330
2
100
AcDbSymbolTableRecord
100
AcDbLayerTableRecord
  2
0-B_寸法
 70
     0
 62
     7
  6
Continuous
370
    -3
390
F
347
46
  0
LAYER
  5
7D
330
2
100
AcDbSymbolTableRecord
100
AcDbLayerTableRecord
  2
0-4_枠
 70
     0
 62
     7
  6
Continuous
370
    -3
390
F
347
46
  0
LAYER
  5
7E
330
2
100
AcDbSymbolTableRecord
100
AcDbLayerTableRecord
  2
0-6_扉
 70
     0
 62
     7
  6
Continuous
370
    -3
390
F
347
46
  0
LAYER
  5
7F
330
2
100
AcDbSymbolTableRecord
100
AcDbLayerTableRecord
  2
0-7_金物
 70
     0
 62
     7
  6
Continuous
370
    -3
390
F
347
46
  0
LAYER
  5
80
330
2
100
AcDbSymbolTableRecord
100
AcDbLayerTableRecord
  2
戸当り
 70
     0
 62
     7
  6
Continuous
370
    -3
390
F
347
46
  0
LAYER
  5
81
330
2
100
AcDbSymbolTableRecord
100
AcDbLayerTableRecord
  2
7-B_寸法
 70
     0
 62
     7
  6
Continuous
370
    -3
390
F
347
46
  0
LAYER
  5
82
330
2
100
AcDbSymbolTableRecord
100
AcDbLayerTableRecord
  2
7-7_金物
 70
     0
 62
     7
  6
Continuous
370
    -3
390
F
347
46
  0
ENDTAB
  0
TABLE
  2
STYLE
  5
3
330
0
100
AcDbSymbolTable
 70
     3
  0
STYLE
  5
11
330
3
100
AcDbSymbolTableRecord
100
AcDbTextStyleTableRecord
  2
Standard
 70
     0
 40
0.0
 41
1.0
 50
0.0
 71
     0
 42
2.5
  3
txt
  4

  0
STYLE
  5
6E
330
3
100
AcDbSymbolTableRecord
100
AcDbTextStyleTableRecord
  2
HGP明朝B
 70
     0
 40
1.0
 41
1.0
 50
0.0
 71
     0
 42
2.5
  3

  4

1001
ACAD
1000
HGPMinchoB
1071
    32786
  0
STYLE
  5
6F
330
3
100
AcDbSymbolTableRecord
100
AcDbTextStyleTableRecord
  2
ＭＳ ゴシック
 70
     0
 40
1.0
 41
1.0
 50
0.0
 71
     0
 42
2.5
  3

  4

1001
ACAD
1000
MS Gothic
1071
    32817
  0
ENDTAB
  0
TABLE
  2
VIEW
  5
6
330
0
100
AcDbSymbolTable
 70
     0
  0
ENDTAB
  0
TABLE
  2
UCS
  5
7
330
0
100
AcDbSymbolTable
 70
     0
  0
ENDTAB
  0
TABLE
  2
APPID
  5
9
330
0
100
AcDbSymbolTable
 70
     1
  0
APPID
  5
12
330
9
100
AcDbSymbolTableRecord
100
AcDbRegAppTableRecord
  2
ACAD
 70
     0
  0
ENDTAB
  0
TABLE
  2
DIMSTYLE
  5
A
330
0
100
AcDbSymbolTable
 70
     1
100
AcDbDimStyleTable
  0
DIMSTYLE
105
27
330
A
100
AcDbSymbolTableRecord
100
AcDbDimStyleTableRecord
  2
ISO-25
 70
     0
 41
2.5
 42
0.625
 43
3.75
 44
1.25
 73
     0
 74
     0
 77
     1
 78
     8
140
2.5
141
2.5
143
0.03937007874016
147
0.625
171
     3
172
     1
178
     0
271
     2
272
     2
274
     3
278
    44
283
     0
284
     8
340
11
  0
ENDTAB
  0
TABLE
  2
BLOCK_RECORD
  5
1
330
0
100
AcDbSymbolTable
 70
     3
  0
BLOCK_RECORD
  5
1F
330
1
100
AcDbSymbolTableRecord
100
AcDbBlockTableRecord
  2
*Model_Space
340
22
 70
     0
280
     1
281
     0
  0
BLOCK_RECORD
  5
1B
330
1
100
AcDbSymbolTableRecord
100
AcDbBlockTableRecord
  2
*Paper_Space
340
1E
 70
     0
280
     1
281
     0
  0
BLOCK_RECORD
  5
23
330
1
100
AcDbSymbolTableRecord
100
AcDbBlockTableRecord
  2
*Paper_Space0
340
26
 70
     0
280
     1
281
     0
  0
BLOCK_RECORD
  5
83
330
1
100
AcDbSymbolTableRecord
100
AcDbBlockTableRecord
  2
01@@SfigorgFlag@@4_0-0_
340
0
102
{BLKREFS
331
1E3
102
}
 70
     0
280
     1
281
     0
  0
BLOCK_RECORD
  5
86
330
1
100
AcDbSymbolTableRecord
100
AcDbBlockTableRecord
  2
2@@SfigorgFlag@@4_0-0_
340
0
102
{BLKREFS
331
1E4
331
2D4
102
}
 70
     0
280
     1
281
     0
  0
ENDTAB
  0
ENDSEC
  0
SECTION
  2
BLOCKS
  0
BLOCK
  5
20
330
1F
100
AcDbEntity
  8
0
100
AcDbBlockBegin
  2
*Model_Space
 70
     0
 10
0.0
 20
0.0
 30
0.0
  3
*Model_Space
  1

  0
ENDBLK
  5
21
330
1F
100
AcDbEntity
  8
0
100
AcDbBlockEnd
  0
BLOCK
  5
1C
330
1B
100
AcDbEntity
 67
     1
  8
0
100
AcDbBlockBegin
  2
*Paper_Space
 70
     0
 10
0.0
 20
0.0
 30
0.0
  3
*Paper_Space
  1

  0
ENDBLK
  5
1D
330
1B
100
AcDbEntity
 67
     1
  8
0
100
AcDbBlockEnd
  0
BLOCK
  5
24
330
23
100
AcDbEntity
  8
0
100
AcDbBlockBegin
  2
*Paper_Space0
 70
     0
 10
0.0
 20
0.0
 30
0.0
  3
*Paper_Space0
  1

  0
ENDBLK
  5
25
330
23
100
AcDbEntity
  8
0
100
AcDbBlockEnd
  0
BLOCK
  5
84
330
83
100
AcDbEntity
  8
0
100
AcDbBlockBegin
  2
01@@SfigorgFlag@@4_0-0_
 70
     0
 10
0.0
 20
0.0
 30
0.0
  3
01@@SfigorgFlag@@4_0-0_
  1

  0
LINE
  5
33B
330
83
100
AcDbEntity
  8
0-0_補助線
  6
Continuous
 62
     7
370
     9
100
AcDbLine
 10
2.295000000000044
 20
0.0292483078921251
 30
0.0
 11
2.400000000000063
 21
0.0292483078921251
 31
0.0
  0
LINE
  5
33C
330
83
100
AcDbEntity
  8
0-0_補助線
  6
Continuous
 62
     7
370
     9
100
AcDbLine
 10
1.875000000000057
 20
0.4292483078921272
 30
0.0
 11
2.015000000000072
 21
0.4292483078921272
 31
0.0
  0
LINE
  5
33D
330
83
100
AcDbEntity
  8
0-0_補助線
  6
Continuous
 62
     7
370
     9
100
AcDbLine
 10
2.435000000000059
 20
0.8292483078921258
 30
0.0
 11
2.295000000000044
 21
0.8292483078921258
 31
0.0
  0
LINE
  5
33E
330
83
100
AcDbEntity
  8
0-0_補助線
  6
Continuous
 62
     7
370
     9
100
AcDbLine
 10
2.015000000000072
 20
0.6292483078921265
 30
0.0
 11
1.850390282452707
 21
0.5007818107460622
 31
0.0
  0
LINE
  5
33F
330
83
100
AcDbEntity
  8
0-0_補助線
  6
Continuous
 62
     7
370
     9
100
AcDbLine
 10
2.295000000000044
 20
1.029248307892125
 30
0.0
 11
2.459609717547409
 21
0.9007818107460608
 31
0.0
  0
LINE
  5
340
330
83
100
AcDbEntity
  8
0-0_補助線
  6
Continuous
 62
     7
370
     9
100
AcDbLine
 10
1.875000000000057
 20
1.229248307892128
 30
0.0
 11
2.015000000000072
 21
1.229248307892128
 31
0.0
  0
ARC
  5
341
330
83
100
AcDbEntity
  8
0-0_補助線
  6
Continuous
 62
     7
370
     9
100
AcDbCircle
 10
2.435000000000059
 20
0.8692483078921249
 30
0.0
 40
0.04
100
AcDbArc
 50
270.0
 51
52.0304252330488
  0
ARC
  5
342
330
83
100
AcDbEntity
  8
0-0_補助線
  6
Continuous
 62
     7
370
     9
100
AcDbCircle
 10
1.875000000000057
 20
0.4692483078921228
 30
0.0
 40
0.04
100
AcDbArc
 50
127.9695747669497
 51
270.0
  0
LINE
  5
343
330
83
100
AcDbEntity
  8
0-0_補助線
  6
Continuous
 62
     7
370
     9
100
AcDbLine
 10
2.135912019789231
 20
1.509924268342598
 30
0.0
 11
1.851364807915729
 21
1.301518692072314
 31
0.0
  0
ARC
  5
344
330
83
100
AcDbEntity
  8
0-0_補助線
  6
Continuous
 62
     7
370
     9
100
AcDbCircle
 10
1.875000000000057
 20
1.269248307892124
 30
0.0
 40
0.04
100
AcDbArc
 50
126.2194665119778
 51
270.0
  0
ARC
  5
345
330
83
100
AcDbEntity
  8
0-0_補助線
  6
Continuous
 62
     7
370
     9
100
AcDbCircle
 10
2.19500000000005
 20
1.429248307892124
 30
0.0
 40
0.1
100
AcDbArc
 50
0.0
 51
126.2194665194743
  0
LINE
  5
346
330
83
100
AcDbEntity
  8
0-0_補助線
  6
Continuous
 62
     7
370
     9
100
AcDbLine
 10
-1.874999999999943
 20
0.4292483078921272
 30
0.0
 11
-2.01499999999993
 21
0.4292483078921272
 31
0.0
  0
LINE
  5
347
330
83
100
AcDbEntity
  8
0-0_補助線
  6
Continuous
 62
     7
370
     9
100
AcDbLine
 10
-2.434999999999945
 20
0.8292483078921258
 30
0.0
 11
-2.294999999999931
 21
0.8292483078921258
 31
0.0
  0
LINE
  5
348
330
83
100
AcDbEntity
  8
0-0_補助線
  6
Continuous
 62
     7
370
     9
100
AcDbLine
 10
-2.01499999999993
 20
0.6292483078921265
 30
0.0
 11
-1.850390282452594
 21
0.5007818107460622
 31
0.0
  0
LINE
  5
349
330
83
100
AcDbEntity
  8
0-0_補助線
  6
Continuous
 62
     7
370
     9
100
AcDbLine
 10
-2.294999999999931
 20
1.029248307892125
 30
0.0
 11
-2.459609717547295
 21
0.9007818107460643
 31
0.0
  0
LINE
  5
34A
330
83
100
AcDbEntity
  8
0-0_補助線
  6
Continuous
 62
     7
370
     9
100
AcDbLine
 10
-1.874999999999943
 20
1.229248307892128
 30
0.0
 11
-2.01499999999993
 21
1.229248307892128
 31
0.0
  0
ARC
  5
34B
330
83
100
AcDbEntity
  8
0-0_補助線
  6
Continuous
 62
     7
370
     9
100
AcDbCircle
 10
-2.434999999999945
 20
0.8692483078921249
 30
0.0
 40
0.04
100
AcDbArc
 50
127.9695747669513
 51
270.0
  0
ARC
  5
34C
330
83
100
AcDbEntity
  8
0-0_補助線
  6
Continuous
 62
     7
370
     9
100
AcDbCircle
 10
-1.874999999999943
 20
0.4692483078921263
 30
0.0
 40
0.04
100
AcDbArc
 50
270.0
 51
52.03042523305033
  0
LINE
  5
34D
330
83
100
AcDbEntity
  8
0-0_補助線
  6
Continuous
 62
     7
370
     9
100
AcDbLine
 10
-2.135912019789117
 20
1.509924268342598
 30
0.0
 11
-1.851364807915616
 21
1.301518692072317
 31
0.0
  0
ARC
  5
34E
330
83
100
AcDbEntity
  8
0-0_補助線
  6
Continuous
 62
     7
370
     9
100
AcDbCircle
 10
-1.874999999999943
 20
1.269248307892124
 30
0.0
 40
0.04
100
AcDbArc
 50
270.0
 51
53.78053348802219
  0
ARC
  5
34F
330
83
100
AcDbEntity
  8
0-0_補助線
  6
Continuous
 62
     7
370
     9
100
AcDbCircle
 10
-2.194999999999936
 20
1.429248307892124
 30
0.0
 40
0.1
100
AcDbArc
 50
53.78053348052574
 51
180.0
  0
LINE
  5
350
330
83
100
AcDbEntity
  8
0-0_補助線
  6
Continuous
 62
     7
370
     9
100
AcDbLine
 10
2.295000000000044
 20
1.429248307892124
 30
0.0
 11
2.295000000000044
 21
1.029248307892125
 31
0.0
  0
LINE
  5
351
330
83
100
AcDbEntity
  8
0-0_補助線
  6
Continuous
 62
     7
370
     9
100
AcDbLine
 10
2.295000000000044
 20
0.8292483078921258
 30
0.0
 11
2.295000000000044
 21
0.0292483078921251
 31
0.0
  0
LINE
  5
352
330
83
100
AcDbEntity
  8
0-0_補助線
  6
Continuous
 62
     7
370
     9
100
AcDbLine
 10
2.015000000000072
 20
0.0292483078921251
 30
0.0
 11
2.015000000000072
 21
0.4292483078921272
 31
0.0
  0
LINE
  5
353
330
83
100
AcDbEntity
  8
0-0_補助線
  6
Continuous
 62
     7
370
     9
100
AcDbLine
 10
2.015000000000072
 20
0.6292483078921265
 30
0.0
 11
2.015000000000072
 21
1.229248307892128
 31
0.0
  0
LINE
  5
354
330
83
100
AcDbEntity
  8
0-0_補助線
  6
Continuous
 62
     7
370
     9
100
AcDbLine
 10
-2.01499999999993
 20
0.0292483078921286
 30
0.0
 11
-2.01499999999993
 21
0.4292483078921272
 31
0.0
  0
LINE
  5
355
330
83
100
AcDbEntity
  8
0-0_補助線
  6
Continuous
 62
     7
370
     9
100
AcDbLine
 10
-2.01499999999993
 20
0.6292483078921265
 30
0.0
 11
-2.01499999999993
 21
1.229248307892128
 31
0.0
  0
LINE
  5
356
330
83
100
AcDbEntity
  8
0-0_補助線
  6
Continuous
 62
     7
370
     9
100
AcDbLine
 10
-2.294999999999931
 20
1.429248307892124
 30
0.0
 11
-2.294999999999931
 21
1.029248307892125
 31
0.0
  0
LINE
  5
357
330
83
100
AcDbEntity
  8
0-0_補助線
  6
Continuous
 62
     7
370
     9
100
AcDbLine
 10
-2.294999999999931
 20
0.8292483078921258
 30
0.0
 11
-2.294999999999931
 21
0.0292483078921286
 31
0.0
  0
LINE
  5
358
330
83
100
AcDbEntity
  8
0-0_補助線
  6
Continuous
 62
     7
370
     9
100
AcDbLine
 10
-2.01499999999993
 20
0.0292483078921286
 30
0.0
 11
2.015000000000072
 21
0.0292483078921251
 31
0.0
  0
ARC
  5
359
330
83
100
AcDbEntity
  8
0-0_補助線
  6
Continuous
 62
     7
370
     9
100
AcDbCircle
 10
2.060000000000059
 20
-1.630751692107875
 30
0.0
 40
0.06
100
AcDbArc
 50
270.0
 51
0.0
  0
LINE
  5
35A
330
83
100
AcDbEntity
  8
0-0_補助線
  6
Continuous
 62
     7
370
     9
100
AcDbLine
 10
2.120000000000061
 20
-0.3107516921078783
 30
0.0
 11
2.120000000000061
 21
-1.630751692107875
 31
0.0
  0
ARC
  5
35B
330
83
100
AcDbEntity
  8
0-0_補助線
  6
Continuous
 62
     7
370
     9
100
AcDbCircle
 10
2.060000000000059
 20
-0.3107516921078783
 30
0.0
 40
0.06
100
AcDbArc
 50
0.0
 51
90.0
  0
ARC
  5
35C
330
83
100
AcDbEntity
  8
0-0_補助線
  6
Continuous
 62
     7
370
     9
100
AcDbCircle
 10
2.200000000000045
 20
-1.770751692107872
 30
0.0
 40
0.2
100
AcDbArc
 50
270.0
 51
0.0
  0
LINE
  5
35D
330
83
100
AcDbEntity
  8
0-0_補助線
  6
Continuous
 62
     7
370
     9
100
AcDbLine
 10
2.400000000000063
 20
-0.2976894028633943
 30
0.0
 11
2.400000000000063
 21
-1.770751692107872
 31
0.0
  0
ARC
  5
35E
330
83
100
AcDbEntity
  8
0-0_補助線
  6
Continuous
 62
     7
370
     9
100
AcDbCircle
 10
2.460000000000065
 20
-0.2976894028633943
 30
0.0
 40
0.06
100
AcDbArc
 50
103.9281985493314
 51
180.0
  0
LINE
  5
35F
330
83
100
AcDbEntity
  8
0-0_補助線
  6
Continuous
 62
     7
370
     9
100
AcDbLine
 10
2.900000000000063
 20
0.0692483078921242
 30
0.0
 11
2.900000000000063
 21
-0.0897352033627286
 31
0.0
  0
LINE
  5
360
330
83
100
AcDbEntity
  8
0-0_補助線
  6
Continuous
 62
     7
370
     9
100
AcDbLine
 10
2.853095847616288
 20
-0.1482885873401969
 30
0.0
 11
2.446904152383837
 21
-0.2391360188859224
 31
0.0
  0
LINE
  5
361
330
83
100
AcDbEntity
  8
0-0_補助線
  6
Continuous
 62
     7
370
     9
100
AcDbLine
 10
2.400000000000063
 20
0.0292483078921251
 30
0.0
 11
2.826503425747205
 21
0.1277106246734299
 31
0.0
  0
ARC
  5
362
330
83
100
AcDbEntity
  8
0-0_補助線
  6
Continuous
 62
     7
370
     9
100
AcDbCircle
 10
2.84000000000006
 20
-0.0897352033627286
 30
0.0
 40
0.06
100
AcDbArc
 50
282.6070972495236
 51
0.0
  0
ARC
  5
363
330
83
100
AcDbEntity
  8
0-0_補助線
  6
Continuous
 62
     7
370
     9
100
AcDbCircle
 10
2.84000000000006
 20
0.0692483078921242
 30
0.0
 40
0.06
100
AcDbArc
 50
0.0
 51
102.9995207492461
  0
ARC
  5
364
330
83
100
AcDbEntity
  8
0-0_補助線
  6
Continuous
 62
     7
370
     9
100
AcDbCircle
 10
2.200000000000045
 20
-1.770751692107872
 30
0.0
 40
0.16
100
AcDbArc
 50
270.0
 51
0.0
  0
LINE
  5
365
330
83
100
AcDbEntity
  8
0-0_補助線
  6
Continuous
 62
     7
370
     9
100
AcDbLine
 10
2.36000000000007
 20
-0.2976894028633943
 30
0.0
 11
2.36000000000007
 21
-1.770751692107872
 31
0.0
  0
ARC
  5
366
330
83
100
AcDbEntity
  8
0-0_補助線
  6
Continuous
 62
     7
370
     9
100
AcDbCircle
 10
2.460000000000065
 20
-0.2976894028633943
 30
0.0
 40
0.1
100
AcDbArc
 50
103.9281985493314
 51
180.0
  0
LINE
  5
367
330
83
100
AcDbEntity
  8
0-0_補助線
  6
Continuous
 62
     7
370
     9
100
AcDbLine
 10
2.84436528254048
 20
-0.1092529980215105
 30
0.0
 11
2.438173587308029
 21
-0.2001004295672359
 31
0.0
  0
ARC
  5
368
330
83
100
AcDbEntity
  8
0-0_補助線
  6
Continuous
 62
     7
370
     9
100
AcDbCircle
 10
2.84000000000006
 20
-0.0897352033627286
 30
0.0
 40
0.02
100
AcDbArc
 50
282.6070972495236
 51
0.0
  0
LINE
  5
369
330
83
100
AcDbEntity
  8
0-0_補助線
  6
Continuous
 62
     7
370
     9
100
AcDbLine
 10
2.86000000000007
 20
0.0692483078921242
 30
0.0
 11
2.86000000000007
 21
-0.0897352033627286
 31
0.0
  0
ARC
  5
36A
330
83
100
AcDbEntity
  8
0-0_補助線
  6
Continuous
 62
     7
370
     9
100
AcDbCircle
 10
2.84000000000006
 20
0.0692483078921242
 30
0.0
 40
0.02
100
AcDbArc
 50
0.0
 51
102.9995207492461
  0
LINE
  5
36B
330
83
100
AcDbEntity
  8
0-0_補助線
  6
Continuous
 62
     7
370
     9
100
AcDbLine
 10
2.408997716168614
 20
-0.0097265699620763
 30
0.0
 11
2.835501141915785
 21
0.0887357468192285
 31
0.0
  0
LINE
  5
36C
330
83
100
AcDbEntity
  8
0-0_補助線
  6
Continuous
 62
     7
370
     9
100
AcDbLine
 10
2.408997716168614
 20
-0.0097265699620763
 30
0.0
 11
2.398644954364528
 21
0.0289104630894848
 31
0.0
  0
LINE
  5
36D
330
83
100
AcDbEntity
  8
0-0_補助線
  6
Continuous
 62
     7
370
     9
100
AcDbLine
 10
-2.294999999999931
 20
0.0292483078921286
 30
0.0
 11
-2.399999999999949
 21
0.0292483078921286
 31
0.0
  0
ARC
  5
36E
330
83
100
AcDbEntity
  8
0-0_補助線
  6
Continuous
 62
     7
370
     9
100
AcDbCircle
 10
-2.059999999999945
 20
-1.630751692107875
 30
0.0
 40
0.06
100
AcDbArc
 50
180.0
 51
270.0
  0
LINE
  5
36F
330
83
100
AcDbEntity
  8
0-0_補助線
  6
Continuous
 62
     7
370
     9
100
AcDbLine
 10
-2.119999999999948
 20
-0.3107516921078748
 30
0.0
 11
-2.119999999999948
 21
-1.630751692107875
 31
0.0
  0
ARC
  5
370
330
83
100
AcDbEntity
  8
0-0_補助線
  6
Continuous
 62
     7
370
     9
100
AcDbCircle
 10
-2.059999999999945
 20
-0.3107516921078748
 30
0.0
 40
0.06
100
AcDbArc
 50
90.0
 51
180.0
  0
ARC
  5
371
330
83
100
AcDbEntity
  8
0-0_補助線
  6
Continuous
 62
     7
370
     9
100
AcDbCircle
 10
-2.199999999999932
 20
-1.770751692107872
 30
0.0
 40
0.2
100
AcDbArc
 50
180.0
 51
270.0
  0
LINE
  5
372
330
83
100
AcDbEntity
  8
0-0_補助線
  6
Continuous
 62
     7
370
     9
100
AcDbLine
 10
-2.399999999999949
 20
-0.2976894028633943
 30
0.0
 11
-2.399999999999949
 21
-1.770751692107872
 31
0.0
  0
ARC
  5
373
330
83
100
AcDbEntity
  8
0-0_補助線
  6
Continuous
 62
     7
370
     9
100
AcDbCircle
 10
-2.459999999999951
 20
-0.2976894028633943
 30
0.0
 40
0.06
100
AcDbArc
 50
0.0
 51
76.0718014506686
  0
LINE
  5
374
330
83
100
AcDbEntity
  8
0-0_補助線
  6
Continuous
 62
     7
370
     9
100
AcDbLine
 10
-2.899999999999949
 20
0.0692483078921242
 30
0.0
 11
-2.899999999999949
 21
-0.0897352033627286
 31
0.0
  0
LINE
  5
375
330
83
100
AcDbEntity
  8
0-0_補助線
  6
Continuous
 62
     7
370
     9
100
AcDbLine
 10
-2.853095847616174
 20
-0.1482885873401933
 30
0.0
 11
-2.446904152383723
 21
-0.2391360188859224
 31
0.0
  0
LINE
  5
376
330
83
100
AcDbEntity
  8
0-0_補助線
  6
Continuous
 62
     7
370
     9
100
AcDbLine
 10
-2.399999999999949
 20
0.0292483078921286
 30
0.0
 11
-2.826503425747092
 21
0.1277106246734299
 31
0.0
  0
ARC
  5
377
330
83
100
AcDbEntity
  8
0-0_補助線
  6
Continuous
 62
     7
370
     9
100
AcDbCircle
 10
-2.839999999999947
 20
-0.0897352033627286
 30
0.0
 40
0.06
100
AcDbArc
 50
180.0
 51
257.3929027504764
  0
ARC
  5
378
330
83
100
AcDbEntity
  8
0-0_補助線
  6
Continuous
 62
     7
370
     9
100
AcDbCircle
 10
-2.839999999999947
 20
0.0692483078921242
 30
0.0
 40
0.06
100
AcDbArc
 50
77.00047925075384
 51
180.0
  0
ARC
  5
379
330
83
100
AcDbEntity
  8
0-0_補助線
  6
Continuous
 62
     7
370
     9
100
AcDbCircle
 10
-2.199999999999932
 20
-1.770751692107872
 30
0.0
 40
0.16
100
AcDbArc
 50
180.0
 51
270.0
  0
LINE
  5
37A
330
83
100
AcDbEntity
  8
0-0_補助線
  6
Continuous
 62
     7
370
     9
100
AcDbLine
 10
-2.359999999999928
 20
-0.2976894028633943
 30
0.0
 11
-2.359999999999928
 21
-1.770751692107872
 31
0.0
  0
ARC
  5
37B
330
83
100
AcDbEntity
  8
0-0_補助線
  6
Continuous
 62
     7
370
     9
100
AcDbCircle
 10
-2.459999999999951
 20
-0.2976894028633943
 30
0.0
 40
0.1
100
AcDbArc
 50
0.0
 51
76.0718014506686
  0
LINE
  5
37C
330
83
100
AcDbEntity
  8
0-0_補助線
  6
Continuous
 62
     7
370
     9
100
AcDbLine
 10
-2.844365282540366
 20
-0.1092529980215069
 30
0.0
 11
-2.438173587307915
 21
-0.2001004295672359
 31
0.0
  0
ARC
  5
37D
330
83
100
AcDbEntity
  8
0-0_補助線
  6
Continuous
 62
     7
370
     9
100
AcDbCircle
 10
-2.839999999999947
 20
-0.0897352033627286
 30
0.0
 40
0.02
100
AcDbArc
 50
180.0
 51
257.3929027504764
  0
LINE
  5
37E
330
83
100
AcDbEntity
  8
0-0_補助線
  6
Continuous
 62
     7
370
     9
100
AcDbLine
 10
-2.859999999999957
 20
0.0692483078921242
 30
0.0
 11
-2.859999999999957
 21
-0.0897352033627286
 31
0.0
  0
ARC
  5
37F
330
83
100
AcDbEntity
  8
0-0_補助線
  6
Continuous
 62
     7
370
     9
100
AcDbCircle
 10
-2.839999999999947
 20
0.0692483078921242
 30
0.0
 40
0.02
100
AcDbArc
 50
77.00047925075384
 51
180.0
  0
LINE
  5
380
330
83
100
AcDbEntity
  8
0-0_補助線
  6
Continuous
 62
     7
370
     9
100
AcDbLine
 10
-2.4089977161685
 20
-0.0097265699620763
 30
0.0
 11
-2.835501141915671
 21
0.0887357468192285
 31
0.0
  0
LINE
  5
381
330
83
100
AcDbEntity
  8
0-0_補助線
  6
Continuous
 62
     7
370
     9
100
AcDbLine
 10
-2.4089977161685
 20
-0.0097265699620763
 30
0.0
 11
-2.398644954364414
 21
0.0289104630894848
 31
0.0
  0
LINE
  5
382
330
83
100
AcDbEntity
  8
0-0_補助線
  6
Continuous
 62
     7
370
     9
100
AcDbLine
 10
-2.059999999999945
 20
-0.2507516921078725
 30
0.0
 11
2.060000000000059
 21
-0.2507516921078761
 31
0.0
  0
LINE
  5
383
330
83
100
AcDbEntity
  8
0-0_補助線
  6
Continuous
 62
     7
370
     9
100
AcDbLine
 10
-2.059999999999945
 20
-1.690751692107877
 30
0.0
 11
2.060000000000059
 21
-1.690751692107877
 31
0.0
  0
LINE
  5
384
330
83
100
AcDbEntity
  8
0-0_補助線
  6
Continuous
 62
     7
370
     9
100
AcDbLine
 10
-2.199999999999932
 20
-1.930751692107876
 30
0.0
 11
2.200000000000045
 21
-1.930751692107876
 31
0.0
  0
LINE
  5
385
330
83
100
AcDbEntity
  8
0-0_補助線
  6
Continuous
 62
     7
370
     9
100
AcDbLine
 10
2.200000000000045
 20
-1.970751692107875
 30
0.0
 11
-2.199999999999932
 21
-1.970751692107875
 31
0.0
  0
ENDBLK
  5
85
330
83
100
AcDbEntity
  8
0
100
AcDbBlockEnd
  0
BLOCK
  5
87
330
86
100
AcDbEntity
  8
0
100
AcDbBlockBegin
  2
2@@SfigorgFlag@@4_0-0_
 70
     0
 10
0.0
 20
0.0
 30
0.0
  3
2@@SfigorgFlag@@4_0-0_
  1

  0
ARC
  5
386
330
86
100
AcDbEntity
  8
0-0_補助線
  6
Continuous
 62
     7
370
     9
100
AcDbCircle
 10
-1.629130730832998
 20
-1.784377180280984
 30
0.0
 40
0.06
100
AcDbArc
 50
180.0
 51
270.0
  0
LINE
  5
387
330
86
100
AcDbEntity
  8
0-0_補助線
  6
Continuous
 62
     7
370
     9
100
AcDbLine
 10
-0.3091307308329974
 20
-1.844377180280972
 30
0.0
 11
-1.629130730832998
 21
-1.844377180280972
 31
0.0
  0
ARC
  5
388
330
86
100
AcDbEntity
  8
0-0_補助線
  6
Continuous
 62
     7
370
     9
100
AcDbCircle
 10
-0.3091307308329974
 20
-1.784377180280984
 30
0.0
 40
0.06
100
AcDbArc
 50
270.0
 51
0.0
  0
ARC
  5
389
330
86
100
AcDbEntity
  8
0-0_補助線
  6
Continuous
 62
     7
370
     9
100
AcDbCircle
 10
-1.769130730832991
 20
3.015622819719027
 30
0.0
 40
0.2
100
AcDbArc
 50
90.0
 51
180.0
  0
ARC
  5
38A
330
86
100
AcDbEntity
  8
0-0_補助線
  6
Continuous
 62
     7
370
     9
100
AcDbCircle
 10
-0.3091307308329974
 20
2.875622819719027
 30
0.0
 40
0.06
100
AcDbArc
 50
0.0
 51
90.0
  0
LINE
  5
38B
330
86
100
AcDbEntity
  8
0-0_補助線
  6
Continuous
 62
     7
370
     9
100
AcDbLine
 10
-1.629130730832998
 20
2.935622819719029
 30
0.0
 11
-0.3091307308329974
 21
2.935622819719029
 31
0.0
  0
ARC
  5
38C
330
86
100
AcDbEntity
  8
0-0_補助線
  6
Continuous
 62
     7
370
     9
100
AcDbCircle
 10
-1.629130730832998
 20
2.875622819719027
 30
0.0
 40
0.06
100
AcDbArc
 50
90.0
 51
180.0
  0
ARC
  5
38D
330
86
100
AcDbEntity
  8
0-0_補助線
  6
Continuous
 62
     7
370
     9
100
AcDbCircle
 10
-1.769130730832991
 20
3.015622819719027
 30
0.0
 40
0.16
100
AcDbArc
 50
90.0
 51
180.0
  0
LINE
  5
38E
330
86
100
AcDbEntity
  8
0-0_補助線
  6
Continuous
 62
     7
370
     9
100
AcDbLine
 10
-1.969130730832994
 20
-1.924377180280985
 30
0.0
 11
-1.969130730832994
 21
3.015622819719027
 31
0.0
  0
ARC
  5
38F
330
86
100
AcDbEntity
  8
0-0_補助線
  6
Continuous
 62
     7
370
     9
100
AcDbCircle
 10
-1.769130730832991
 20
-1.924377180280985
 30
0.0
 40
0.2
100
AcDbArc
 50
180.0
 51
270.0
  0
ARC
  5
390
330
86
100
AcDbEntity
  8
0-0_補助線
  6
Continuous
 62
     7
370
     9
100
AcDbCircle
 10
-0.5692916963789258
 20
-2.144031477529182
 30
0.0
 40
1.2
100
AcDbArc
 50
179.0615344703278
 51
259.2981547751684
  0
LWPOLYLINE
  5
391
330
86
100
AcDbEntity
  8
0-0_補助線
  6
Continuous
 62
     7
370
     9
100
AcDbPolyline
 90
        4
 70
     1
 43
0.2
 10
-0.6791307308329962
 20
-3.324377180280976
 42
0.4142135623731
 10
-0.7791307308329962
 20
-3.224377180280976
 42
0.4142135623731
 10
-0.8791307308329962
 20
-3.324377180280976
 42
0.4142135623731
 10
-0.7791307308329962
 20
-3.424377180280976
 42
0.4142135623731
  0
ARC
  5
392
330
86
100
AcDbEntity
  8
0-0_補助線
  6
Continuous
 62
     7
370
     9
100
AcDbCircle
 10
-0.7791307308329962
 20
-3.254377180280983
 30
0.0
 40
0.07
100
AcDbArc
 50
259.2981547751684
 51
79.29815477516837
  0
ARC
  5
393
330
86
100
AcDbEntity
  8
0-0_補助線
  6
Continuous
 62
     7
370
     9
100
AcDbCircle
 10
-0.5692916963789258
 20
-2.144031477529182
 30
0.0
 40
1.06
100
AcDbArc
 50
178.9375728139377
 51
259.2981547751684
  0
LINE
  5
394
330
86
100
AcDbEntity
  8
0-0_補助線
  6
Continuous
 62
     7
370
     9
100
AcDbLine
 10
-1.929130730832995
 20
3.015622819719027
 30
0.0
 11
-1.929130730832995
 21
-1.924377180280985
 31
0.0
  0
LINE
  5
395
330
86
100
AcDbEntity
  8
0-0_補助線
  6
Continuous
 62
     7
370
     9
100
AcDbLine
 10
-1.929130730832995
 20
-1.924377180280985
 30
0.0
 11
-1.969130730832994
 21
-1.924377180280985
 31
0.0
  0
LINE
  5
396
330
86
100
AcDbEntity
  8
0-0_補助線
  6
Continuous
 62
     7
370
     9
100
AcDbLine
 10
-1.689130730832993
 20
2.875622819719027
 30
0.0
 11
-1.689130730832993
 21
-1.784377180280984
 31
0.0
  0
LINE
  5
397
330
86
100
AcDbEntity
  8
0-0_補助線
  6
Continuous
 62
     7
370
     9
100
AcDbLine
 10
0.0708692691670052
 20
-2.584377180280981
 30
0.0
 11
-0.0881142420878476
 21
-2.584377180280981
 31
0.0
  0
ARC
  5
398
330
86
100
AcDbEntity
  8
0-0_補助線
  6
Continuous
 62
     7
370
     9
100
AcDbCircle
 10
-0.0881142420878476
 20
-2.524377180280979
 30
0.0
 40
0.06
100
AcDbArc
 50
193.9281985493309
 51
270.0
  0
ARC
  5
399
330
86
100
AcDbEntity
  8
0-0_補助線
  6
Continuous
 62
     7
370
     9
100
AcDbCircle
 10
0.0708692691670052
 20
-2.524377180280979
 30
0.0
 40
0.06
100
AcDbArc
 50
270.0
 51
14.29438185742981
  0
LINE
  5
39A
330
86
100
AcDbEntity
  8
0-0_補助線
  6
Continuous
 62
     7
370
     9
100
AcDbLine
 10
0.0308692691670061
 20
-2.124377180280973
 30
0.0
 11
0.1290116659424712
 21
-2.509562940604084
 31
0.0
  0
LINE
  5
39B
330
86
100
AcDbEntity
  8
0-0_補助線
  6
Continuous
 62
     7
370
     9
100
AcDbLine
 10
-0.2378325535497154
 20
-2.169934834753576
 30
0.0
 11
-0.1463501301266419
 21
-2.538819525808378
 31
0.0
  0
LINE
  5
39C
330
86
100
AcDbEntity
  8
0-0_補助線
  6
Continuous
 62
     7
370
     9
100
AcDbLine
 10
-0.2960684415885098
 20
-2.124377180280973
 30
0.0
 11
-1.769130730832991
 21
-2.124377180280973
 31
0.0
  0
ARC
  5
39D
330
86
100
AcDbEntity
  8
0-0_補助線
  6
Continuous
 62
     7
370
     9
100
AcDbCircle
 10
-0.2960684415885098
 20
-2.184377180280975
 30
0.0
 40
0.06
100
AcDbArc
 50
13.92819854933141
 51
90.00000000000001
  0
LINE
  5
39E
330
86
100
AcDbEntity
  8
0-0_補助線
  6
Continuous
 62
     7
370
     9
100
AcDbLine
 10
-0.2491307308329951
 20
2.875622819719027
 30
0.0
 11
-0.2491307308329951
 21
-1.784377180280984
 31
0.0
  0
LINE
  5
39F
330
86
100
AcDbEntity
  8
0-0_補助線
  6
Continuous
 62
     7
370
     9
100
AcDbLine
 10
0.4308692691670046
 20
-1.559377180280975
 30
0.0
 11
0.4308692691670046
 21
-1.699377180280976
 31
0.0
  0
LINE
  5
3A0
330
86
100
AcDbEntity
  8
0-0_補助線
  6
Continuous
 62
     7
370
     9
100
AcDbLine
 10
0.8308692691670032
 20
-2.119377180280978
 30
0.0
 11
0.8308692691670032
 21
-1.979377180280977
 31
0.0
  0
LINE
  5
3A1
330
86
100
AcDbEntity
  8
0-0_補助線
  6
Continuous
 62
     7
370
     9
100
AcDbLine
 10
0.6308692691670075
 20
-1.699377180280976
 30
0.0
 11
0.5024027720209432
 21
-1.534767462733626
 31
0.0
  0
LINE
  5
3A2
330
86
100
AcDbEntity
  8
0-0_補助線
  6
Continuous
 62
     7
370
     9
100
AcDbLine
 10
1.030869269167006
 20
-1.979377180280977
 30
0.0
 11
0.9024027720209418
 21
-2.143986897828341
 31
0.0
  0
LINE
  5
3A3
330
86
100
AcDbEntity
  8
0-0_補助線
  6
Continuous
 62
     7
370
     9
100
AcDbLine
 10
1.230869269167009
 20
-1.559377180280975
 30
0.0
 11
1.230869269167009
 21
-1.699377180280976
 31
0.0
  0
ARC
  5
3A4
330
86
100
AcDbEntity
  8
0-0_補助線
  6
Continuous
 62
     7
370
     9
100
AcDbCircle
 10
0.8708692691670095
 20
-2.119377180280978
 30
0.0
 40
0.04
100
AcDbArc
 50
180.0
 51
322.0304252330487
  0
ARC
  5
3A5
330
86
100
AcDbEntity
  8
0-0_補助線
  6
Continuous
 62
     7
370
     9
100
AcDbCircle
 10
0.4708692691670038
 20
-1.559377180280975
 30
0.0
 40
0.04
100
AcDbArc
 50
37.96957476694966
 51
180.0
  0
LINE
  5
3A6
330
86
100
AcDbEntity
  8
0-0_補助線
  6
Continuous
 62
     7
370
     9
100
AcDbLine
 10
1.511545229617482
 20
-1.820289200070164
 30
0.0
 11
1.303139653347195
 21
-1.535741988196648
 31
0.0
  0
ARC
  5
3A7
330
86
100
AcDbEntity
  8
0-0_補助線
  6
Continuous
 62
     7
370
     9
100
AcDbCircle
 10
1.270869269167008
 20
-1.559377180280975
 30
0.0
 40
0.04
100
AcDbArc
 50
36.21946651197781
 51
180.0
  0
ARC
  5
3A8
330
86
100
AcDbEntity
  8
0-0_補助線
  6
Continuous
 62
     7
370
     9
100
AcDbCircle
 10
1.430869269167005
 20
-1.879377180280983
 30
0.0
 40
0.1
100
AcDbArc
 50
270.0
 51
36.21946651947422
  0
LINE
  5
3A9
330
86
100
AcDbEntity
  8
0-0_補助線
  6
Continuous
 62
     7
370
     9
100
AcDbLine
 10
0.4308692691670046
 20
2.190622819719025
 30
0.0
 11
0.4308692691670046
 21
2.330622819719025
 31
0.0
  0
LINE
  5
3AA
330
86
100
AcDbEntity
  8
0-0_補助線
  6
Continuous
 62
     7
370
     9
100
AcDbLine
 10
0.8308692691670032
 20
2.750622819719027
 30
0.0
 11
0.8308692691670032
 21
2.610622819719026
 31
0.0
  0
LINE
  5
3AB
330
86
100
AcDbEntity
  8
0-0_補助線
  6
Continuous
 62
     7
370
     9
100
AcDbLine
 10
0.6308692691670075
 20
2.330622819719025
 30
0.0
 11
0.5024027720209432
 21
2.166013102171661
 31
0.0
  0
LINE
  5
3AC
330
86
100
AcDbEntity
  8
0-0_補助線
  6
Continuous
 62
     7
370
     9
100
AcDbLine
 10
1.030869269167006
 20
2.610622819719026
 30
0.0
 11
0.9024027720209418
 21
2.775232537266376
 31
0.0
  0
LINE
  5
3AD
330
86
100
AcDbEntity
  8
0-0_補助線
  6
Continuous
 62
     7
370
     9
100
AcDbLine
 10
1.230869269167009
 20
2.190622819719025
 30
0.0
 11
1.230869269167009
 21
2.330622819719025
 31
0.0
  0
ARC
  5
3AE
330
86
100
AcDbEntity
  8
0-0_補助線
  6
Continuous
 62
     7
370
     9
100
AcDbCircle
 10
0.8708692691670095
 20
2.750622819719027
 30
0.0
 40
0.04
100
AcDbArc
 50
37.96957476695127
 51
180.0
  0
ARC
  5
3AF
330
86
100
AcDbEntity
  8
0-0_補助線
  6
Continuous
 62
     7
370
     9
100
AcDbCircle
 10
0.4708692691670038
 20
2.190622819719025
 30
0.0
 40
0.04
100
AcDbArc
 50
180.0
 51
322.0304252330503
  0
LINE
  5
3B0
330
86
100
AcDbEntity
  8
0-0_補助線
  6
Continuous
 62
     7
370
     9
100
AcDbLine
 10
1.511545229617482
 20
2.451534839508213
 30
0.0
 11
1.303139653347195
 21
2.166987627634697
 31
0.0
  0
ARC
  5
3B1
330
86
100
AcDbEntity
  8
0-0_補助線
  6
Continuous
 62
     7
370
     9
100
AcDbCircle
 10
1.270869269167008
 20
2.190622819719025
 30
0.0
 40
0.04
100
AcDbArc
 50
180.0
 51
323.7805334880222
  0
ARC
  5
3B2
330
86
100
AcDbEntity
  8
0-0_補助線
  6
Continuous
 62
     7
370
     9
100
AcDbCircle
 10
1.430869269167005
 20
2.510622819719018
 30
0.0
 40
0.1
100
AcDbArc
 50
323.7805334805258
 51
90.0
  0
LINE
  5
3B3
330
86
100
AcDbEntity
  8
0-0_補助線
  6
Continuous
 62
     7
370
     9
100
AcDbLine
 10
-1.769130730832991
 20
3.175622819719024
 30
0.0
 11
0.1274378116619275
 21
3.175622819719024
 31
0.0
  0
LINE
  5
3B4
330
86
100
AcDbEntity
  8
0-0_補助線
  6
Continuous
 62
     7
370
     9
100
AcDbLine
 10
-1.769130730832991
 20
3.21562281971903
 30
0.0
 11
0.0708692691670052
 21
3.21562281971903
 31
0.0
  0
LINE
  5
3B5
330
86
100
AcDbEntity
  8
0-0_補助線
  6
Continuous
 62
     7
370
     9
100
AcDbLine
 10
1.430869269167005
 20
-1.979377180280977
 30
0.0
 11
1.030869269167006
 21
-1.979377180280977
 31
0.0
  0
LINE
  5
3B6
330
86
100
AcDbEntity
  8
0-0_補助線
  6
Continuous
 62
     7
370
     9
100
AcDbLine
 10
0.8308692691670032
 20
-1.979377180280977
 30
0.0
 11
0.0308692691670061
 21
-1.979377180280977
 31
0.0
  0
LINE
  5
3B7
330
86
100
AcDbEntity
  8
0-0_補助線
  6
Continuous
 62
     7
370
     9
100
AcDbLine
 10
0.0308692691670061
 20
-1.699377180280976
 30
0.0
 11
0.4308692691670046
 21
-1.699377180280976
 31
0.0
  0
LINE
  5
3B8
330
86
100
AcDbEntity
  8
0-0_補助線
  6
Continuous
 62
     7
370
     9
100
AcDbLine
 10
0.6308692691670075
 20
-1.699377180280976
 30
0.0
 11
1.230869269167009
 21
-1.699377180280976
 31
0.0
  0
LINE
  5
3B9
330
86
100
AcDbEntity
  8
0-0_補助線
  6
Continuous
 62
     7
370
     9
100
AcDbLine
 10
0.0308692691670061
 20
2.330622819719025
 30
0.0
 11
0.4308692691670046
 21
2.330622819719025
 31
0.0
  0
LINE
  5
3BA
330
86
100
AcDbEntity
  8
0-0_補助線
  6
Continuous
 62
     7
370
     9
100
AcDbLine
 10
0.6308692691670075
 20
2.330622819719025
 30
0.0
 11
1.230869269167009
 21
2.330622819719025
 31
0.0
  0
LINE
  5
3BB
330
86
100
AcDbEntity
  8
0-0_補助線
  6
Continuous
 62
     7
370
     9
100
AcDbLine
 10
1.430869269167005
 20
2.610622819719026
 30
0.0
 11
1.030869269167006
 21
2.610622819719026
 31
0.0
  0
LINE
  5
3BC
330
86
100
AcDbEntity
  8
0-0_補助線
  6
Continuous
 62
     7
370
     9
100
AcDbLine
 10
0.8308692691670032
 20
2.610622819719026
 30
0.0
 11
0.0308692691670061
 21
2.610622819719026
 31
0.0
  0
LINE
  5
3BD
330
86
100
AcDbEntity
  8
0-0_補助線
  6
Continuous
 62
     7
370
     9
100
AcDbLine
 10
0.0308692691670061
 20
2.610622819719026
 30
0.0
 11
0.1298643253643306
 21
3.144687402750549
 31
0.0
  0
ARC
  5
3BE
330
86
100
AcDbEntity
  8
0-0_補助線
  6
Continuous
 62
     7
370
     9
100
AcDbCircle
 10
0.0708692691670052
 20
3.155622819719028
 30
0.0
 40
0.06
100
AcDbArc
 50
349.4987515888594
 51
90.0
  0
LINE
  5
3BF
330
86
100
AcDbEntity
  8
0-0_補助線
  6
Continuous
 62
     7
370
     9
100
AcDbLine
 10
0.0308692691670061
 20
2.330622819719025
 30
0.0
 11
0.0308692691670061
 21
-1.699377180280976
 31
0.0
  0
LINE
  5
3C0
330
86
100
AcDbEntity
  8
0-0_補助線
  6
Continuous
 62
     7
370
     9
100
AcDbLine
 10
0.0308692691670061
 20
-1.979377180280977
 30
0.0
 11
0.0308692691670061
 21
-2.124377180280973
 31
0.0
  0
ENDBLK
  5
88
330
86
100
AcDbEntity
  8
0
100
AcDbBlockEnd
  0
ENDSEC
  0
SECTION
  2
ENTITIES
  0
LINE
  5
89
330
1F
100
AcDbEntity
  8
F-0_補助線
  6
JWW_HOJO
 62
   120
370
     5
100
AcDbLine
 10
-6140.081333436773
 20
-4455.0
 30
0.0
 11
-6140.081333436773
 21
4424.999604096284
 31
0.0
  0
LINE
  5
8A
330
1F
100
AcDbEntity
  8
F-0_補助線
  6
JWW_HOJO
 62
   120
370
     5
100
AcDbLine
 10
-6140.081333436773
 20
4424.999604096284
 30
0.0
 11
6159.917676803936
 21
4424.999604096284
 31
0.0
  0
LINE
  5
8B
330
1F
100
AcDbEntity
  8
F-0_補助線
  6
JWW_HOJO
 62
   120
370
     5
100
AcDbLine
 10
6159.917676803936
 20
4424.999604096284
 30
0.0
 11
6159.917676803936
 21
-4455.0
 31
0.0
  0
LINE
  5
8C
330
1F
100
AcDbEntity
  8
F-0_補助線
  6
JWW_HOJO
 62
   120
370
     5
100
AcDbLine
 10
6159.917676803936
 20
-4455.0
 30
0.0
 11
-6140.081333436773
 21
-4455.0
 31
0.0
  0
LINE
  5
8D
330
1F
100
AcDbEntity
  8
F-0_補助線
  6
JWW_HOJO
 62
     7
370
     9
100
AcDbLine
 10
1009.918254163523
 20
-3795.000003092998
 30
0.0
 11
1009.918254163523
 21
-4195.000008247994
 31
0.0
  0
LINE
  5
8E
330
1F
100
AcDbEntity
  8
F-0_補助線
  6
JWW_HOJO
 62
     7
370
     9
100
AcDbLine
 10
509.9185840832865
 20
-3795.000003092998
 30
0.0
 11
509.9185840832865
 21
-4195.000008247994
 31
0.0
  0
LINE
  5
8F
330
1F
100
AcDbEntity
  8
F-1_枠
  6
Continuous
 62
   200
370
    20
100
AcDbLine
 10
5859.917429364114
 20
4174.999769056166
 30
0.0
 11
5859.917429364114
 21
-4205.000164959882
 31
0.0
  0
LINE
  5
90
330
1F
100
AcDbEntity
  8
F-1_枠
  6
Continuous
 62
   200
370
    20
100
AcDbLine
 10
-5840.081317971782
 20
4174.999769056166
 30
0.0
 11
-5840.081317971782
 21
-4205.000164959882
 31
0.0
  0
LINE
  5
91
330
1F
100
AcDbEntity
  8
F-1_枠
  6
Continuous
 62
   200
370
    20
100
AcDbLine
 10
5859.917429364114
 20
-4205.000002577498
 30
0.0
 11
-5840.081085996952
 21
-4205.000002577498
 31
0.0
  0
LINE
  5
92
330
1F
100
AcDbEntity
  8
F-1_枠
  6
Continuous
 62
   200
370
    20
100
AcDbLine
 10
-5830.081323642279
 20
4174.999769056166
 30
0.0
 11
-5830.081323642279
 21
-4205.000164959882
 31
0.0
  0
LINE
  5
93
330
1F
100
AcDbEntity
  8
F-1_枠
  6
Continuous
 62
   200
370
    20
100
AcDbLine
 10
-5835.081309208291
 20
4174.999769056166
 30
0.0
 11
-5835.081309208291
 21
-4205.000164959882
 31
0.0
  0
LINE
  5
94
330
1F
100
AcDbEntity
  8
F-1_枠
  6
Continuous
 62
   200
370
    20
100
AcDbLine
 10
5854.917165428304
 20
4174.999769056166
 30
0.0
 11
5854.917165428304
 21
-4205.000164959882
 31
0.0
  0
LINE
  5
95
330
1F
100
AcDbEntity
  8
F-1_枠
  6
Continuous
 62
   200
370
    20
100
AcDbLine
 10
5849.917643811961
 20
4174.999769056166
 30
0.0
 11
5849.917643811961
 21
-4205.000164959882
 31
0.0
  0
LINE
  5
96
330
1F
100
AcDbEntity
  8
F-1_枠
  6
Continuous
 62
   200
370
    20
100
AcDbLine
 10
5859.917429364114
 20
-4199.999993814004
 30
0.0
 11
-5840.081085996952
 21
-4199.999993814004
 31
0.0
  0
LINE
  5
97
330
1F
100
AcDbEntity
  8
F-1_枠
  6
Continuous
 62
   200
370
    20
100
AcDbLine
 10
5859.917429364114
 20
-4195.000008247994
 30
0.0
 11
-5840.081085996952
 21
-4195.000008247994
 31
0.0
  0
LINE
  5
98
330
1F
100
AcDbEntity
  8
F-1_枠
  6
Continuous
 62
   200
370
    20
100
AcDbLine
 10
4349.917891251784
 20
-3795.000003092998
 30
0.0
 11
4349.917891251784
 21
-4195.000008247994
 31
0.0
  0
LINE
  5
99
330
1F
100
AcDbEntity
  8
F-1_枠
  6
Continuous
 62
   200
370
    20
100
AcDbLine
 10
2849.917396372139
 20
-3795.000003092998
 30
0.0
 11
2849.917396372139
 21
-4195.000008247994
 31
0.0
  0
LINE
  5
9A
330
1F
100
AcDbEntity
  8
F-1_枠
  6
Continuous
 62
   200
370
    20
100
AcDbLine
 10
9.918542843316231
 20
-3795.000003092998
 30
0.0
 11
9.918542843316231
 21
-4195.000008247994
 31
0.0
  0
LINE
  5
9B
330
1F
100
AcDbEntity
  8
F-1_枠
  6
Continuous
 62
   200
370
    20
100
AcDbLine
 10
9.918542843316231
 20
-3994.999936078046
 30
0.0
 11
5849.917643811961
 21
-3995.005364289155
 31
0.0
  0
LINE
  5
9C
330
1F
100
AcDbEntity
  8
F-1_枠
  6
Continuous
 62
   200
370
    20
100
AcDbLine
 10
-5840.081085996952
 20
4174.999769056166
 30
0.0
 11
5859.917429364114
 21
4174.999769056166
 31
0.0
  0
LINE
  5
9D
330
1F
100
AcDbEntity
  8
F-1_枠
  6
Continuous
 62
   200
370
    20
100
AcDbLine
 10
-5840.081085996952
 20
4164.999983504013
 30
0.0
 11
5859.917429364114
 21
4164.999983504013
 31
0.0
  0
LINE
  5
9E
330
1F
100
AcDbEntity
  8
F-1_枠
  6
Continuous
 62
   200
370
    20
100
AcDbLine
 10
-5840.081085996952
 20
4169.999505120355
 30
0.0
 11
5859.917429364114
 21
4169.999505120355
 31
0.0
  0
LINE
  5
9F
330
1F
100
AcDbEntity
  8
F-0_補助線
  6
JWW_HOJO
 62
     7
370
     9
100
AcDbLine
 10
-5830.081323642279
 20
-3994.99993607839
 30
0.0
 11
9.918542843316231
 21
-3994.99993607839
 31
0.0
  0
LINE
  5
A0
330
1F
100
AcDbEntity
  8
F-0_補助線
  6
JWW_HOJO
 62
     7
370
     9
100
AcDbLine
 10
-5830.081323642279
 20
-3904.99993607839
 30
0.0
 11
9.918542843316231
 21
-3904.99993607839
 31
0.0
  0
LINE
  5
A1
330
1F
100
AcDbEntity
  8
F-0_補助線
  6
JWW_HOJO
 62
     7
370
     9
100
AcDbLine
 10
-5830.081323642279
 20
-4084.99993607839
 30
0.0
 11
9.918542843316231
 21
-4084.99993607839
 31
0.0
  0
LINE
  5
A2
330
1F
100
AcDbEntity
  8
F-0_補助線
  6
JWW_HOJO
 62
     7
370
     9
100
AcDbLine
 10
9.918408067688347
 20
-4139.999739777983
 30
0.0
 11
5849.917509036332
 21
-4140.005167989091
 31
0.0
  0
LINE
  5
A3
330
1F
100
AcDbEntity
  8
F-0_補助線
  6
JWW_HOJO
 62
     7
370
     9
100
AcDbLine
 10
9.918491721639953
 20
-4049.999739778022
 30
0.0
 11
5849.917592690284
 21
-4050.005167989131
 31
0.0
  0
LINE
  5
A4
330
1F
100
AcDbEntity
  8
F-0_補助線
  6
JWW_HOJO
 62
     7
370
     9
100
AcDbLine
 10
9.918593965360003
 20
-3939.99973721807
 30
0.0
 11
5849.917694934004
 21
-3940.005165429179
 31
0.0
  0
LINE
  5
A5
330
1F
100
AcDbEntity
  8
F-0_補助線
  6
JWW_HOJO
 62
     7
370
     9
100
AcDbLine
 10
9.918677619311609
 20
-3849.999737218109
 30
0.0
 11
5849.917778587956
 21
-3850.005165429218
 31
0.0
  0
LINE
  5
A6
330
1F
100
AcDbEntity
  8
F-0_補助線
  6
JWW_HOJO
 62
     7
370
     9
100
AcDbLine
 10
2939.917396372139
 20
-3795.000003092998
 30
0.0
 11
2939.917396372139
 21
-4195.000008247994
 31
0.0
  0
LINE
  5
A7
330
1F
100
AcDbEntity
  8
F-0_補助線
  6
JWW_HOJO
 62
     7
370
     9
100
AcDbLine
 10
99.91854284331623
 20
-3795.000003092998
 30
0.0
 11
99.91854284331623
 21
-4195.000008247994
 31
0.0
  0
LINE
  5
A8
330
1F
100
AcDbEntity
  8
F-0_補助線
  6
JWW_HOJO
 62
     7
370
     9
100
AcDbLine
 10
4439.917891251784
 20
-3795.000003092998
 30
0.0
 11
4439.917891251784
 21
-4195.000008247994
 31
0.0
  0
LINE
  5
A9
330
1F
100
AcDbEntity
  8
F-1_枠
  6
Continuous
 62
   200
370
    20
100
AcDbLine
 10
5859.917429364114
 20
-3795.000003092998
 30
0.0
 11
-5840.081085996952
 21
-3795.000003092998
 31
0.0
  0
LINE
  5
AA
330
1F
100
AcDbEntity
  8
F-1_枠
  6
Continuous
 62
   200
370
    20
100
AcDbLine
 10
5859.917429364114
 20
-3790.000017526987
 30
0.0
 11
-5840.081085996952
 21
-3790.000017526987
 31
0.0
  0
LINE
  5
AB
330
1F
100
AcDbEntity
  8
F-0_補助線
  6
JWW_HOJO
 62
     7
370
     9
100
AcDbLine
 10
-5087.628710189611
 20
-3795.000003092999
 30
0.0
 11
-5087.628710189611
 21
-4205.000164959882
 31
0.0
  0
LINE
  5
AC
330
1F
100
AcDbEntity
  8
F-0_補助線
  6
JWW_HOJO
 62
     7
370
     9
100
AcDbLine
 10
-50.08145715668377
 20
-3795.000003092998
 30
0.0
 11
-50.08145715668377
 21
-4195.000008247994
 31
0.0
  0
TEXT
  5
AD
330
1F
100
AcDbEntity
  8
F-0_補助線
  6
Continuous
 62
     7
370
     0
100
AcDbText
 10
509.9185840832865
 20
-3928.097291872503
 30
0.0
 40
66.06
  1
ＳＯＦＴＡＲＴ
 41
1.077453515576899
  7
HGP明朝B
100
AcDbText
  0
TEXT
  5
AE
330
1F
100
AcDbEntity
  8
F-0_補助線
  6
Continuous
 62
     7
370
     0
100
AcDbText
 10
1110.209427605311
 20
-3928.097291872503
 30
0.0
 40
68.58
  1
建具納まり図
 41
1.138888888888889
  7
ＭＳ ゴシック
100
AcDbText
  0
TEXT
  5
AF
330
1F
100
AcDbEntity
  8
F-A_文字
  6
Continuous
 62
     7
370
     0
100
AcDbText
 10
99.91854284331623
 20
-3871.539820871936
 30
0.0
 40
45.72
  1
図面名
  7
ＭＳ ゴシック
100
AcDbText
  0
TEXT
  5
B0
330
1F
100
AcDbEntity
  8
F-A_文字
  6
Continuous
 62
     7
370
     0
100
AcDbText
 10
2939.917396372139
 20
-3871.542460617774
 30
0.0
 40
45.72
  1
ＳＣＡＬＥ
  7
ＭＳ ゴシック
100
AcDbText
  0
TEXT
  5
B1
330
1F
100
AcDbEntity
  8
F-A_文字
  6
Continuous
 62
     7
370
     0
100
AcDbText
 10
4439.917891251784
 20
-3871.543854850754
 30
0.0
 40
45.72
  1
ＤＡＴＥ
  7
ＭＳ ゴシック
100
AcDbText
  0
TEXT
  5
B2
330
1F
100
AcDbEntity
  8
F-A_文字
  6
Continuous
 62
     7
370
     0
100
AcDbText
 10
2939.917396372139
 20
-4071.54246317786
 30
0.0
 40
45.72
  1
ＦＩＬＥ
  7
ＭＳ ゴシック
100
AcDbText
  0
TEXT
  5
B3
330
1F
100
AcDbEntity
  8
F-A_文字
  6
Continuous
 62
     7
370
     0
100
AcDbText
 10
4439.917891251784
 20
-4071.543857410839
 30
0.0
 40
45.72
  1
ＮＯ．
  7
ＭＳ ゴシック
100
AcDbText
  0
TEXT
  5
B4
330
1F
100
AcDbEntity
  8
F-A_文字
  6
Continuous
 62
     7
370
     0
100
AcDbText
 10
1394.917396372138
 20
-4080.540669266148
 30
0.0
 40
45.72
  1
株式
  7
ＭＳ ゴシック
100
AcDbText
  0
TEXT
  5
B5
330
1F
100
AcDbEntity
  8
F-A_文字
  6
Continuous
 62
     7
370
     0
100
AcDbText
 10
1604.917396372138
 20
-4138.082379523928
 30
0.0
 40
91.44
  1
ウッドワン・・・
 41
1.109375
  7
ＭＳ ゴシック
100
AcDbText
  0
TEXT
  5
B6
330
1F
100
AcDbEntity
  8
F-A_文字
  6
Continuous
 62
     7
370
     0
100
AcDbText
 10
1394.917396372138
 20
-4152.540669266186
 30
0.0
 40
45.72
  1
会社
  7
ＭＳ ゴシック
100
AcDbText
  0
TEXT
  5
B7
330
1F
100
AcDbEntity
  8
F-A_文字
  6
Continuous
 62
     7
370
     0
100
AcDbText
 10
5768.321977672939
 20
-4291.441419020919
 30
0.0
 40
68.58
  1
）
  7
ＭＳ ゴシック
100
AcDbText
  0
TEXT
  5
B8
330
1F
100
AcDbEntity
  8
F-A_文字
  6
Continuous
 62
     7
370
     0
100
AcDbText
 10
5350.114617405298
 20
-4292.835443869856
 30
0.0
 40
68.58
  1
,
  7
ＭＳ ゴシック
100
AcDbText
  0
TEXT
  5
B9
330
1F
100
AcDbEntity
  8
F-A_文字
  6
Continuous
 62
     7
370
     0
100
AcDbText
 10
5083.855928478601
 20
-4294.229467288283
 30
0.0
 40
68.58
  1
$y
 41
1.083333333333333
  7
ＭＳ ゴシック
100
AcDbText
  0
TEXT
  5
BA
330
1F
100
AcDbEntity
  8
F-A_文字
  6
Continuous
 62
     7
370
     0
100
AcDbText
 10
5238.592649517422
 20
-4294.229467288283
 30
0.0
 40
68.58
  1
$m
 41
1.083333333333333
  7
ＭＳ ゴシック
100
AcDbText
  0
TEXT
  5
BB
330
1F
100
AcDbEntity
  8
F-A_文字
  6
Continuous
 62
     7
370
     0
100
AcDbText
 10
5393.32938200033
 20
-4294.229467288283
 30
0.0
 40
68.58
  1
$d
 41
1.083333333333333
  7
ＭＳ ゴシック
100
AcDbText
  0
TEXT
  5
BC
330
1F
100
AcDbEntity
  8
F-A_文字
  6
Continuous
 62
     7
370
     0
100
AcDbText
 10
5548.066114483239
 20
-4294.229467288283
 30
0.0
 40
68.58
  1
印刷
 41
1.083333333333333
  7
ＭＳ ゴシック
100
AcDbText
  0
TEXT
  5
BD
330
1F
100
AcDbEntity
  8
F-A_文字
  6
Continuous
 62
     7
370
     0
100
AcDbText
 10
4943.952040816226
 20
-4295.623493567732
 30
0.0
 40
68.58
  1
（
  7
ＭＳ ゴシック
100
AcDbText
  0
TEXT
  5
BE
330
1F
100
AcDbEntity
  8
F-A_文字
  6
Continuous
 62
     7
370
     0
100
AcDbText
 10
5191.195810375571
 20
-4295.623493567732
 30
0.0
 40
68.58
  1
,
  7
ＭＳ ゴシック
100
AcDbText
  0
LINE
  5
BF
330
1F
100
AcDbEntity
  8
0-A_文字
  6
Continuous
 62
    92
370
    13
100
AcDbLine
 10
-5659.999495325861
 20
3730.000181455871
 30
0.0
 11
-5659.999495325861
 21
4000.000181455871
 31
0.0
  0
TEXT
  5
C0
330
1F
100
AcDbEntity
  8
0-A_文字
  6
Continuous
 62
     7
370
     9
100
AcDbText
 10
-3095.081457145495
 20
299.4567943122129
 30
0.0
 40
91.44
  1
■縦断面図
 41
1.1
  7
ＭＳ ゴシック
100
AcDbText
  0
TEXT
  5
C1
330
1F
100
AcDbEntity
  8
F-A_文字
  6
Continuous
 62
     7
370
     9
100
AcDbText
 10
5096.167700144058
 20
-4127.314512699985
 30
0.0
 40
68.58
  1
01
 41
1.083333333333333
  7
ＭＳ ゴシック
100
AcDbText
  0
TEXT
  5
C2
330
1F
100
AcDbEntity
  8
F-A_文字
  6
Continuous
 62
     7
370
     0
100
AcDbText
 10
3569.917643811961
 20
-3927.313115907308
 30
0.0
 40
68.58
  1
1/5
 41
1.111111111111111
  7
ＭＳ ゴシック
100
AcDbText
  0
TEXT
  5
C3
330
1F
100
AcDbEntity
  8
F-A_文字
  6
Continuous
 62
     7
370
     0
100
AcDbText
 10
4938.667793092894
 20
-3919.814510139968
 30
0.0
 40
68.58
  1
18.08.31
 41
1.145833333333333
  7
ＭＳ ゴシック
100
AcDbText
  0
LINE
  5
C4
330
1F
100
AcDbEntity
  8
0-A_文字
  6
Continuous
 62
    92
370
    13
100
AcDbLine
 10
-1423.999495325862
 20
4000.000181455871
 30
0.0
 11
-1423.999495325862
 21
3730.000181455871
 31
0.0
  0
LINE
  5
C5
330
1F
100
AcDbEntity
  8
0-A_文字
  6
Continuous
 62
    92
370
    13
100
AcDbLine
 10
-5659.999495325861
 20
3730.000181455871
 30
0.0
 11
-1423.999495325862
 21
3730.000181455871
 31
0.0
  0
LINE
  5
C6
330
1F
100
AcDbEntity
  8
0-A_文字
  6
Continuous
 62
    92
370
    13
100
AcDbLine
 10
-5659.999495325861
 20
4000.000181455871
 30
0.0
 11
-1423.999495325862
 21
4000.000181455871
 31
0.0
  0
LINE
  5
C7
330
1F
100
AcDbEntity
  8
0-0_補助線
  6
JWW_HOJO
 62
   120
370
     5
100
AcDbLine
 10
-3095.081457156685
 20
1793.999683277027
 30
0.0
 11
-3095.081457156685
 21
3083.999683277028
 31
0.0
  0
LINE
  5
C8
330
1F
100
AcDbEntity
  8
0-0_補助線
  6
JWW_HOJO
 62
   120
370
     5
100
AcDbLine
 10
3114.918542843318
 20
3083.999683277028
 30
0.0
 11
-3095.081457156685
 21
3083.999683277028
 31
0.0
  0
LINE
  5
C9
330
1F
100
AcDbEntity
  8
0-0_補助線
  6
JWW_HOJO
 62
   120
370
     5
100
AcDbLine
 10
3114.918542843318
 20
1793.999683277027
 30
0.0
 11
-3095.081457156685
 21
1793.999683277027
 31
0.0
  0
LINE
  5
CA
330
1F
100
AcDbEntity
  8
0-1_通り芯
  6
JWW_CENTER1
 62
   120
370
     5
100
AcDbLine
 10
3114.918542843318
 20
2438.999683277028
 30
0.0
 11
-3095.081457156685
 21
2438.999683277028
 31
0.0
  0
LINE
  5
CB
330
1F
100
AcDbEntity
  8
ハッチ
  6
JWW_DASHED1
 62
   120
370
     5
100
AcDbLine
 10
-3095.081457156685
 20
2815.00948964995
 30
0.0
 11
-3081.091263529607
 21
2828.999683277025
 31
0.0
  0
LINE
  5
CC
330
1F
100
AcDbEntity
  8
ハッチ
  6
JWW_DASHED1
 62
   120
370
     5
100
AcDbLine
 10
-3095.081457156679
 20
2093.760572839661
 30
0.0
 11
-3064.84234671932
 21
2123.999683277019
 31
0.0
  0
LINE
  5
CD
330
1F
100
AcDbEntity
  8
ハッチ
  6
JWW_DASHED1
 62
   120
370
     5
100
AcDbLine
 10
-2996.238449787255
 20
2828.99968327703
 30
0.0
 11
-3071.238449787266
 21
2753.999683277018
 31
0.0
  0
LINE
  5
CE
330
1F
100
AcDbEntity
  8
ハッチ
  6
JWW_DASHED1
 62
   120
370
     5
100
AcDbLine
 10
-3038.664856658407
 20
2828.999683277021
 30
0.0
 11
-3095.081457156679
 21
2772.58308277875
 31
0.0
  0
LINE
  5
CF
330
1F
100
AcDbEntity
  8
ハッチ
  6
JWW_DASHED1
 62
   120
370
     5
100
AcDbLine
 10
-2979.989532976971
 20
2123.999683277028
 30
0.0
 11
-3054.989532976978
 21
2048.999683277014
 31
0.0
  0
LINE
  5
D0
330
1F
100
AcDbEntity
  8
ハッチ
  6
JWW_DASHED1
 62
   120
370
     5
100
AcDbLine
 10
-3022.415939848164
 20
2123.99968327703
 30
0.0
 11
-3095.081457156672
 21
2051.33416596852
 31
0.0
  0
LINE
  5
D1
330
1F
100
AcDbEntity
  8
仕上げ
  6
Continuous
 62
    40
370
    15
100
AcDbLine
 10
-1895.081457156682
 20
2753.999683277028
 30
0.0
 11
-3095.081457156685
 21
2753.999683277028
 31
0.0
  0
LINE
  5
D2
330
1F
100
AcDbEntity
  8
仕上げ
  6
Continuous
 62
    40
370
    15
100
AcDbLine
 10
-1895.081457156682
 20
2123.999683277028
 30
0.0
 11
-3095.081457156685
 21
2123.999683277028
 31
0.0
  0
LINE
  5
D3
330
1F
100
AcDbEntity
  8
仕上げ
  6
Continuous
 62
    40
370
    15
100
AcDbLine
 10
-1895.081457156682
 20
2048.999683277028
 30
0.0
 11
-3095.081457156685
 21
2048.999683277028
 31
0.0
  0
LINE
  5
D4
330
1F
100
AcDbEntity
  8
仕上げ
  6
Continuous
 62
    40
370
    15
100
AcDbLine
 10
-1895.081457156682
 20
2828.999683277028
 30
0.0
 11
-3095.081457156685
 21
2828.999683277028
 31
0.0
  0
LINE
  5
D5
330
1F
100
AcDbEntity
  8
0-0_補助線
  6
JWW_HOJO
 62
   120
370
     5
100
AcDbLine
 10
78.91854284331657
 20
3083.999683277028
 30
0.0
 11
78.91854284331657
 21
1793.999683277027
 31
0.0
  0
LINE
  5
D6
330
1F
100
AcDbEntity
  8
0-0_補助線
  6
JWW_HOJO
 62
   120
370
     5
100
AcDbLine
 10
-41.08145715668343
 20
3083.999683277028
 30
0.0
 11
-41.08145715668343
 21
1793.999683277027
 31
0.0
  0
LINE
  5
D7
330
1F
100
AcDbEntity
  8
ハッチ
  6
JWW_DASHED1
 62
   120
370
     5
100
AcDbLine
 10
3061.501942345071
 20
2048.999683277015
 30
0.0
 11
3114.918542843318
 21
2102.416283775267
 31
0.0
  0
LINE
  5
D8
330
1F
100
AcDbEntity
  8
ハッチ
  6
JWW_DASHED1
 62
   120
370
     5
100
AcDbLine
 10
3103.928349216271
 20
2048.999683277015
 30
0.0
 11
3114.918542843318
 21
2059.989876904067
 31
0.0
  0
LINE
  5
D9
330
1F
100
AcDbEntity
  8
ハッチ
  6
JWW_DASHED1
 62
   120
370
     5
100
AcDbLine
 10
3087.679432405984
 20
2753.999683277021
 30
0.0
 11
3114.918542843318
 21
2781.238793714354
 31
0.0
  0
LINE
  5
DA
330
1F
100
AcDbEntity
  8
ハッチ
  6
JWW_DASHED1
 62
   120
370
     5
100
AcDbLine
 10
3045.253025534784
 20
2753.999683277021
 30
0.0
 11
3114.918542843318
 21
2823.665200585554
 31
0.0
  0
LINE
  5
DB
330
1F
100
AcDbEntity
  8
ハッチ
  6
JWW_DASHED1
 62
   120
370
     5
100
AcDbLine
 10
3002.826618663584
 20
2753.999683277021
 30
0.0
 11
3077.826618663594
 21
2828.999683277033
 31
0.0
  0
LINE
  5
DC
330
1F
100
AcDbEntity
  8
ハッチ
  6
JWW_DASHED1
 62
   120
370
     5
100
AcDbLine
 10
3019.075535473871
 20
2048.999683277015
 30
0.0
 11
3094.075535473885
 21
2123.999683277028
 31
0.0
  0
LINE
  5
DD
330
1F
100
AcDbEntity
  8
仕上げ
  6
Continuous
 62
    40
370
    15
100
AcDbLine
 10
3114.918542843318
 20
2123.999683277028
 30
0.0
 11
1914.918542843316
 21
2123.999683277028
 31
0.0
  0
LINE
  5
DE
330
1F
100
AcDbEntity
  8
仕上げ
  6
Continuous
 62
    40
370
    15
100
AcDbLine
 10
3114.918542843318
 20
2753.999683277028
 30
0.0
 11
1914.918542843316
 21
2753.999683277028
 31
0.0
  0
LINE
  5
DF
330
1F
100
AcDbEntity
  8
仕上げ
  6
Continuous
 62
    40
370
    15
100
AcDbLine
 10
3114.918542843318
 20
2828.999683277028
 30
0.0
 11
1914.918542843316
 21
2828.999683277028
 31
0.0
  0
LINE
  5
E0
330
1F
100
AcDbEntity
  8
仕上げ
  6
Continuous
 62
    40
370
    15
100
AcDbLine
 10
3114.918542843318
 20
2048.999683277028
 30
0.0
 11
1914.918542843316
 21
2048.999683277028
 31
0.0
  0
LINE
  5
E1
330
1F
100
AcDbEntity
  8
ハッチ
  6
JWW_DASHED1
 62
   120
370
     5
100
AcDbLine
 10
2960.40021179238
 20
2753.999683277018
 30
0.0
 11
3035.400211792394
 21
2828.999683277033
 31
0.0
  0
LINE
  5
E2
330
1F
100
AcDbEntity
  8
ハッチ
  6
JWW_DASHED1
 62
   120
370
     5
100
AcDbLine
 10
2917.973804921184
 20
2753.999683277021
 30
0.0
 11
2992.973804921194
 21
2828.999683277033
 31
0.0
  0
LINE
  5
E3
330
1F
100
AcDbEntity
  8
ハッチ
  6
JWW_DASHED1
 62
   120
370
     5
100
AcDbLine
 10
2875.547398050048
 20
2753.999683277028
 30
0.0
 11
2950.547398050038
 21
2828.999683277021
 31
0.0
  0
LINE
  5
E4
330
1F
100
AcDbEntity
  8
ハッチ
  6
JWW_DASHED1
 62
   120
370
     5
100
AcDbLine
 10
2833.120991178848
 20
2753.999683277033
 30
0.0
 11
2908.120991178841
 21
2828.999683277025
 31
0.0
  0
LINE
  5
E5
330
1F
100
AcDbEntity
  8
ハッチ
  6
JWW_DASHED1
 62
   120
370
     5
100
AcDbLine
 10
2790.694584307655
 20
2753.999683277037
 30
0.0
 11
2865.694584307648
 21
2828.999683277028
 31
0.0
  0
LINE
  5
E6
330
1F
100
AcDbEntity
  8
ハッチ
  6
JWW_DASHED1
 62
   120
370
     5
100
AcDbLine
 10
2748.26817743645
 20
2753.999683277032
 30
0.0
 11
2823.268177436448
 21
2828.999683277032
 31
0.0
  0
LINE
  5
E7
330
1F
100
AcDbEntity
  8
ハッチ
  6
JWW_DASHED1
 62
   120
370
     5
100
AcDbLine
 10
2705.841770565252
 20
2753.999683277035
 30
0.0
 11
2780.841770565252
 21
2828.999683277033
 31
0.0
  0
LINE
  5
E8
330
1F
100
AcDbEntity
  8
ハッチ
  6
JWW_DASHED1
 62
   120
370
     5
100
AcDbLine
 10
2663.415363694035
 20
2753.999683277016
 30
0.0
 11
2738.415363694048
 21
2828.99968327703
 31
0.0
  0
LINE
  5
E9
330
1F
100
AcDbEntity
  8
ハッチ
  6
JWW_DASHED1
 62
   120
370
     5
100
AcDbLine
 10
2620.988956822838
 20
2753.999683277019
 30
0.0
 11
2695.988956822852
 21
2828.999683277035
 31
0.0
  0
LINE
  5
EA
330
1F
100
AcDbEntity
  8
ハッチ
  6
JWW_DASHED1
 62
   120
370
     5
100
AcDbLine
 10
2578.562549951641
 20
2753.999683277023
 30
0.0
 11
2653.562549951657
 21
2828.999683277038
 31
0.0
  0
LINE
  5
EB
330
1F
100
AcDbEntity
  8
ハッチ
  6
JWW_DASHED1
 62
   120
370
     5
100
AcDbLine
 10
2536.136143080505
 20
2753.999683277032
 30
0.0
 11
2611.136143080491
 21
2828.999683277018
 31
0.0
  0
LINE
  5
EC
330
1F
100
AcDbEntity
  8
ハッチ
  6
JWW_DASHED1
 62
   120
370
     5
100
AcDbLine
 10
2493.709736209306
 20
2753.999683277035
 30
0.0
 11
2568.709736209293
 21
2828.999683277021
 31
0.0
  0
LINE
  5
ED
330
1F
100
AcDbEntity
  8
ハッチ
  6
JWW_DASHED1
 62
   120
370
     5
100
AcDbLine
 10
2976.649128602671
 20
2048.999683277015
 30
0.0
 11
3051.649128602692
 21
2123.999683277038
 31
0.0
  0
LINE
  5
EE
330
1F
100
AcDbEntity
  8
ハッチ
  6
JWW_DASHED1
 62
   120
370
     5
100
AcDbLine
 10
2934.222721731471
 20
2048.999683277015
 30
0.0
 11
3009.222721731485
 21
2123.999683277028
 31
0.0
  0
LINE
  5
EF
330
1F
100
AcDbEntity
  8
ハッチ
  6
JWW_DASHED1
 62
   120
370
     5
100
AcDbLine
 10
2891.796314860275
 20
2048.999683277019
 30
0.0
 11
2966.796314860285
 21
2123.999683277032
 31
0.0
  0
LINE
  5
F0
330
1F
100
AcDbEntity
  8
ハッチ
  6
JWW_DASHED1
 62
   120
370
     5
100
AcDbLine
 10
2849.369907989139
 20
2048.999683277028
 30
0.0
 11
2924.369907989129
 21
2123.999683277021
 31
0.0
  0
LINE
  5
F1
330
1F
100
AcDbEntity
  8
ハッチ
  6
JWW_DASHED1
 62
   120
370
     5
100
AcDbLine
 10
2806.943501117939
 20
2048.999683277032
 30
0.0
 11
2881.943501117933
 21
2123.999683277023
 31
0.0
  0
LINE
  5
F2
330
1F
100
AcDbEntity
  8
ハッチ
  6
JWW_DASHED1
 62
   120
370
     5
100
AcDbLine
 10
2764.517094246746
 20
2048.999683277036
 30
0.0
 11
2839.517094246739
 21
2123.999683277028
 31
0.0
  0
LINE
  5
F3
330
1F
100
AcDbEntity
  8
ハッチ
  6
JWW_DASHED1
 62
   120
370
     5
100
AcDbLine
 10
2722.090687375541
 20
2048.999683277032
 30
0.0
 11
2797.090687375539
 21
2123.99968327703
 31
0.0
  0
LINE
  5
F4
330
1F
100
AcDbEntity
  8
ハッチ
  6
JWW_DASHED1
 62
   120
370
     5
100
AcDbLine
 10
2679.664280504343
 20
2048.999683277035
 30
0.0
 11
2754.664280504343
 21
2123.999683277033
 31
0.0
  0
LINE
  5
F5
330
1F
100
AcDbEntity
  8
ハッチ
  6
JWW_DASHED1
 62
   120
370
     5
100
AcDbLine
 10
2637.237873633129
 20
2048.999683277021
 30
0.0
 11
2712.237873633146
 21
2123.999683277037
 31
0.0
  0
LINE
  5
F6
330
1F
100
AcDbEntity
  8
ハッチ
  6
JWW_DASHED1
 62
   120
370
     5
100
AcDbLine
 10
2594.811466761929
 20
2048.999683277019
 30
0.0
 11
2669.811466761943
 21
2123.999683277033
 31
0.0
  0
LINE
  5
F7
330
1F
100
AcDbEntity
  8
ハッチ
  6
JWW_DASHED1
 62
   120
370
     5
100
AcDbLine
 10
2552.385059890732
 20
2048.999683277022
 30
0.0
 11
2627.385059890746
 21
2123.999683277038
 31
0.0
  0
LINE
  5
F8
330
1F
100
AcDbEntity
  8
ハッチ
  6
JWW_DASHED1
 62
   120
370
     5
100
AcDbLine
 10
2509.958653019596
 20
2048.999683277032
 30
0.0
 11
2584.958653019582
 21
2123.999683277018
 31
0.0
  0
LINE
  5
F9
330
1F
100
AcDbEntity
  8
仕上げ
  6
Continuous
 62
    92
370
    13
100
AcDbLine
 10
2937.224274761419
 20
2123.999683277028
 30
0.0
 11
2937.224274761419
 21
2753.999683277028
 31
0.0
  0
LINE
  5
FA
330
1F
100
AcDbEntity
  8
仕上げ
  6
Continuous
 62
     7
370
     9
100
AcDbLine
 10
2307.224274761419
 20
2123.999683277028
 30
0.0
 11
2937.224274761419
 21
2753.999683277028
 31
0.0
  0
LINE
  5
FB
330
1F
100
AcDbEntity
  8
仕上げ
  6
Continuous
 62
     7
370
     9
100
AcDbLine
 10
2307.224274761419
 20
2753.999683277028
 30
0.0
 11
2937.224274761419
 21
2123.999683277028
 31
0.0
  0
LINE
  5
FC
330
1F
100
AcDbEntity
  8
ハッチ
  6
JWW_DASHED1
 62
   120
370
     5
100
AcDbLine
 10
1914.918542843316
 20
2090.3556761687
 30
0.0
 11
1948.562549951636
 21
2123.999683277016
 31
0.0
  0
LINE
  5
FD
330
1F
100
AcDbEntity
  8
ハッチ
  6
JWW_DASHED1
 62
   120
370
     5
100
AcDbLine
 10
1915.453749833085
 20
2048.46447628726
 30
0.0
 11
1990.988956822833
 21
2123.999683277014
 31
0.0
  0
LINE
  5
FE
330
1F
100
AcDbEntity
  8
ハッチ
  6
JWW_DASHED1
 62
   120
370
     5
100
AcDbLine
 10
1914.918542843316
 20
2811.604592978934
 30
0.0
 11
1932.31363314141
 21
2828.999683277023
 31
0.0
  0
LINE
  5
FF
330
1F
100
AcDbEntity
  8
ハッチ
  6
JWW_DASHED1
 62
   120
370
     5
100
AcDbLine
 10
1914.918542843316
 20
2769.178186107736
 30
0.0
 11
1974.740040012605
 21
2828.999683277019
 31
0.0
  0
LINE
  5
100
330
1F
100
AcDbEntity
  8
仕上げ
  6
Continuous
 62
    92
370
    13
100
AcDbLine
 10
2307.224274761419
 20
2123.999683277028
 30
0.0
 11
2307.224274761419
 21
2753.999683277028
 31
0.0
  0
LINE
  5
101
330
1F
100
AcDbEntity
  8
仕上げ
  6
Continuous
 62
    92
370
    13
100
AcDbLine
 10
2235.918542843317
 20
2123.999683277028
 30
0.0
 11
2235.918542843317
 21
2753.999683277028
 31
0.0
  0
LINE
  5
102
330
1F
100
AcDbEntity
  8
仕上げ
  6
Continuous
 62
    92
370
    13
100
AcDbLine
 10
1965.918542843317
 20
2753.999683277028
 30
0.0
 11
1965.918542843317
 21
2123.999683277028
 31
0.0
  0
LINE
  5
103
330
1F
100
AcDbEntity
  8
ハッチ
  6
JWW_DASHED1
 62
   120
370
     5
100
AcDbLine
 10
2451.283329338098
 20
2753.999683277025
 30
0.0
 11
2526.283329338098
 21
2828.999683277025
 31
0.0
  0
LINE
  5
104
330
1F
100
AcDbEntity
  8
ハッチ
  6
JWW_DASHED1
 62
   120
370
     5
100
AcDbLine
 10
2408.856922466889
 20
2753.999683277016
 30
0.0
 11
2473.90620542332
 21
2819.048966233445
 31
0.0
  0
LINE
  5
105
330
1F
100
AcDbEntity
  8
ハッチ
  6
JWW_DASHED1
 62
   120
370
     5
100
AcDbLine
 10
2366.430515595693
 20
2753.999683277019
 30
0.0
 11
2441.430515595706
 21
2828.99968327703
 31
0.0
  0
LINE
  5
106
330
1F
100
AcDbEntity
  8
ハッチ
  6
JWW_DASHED1
 62
   120
370
     5
100
AcDbLine
 10
2324.004108724493
 20
2753.999683277019
 30
0.0
 11
2399.004108724491
 21
2828.999683277016
 31
0.0
  0
LINE
  5
107
330
1F
100
AcDbEntity
  8
ハッチ
  6
JWW_DASHED1
 62
   120
370
     5
100
AcDbLine
 10
2281.577701853296
 20
2753.999683277023
 30
0.0
 11
2356.577701853293
 21
2828.999683277019
 31
0.0
  0
LINE
  5
108
330
1F
100
AcDbEntity
  8
ハッチ
  6
JWW_DASHED1
 62
   120
370
     5
100
AcDbLine
 10
2239.151294982157
 20
2753.99968327703
 30
0.0
 11
2314.151294982155
 21
2828.999683277028
 31
0.0
  0
LINE
  5
109
330
1F
100
AcDbEntity
  8
ハッチ
  6
JWW_DASHED1
 62
   120
370
     5
100
AcDbLine
 10
2196.724888110961
 20
2753.999683277033
 30
0.0
 11
2271.724888110957
 21
2828.99968327703
 31
0.0
  0
LINE
  5
10A
330
1F
100
AcDbEntity
  8
ハッチ
  6
JWW_DASHED1
 62
   120
370
     5
100
AcDbLine
 10
2154.298481239764
 20
2753.999683277035
 30
0.0
 11
2229.298481239761
 21
2828.999683277032
 31
0.0
  0
LINE
  5
10B
330
1F
100
AcDbEntity
  8
ハッチ
  6
JWW_DASHED1
 62
   120
370
     5
100
AcDbLine
 10
2111.87207436855
 20
2753.999683277021
 30
0.0
 11
2186.872074368564
 21
2828.999683277035
 31
0.0
  0
LINE
  5
10C
330
1F
100
AcDbEntity
  8
ハッチ
  6
JWW_DASHED1
 62
   120
370
     5
100
AcDbLine
 10
2069.44566749735
 20
2753.999683277019
 30
0.0
 11
2144.445667497361
 21
2828.99968327703
 31
0.0
  0
LINE
  5
10D
330
1F
100
AcDbEntity
  8
ハッチ
  6
JWW_DASHED1
 62
   120
370
     5
100
AcDbLine
 10
2027.019260626142
 20
2753.999683277011
 30
0.0
 11
2102.019260626137
 21
2828.999683277009
 31
0.0
  0
LINE
  5
10E
330
1F
100
AcDbEntity
  8
ハッチ
  6
JWW_DASHED1
 62
   120
370
     5
100
AcDbLine
 10
1984.592853754943
 20
2753.999683277015
 30
0.0
 11
2059.592853754942
 21
2828.999683277011
 31
0.0
  0
LINE
  5
10F
330
1F
100
AcDbEntity
  8
ハッチ
  6
JWW_DASHED1
 62
   120
370
     5
100
AcDbLine
 10
1942.166446883747
 20
2753.999683277016
 30
0.0
 11
2017.166446883743
 21
2828.999683277014
 31
0.0
  0
LINE
  5
110
330
1F
100
AcDbEntity
  8
ハッチ
  6
JWW_DASHED1
 62
   120
370
     5
100
AcDbLine
 10
2467.532246148397
 20
2048.999683277035
 30
0.0
 11
2542.532246148384
 21
2123.999683277021
 31
0.0
  0
LINE
  5
111
330
1F
100
AcDbEntity
  8
ハッチ
  6
JWW_DASHED1
 62
   120
370
     5
100
AcDbLine
 10
2425.105839277189
 20
2048.999683277025
 30
0.0
 11
2500.105839277187
 21
2123.999683277025
 31
0.0
  0
LINE
  5
112
330
1F
100
AcDbEntity
  8
ハッチ
  6
JWW_DASHED1
 62
   120
370
     5
100
AcDbLine
 10
2382.679432405994
 20
2048.999683277029
 30
0.0
 11
2457.679432406007
 21
2123.999683277042
 31
0.0
  0
LINE
  5
113
330
1F
100
AcDbEntity
  8
ハッチ
  6
JWW_DASHED1
 62
   120
370
     5
100
AcDbLine
 10
2340.253025534784
 20
2048.999683277019
 30
0.0
 11
2415.253025534778
 21
2123.999683277015
 31
0.0
  0
LINE
  5
114
330
1F
100
AcDbEntity
  8
ハッチ
  6
JWW_DASHED1
 62
   120
370
     5
100
AcDbLine
 10
2297.826618663584
 20
2048.999683277018
 30
0.0
 11
2372.82661866358
 21
2123.999683277016
 31
0.0
  0
LINE
  5
115
330
1F
100
AcDbEntity
  8
ハッチ
  6
JWW_DASHED1
 62
   120
370
     5
100
AcDbLine
 10
2255.400211792387
 20
2048.999683277021
 30
0.0
 11
2330.400211792384
 21
2123.999683277019
 31
0.0
  0
LINE
  5
116
330
1F
100
AcDbEntity
  8
ハッチ
  6
JWW_DASHED1
 62
   120
370
     5
100
AcDbLine
 10
2212.973804921192
 20
2048.999683277022
 30
0.0
 11
2287.973804921187
 21
2123.999683277019
 31
0.0
  0
LINE
  5
117
330
1F
100
AcDbEntity
  8
ハッチ
  6
JWW_DASHED1
 62
   120
370
     5
100
AcDbLine
 10
2170.547398050052
 20
2048.999683277029
 30
0.0
 11
2245.547398050048
 21
2123.999683277028
 31
0.0
  0
LINE
  5
118
330
1F
100
AcDbEntity
  8
ハッチ
  6
JWW_DASHED1
 62
   120
370
     5
100
AcDbLine
 10
2128.120991178855
 20
2048.999683277033
 30
0.0
 11
2203.120991178852
 21
2123.99968327703
 31
0.0
  0
LINE
  5
119
330
1F
100
AcDbEntity
  8
ハッチ
  6
JWW_DASHED1
 62
   120
370
     5
100
AcDbLine
 10
2085.694584307641
 20
2048.999683277019
 30
0.0
 11
2160.694584307652
 21
2123.999683277033
 31
0.0
  0
LINE
  5
11A
330
1F
100
AcDbEntity
  8
ハッチ
  6
JWW_DASHED1
 62
   120
370
     5
100
AcDbLine
 10
2043.268177436438
 20
2048.999683277019
 30
0.0
 11
2118.26817743645
 21
2123.99968327703
 31
0.0
  0
LINE
  5
11B
330
1F
100
AcDbEntity
  8
ハッチ
  6
JWW_DASHED1
 62
   120
370
     5
100
AcDbLine
 10
2000.841770565243
 20
2048.999683277022
 30
0.0
 11
2075.841770565238
 21
2123.999683277018
 31
0.0
  0
LINE
  5
11C
330
1F
100
AcDbEntity
  8
ハッチ
  6
JWW_DASHED1
 62
   120
370
     5
100
AcDbLine
 10
1958.415363694033
 20
2048.999683277014
 30
0.0
 11
2033.41536369403
 21
2123.999683277009
 31
0.0
  0
LINE
  5
11D
330
1F
100
AcDbEntity
  8
0-0_補助線
  6
JWW_HOJO
 62
   120
370
     5
100
AcDbLine
 10
3114.918542843318
 20
1793.999683277027
 30
0.0
 11
3114.918542843318
 21
3083.999683277028
 31
0.0
  0
LINE
  5
11E
330
1F
100
AcDbEntity
  8
ハッチ
  6
JWW_DASHED1
 62
   120
370
     5
100
AcDbLine
 10
-2646.97438107531
 20
2753.999683277028
 30
0.0
 11
-2571.974381075316
 21
2828.999683277028
 31
0.0
  0
LINE
  5
11F
330
1F
100
AcDbEntity
  8
ハッチ
  6
JWW_DASHED1
 62
   120
370
     5
100
AcDbLine
 10
-2689.400787946523
 20
2753.999683277015
 30
0.0
 11
-2614.40078794651
 21
2828.999683277028
 31
0.0
  0
LINE
  5
120
330
1F
100
AcDbEntity
  8
ハッチ
  6
JWW_DASHED1
 62
   120
370
     5
100
AcDbLine
 10
-2731.82719481772
 20
2753.999683277018
 30
0.0
 11
-2656.827194817706
 21
2828.999683277032
 31
0.0
  0
LINE
  5
121
330
1F
100
AcDbEntity
  8
ハッチ
  6
JWW_DASHED1
 62
   120
370
     5
100
AcDbLine
 10
-2774.253601688862
 20
2753.999683277025
 30
0.0
 11
-2699.253601688875
 21
2828.999683277014
 31
0.0
  0
LINE
  5
122
330
1F
100
AcDbEntity
  8
ハッチ
  6
JWW_DASHED1
 62
   120
370
     5
100
AcDbLine
 10
-2816.680008560055
 20
2753.999683277028
 30
0.0
 11
-2741.680008560065
 21
2828.999683277018
 31
0.0
  0
LINE
  5
123
330
1F
100
AcDbEntity
  8
ハッチ
  6
JWW_DASHED1
 62
   120
370
     5
100
AcDbLine
 10
-2859.106415431252
 20
2753.999683277032
 30
0.0
 11
-2784.106415431262
 21
2828.999683277021
 31
0.0
  0
LINE
  5
124
330
1F
100
AcDbEntity
  8
ハッチ
  6
JWW_DASHED1
 62
   120
370
     5
100
AcDbLine
 10
-2901.532822302455
 20
2753.99968327703
 30
0.0
 11
-2826.532822302462
 21
2828.999683277028
 31
0.0
  0
LINE
  5
125
330
1F
100
AcDbEntity
  8
ハッチ
  6
JWW_DASHED1
 62
   120
370
     5
100
AcDbLine
 10
-2943.959229173648
 20
2753.999683277035
 30
0.0
 11
-2868.959229173655
 21
2828.99968327703
 31
0.0
  0
LINE
  5
126
330
1F
100
AcDbEntity
  8
ハッチ
  6
JWW_DASHED1
 62
   120
370
     5
100
AcDbLine
 10
-2986.385636044875
 20
2753.999683277011
 30
0.0
 11
-2911.385636044862
 21
2828.999683277025
 31
0.0
  0
LINE
  5
127
330
1F
100
AcDbEntity
  8
ハッチ
  6
JWW_DASHED1
 62
   120
370
     5
100
AcDbLine
 10
-3028.812042916069
 20
2753.999683277015
 30
0.0
 11
-2953.812042916055
 21
2828.999683277028
 31
0.0
  0
LINE
  5
128
330
1F
100
AcDbEntity
  8
ハッチ
  6
JWW_DASHED1
 62
   120
370
     5
100
AcDbLine
 10
-2673.151871136219
 20
2048.999683277028
 30
0.0
 11
-2598.151871136225
 21
2123.999683277028
 31
0.0
  0
LINE
  5
129
330
1F
100
AcDbEntity
  8
ハッチ
  6
JWW_DASHED1
 62
   120
370
     5
100
AcDbLine
 10
-2715.578278007439
 20
2048.999683277014
 30
0.0
 11
-2640.578278007419
 21
2123.999683277028
 31
0.0
  0
LINE
  5
12A
330
1F
100
AcDbEntity
  8
ハッチ
  6
JWW_DASHED1
 62
   120
370
     5
100
AcDbLine
 10
-2758.004684878632
 20
2048.999683277018
 30
0.0
 11
-2683.004684878615
 21
2123.999683277032
 31
0.0
  0
LINE
  5
12B
330
1F
100
AcDbEntity
  8
ハッチ
  6
JWW_DASHED1
 62
   120
370
     5
100
AcDbLine
 10
-2800.431091749771
 20
2048.999683277025
 30
0.0
 11
-2725.431091749784
 21
2123.999683277014
 31
0.0
  0
LINE
  5
12C
330
1F
100
AcDbEntity
  8
ハッチ
  6
JWW_DASHED1
 62
   120
370
     5
100
AcDbLine
 10
-2842.857498620964
 20
2048.999683277028
 30
0.0
 11
-2767.857498620978
 21
2123.999683277016
 31
0.0
  0
LINE
  5
12D
330
1F
100
AcDbEntity
  8
ハッチ
  6
JWW_DASHED1
 62
   120
370
     5
100
AcDbLine
 10
-2885.283905492164
 20
2048.999683277032
 30
0.0
 11
-2810.283905492171
 21
2123.999683277021
 31
0.0
  0
LINE
  5
12E
330
1F
100
AcDbEntity
  8
ハッチ
  6
JWW_DASHED1
 62
   120
370
     5
100
AcDbLine
 10
-2927.710312363364
 20
2048.999683277029
 30
0.0
 11
-2852.710312363371
 21
2123.999683277028
 31
0.0
  0
LINE
  5
12F
330
1F
100
AcDbEntity
  8
ハッチ
  6
JWW_DASHED1
 62
   120
370
     5
100
AcDbLine
 10
-2970.136719234557
 20
2048.999683277034
 30
0.0
 11
-2895.136719234564
 21
2123.99968327703
 31
0.0
  0
LINE
  5
130
330
1F
100
AcDbEntity
  8
ハッチ
  6
JWW_DASHED1
 62
   120
370
     5
100
AcDbLine
 10
-3012.563126105771
 20
2048.999683277022
 30
0.0
 11
-2937.563126105757
 21
2123.999683277034
 31
0.0
  0
LWPOLYLINE
  5
131
330
1F
100
AcDbEntity
  8
0-B_寸法
  6
Continuous
 62
     7
370
     9
100
AcDbPolyline
 90
        4
 70
     1
 43
6.0
 10
-1439.551467470607
 20
1973.999683277027
 42
0.4142135623731
 10
-1442.551467470607
 20
1976.999683277027
 42
0.4142135623731
 10
-1445.551467470607
 20
1973.999683277027
 42
0.4142135623731
 10
-1442.551467470607
 20
1970.999683277028
 42
0.4142135623731
  0
LWPOLYLINE
  5
132
330
1F
100
AcDbEntity
  8
0-B_寸法
  6
Continuous
 62
     7
370
     9
100
AcDbPolyline
 90
        4
 70
     1
 43
6.0
 10
-1439.551467470607
 20
2903.999683277028
 42
0.4142135623731
 10
-1442.551467470607
 20
2906.999683277027
 42
0.4142135623731
 10
-1445.551467470607
 20
2903.999683277028
 42
0.4142135623731
 10
-1442.551467470607
 20
2900.999683277028
 42
0.4142135623731
  0
LINE
  5
133
330
1F
100
AcDbEntity
  8
0-B_寸法
  6
Continuous
 62
   120
370
     5
100
AcDbLine
 10
-1442.551467470607
 20
2903.999683277028
 30
0.0
 11
-1442.551467470607
 21
1973.999683277027
 31
0.0
  0
LINE
  5
134
330
1F
100
AcDbEntity
  8
0-B_寸法
  6
Continuous
 62
   120
370
     5
100
AcDbLine
 10
-1442.551467470607
 20
1973.999683277027
 30
0.0
 11
-1649.683606294204
 21
1973.999683277027
 31
0.0
  0
LINE
  5
135
330
1F
100
AcDbEntity
  8
0-B_寸法
  6
Continuous
 62
   120
370
     5
100
AcDbLine
 10
-1442.551467470607
 20
2903.999683277028
 30
0.0
 11
-1649.683606294204
 21
2903.999683277028
 31
0.0
  0
LINE
  5
136
330
1F
100
AcDbEntity
  8
仕上げ
  6
Continuous
 62
    92
370
    13
100
AcDbLine
 10
-2576.081457156683
 20
2753.999683277038
 30
0.0
 11
-2576.081457156683
 21
2123.999683277033
 31
0.0
  0
LINE
  5
137
330
1F
100
AcDbEntity
  8
仕上げ
  6
Continuous
 62
     7
370
     9
100
AcDbLine
 10
-1946.081457156683
 20
2123.999683277033
 30
0.0
 11
-2576.081457156683
 21
2753.999683277038
 31
0.0
  0
LINE
  5
138
330
1F
100
AcDbEntity
  8
仕上げ
  6
Continuous
 62
     7
370
     9
100
AcDbLine
 10
-2576.081457156683
 20
2123.999683277033
 30
0.0
 11
-1946.081457156683
 21
2753.999683277038
 31
0.0
  0
LINE
  5
139
330
1F
100
AcDbEntity
  8
ハッチ
  6
JWW_DASHED1
 62
   120
370
     5
100
AcDbLine
 10
-2477.268753590561
 20
2753.999683277041
 30
0.0
 11
-2402.268753590564
 21
2828.999683277041
 31
0.0
  0
LINE
  5
13A
330
1F
100
AcDbEntity
  8
ハッチ
  6
JWW_DASHED1
 62
   120
370
     5
100
AcDbLine
 10
-2519.695160461778
 20
2753.999683277023
 30
0.0
 11
-2444.695160461764
 21
2828.999683277038
 31
0.0
  0
LINE
  5
13B
330
1F
100
AcDbEntity
  8
ハッチ
  6
JWW_DASHED1
 62
   120
370
     5
100
AcDbLine
 10
-2562.121567332978
 20
2753.999683277025
 30
0.0
 11
-2487.121567332964
 21
2828.999683277041
 31
0.0
  0
LINE
  5
13C
330
1F
100
AcDbEntity
  8
ハッチ
  6
JWW_DASHED1
 62
   120
370
     5
100
AcDbLine
 10
-2604.547974204116
 20
2753.99968327703
 30
0.0
 11
-2529.54797420413
 21
2828.999683277023
 31
0.0
  0
LINE
  5
13D
330
1F
100
AcDbEntity
  8
ハッチ
  6
JWW_DASHED1
 62
   120
370
     5
100
AcDbLine
 10
-2461.019836780273
 20
2048.999683277041
 30
0.0
 11
-2386.019836780273
 21
2123.999683277038
 31
0.0
  0
LINE
  5
13E
330
1F
100
AcDbEntity
  8
ハッチ
  6
JWW_DASHED1
 62
   120
370
     5
100
AcDbLine
 10
-2503.446243651483
 20
2048.999683277028
 30
0.0
 11
-2428.44624365147
 21
2123.999683277042
 31
0.0
  0
LINE
  5
13F
330
1F
100
AcDbEntity
  8
ハッチ
  6
JWW_DASHED1
 62
   120
370
     5
100
AcDbLine
 10
-2545.87265052268
 20
2048.999683277029
 30
0.0
 11
-2470.872650522666
 21
2123.999683277043
 31
0.0
  0
LINE
  5
140
330
1F
100
AcDbEntity
  8
ハッチ
  6
JWW_DASHED1
 62
   120
370
     5
100
AcDbLine
 10
-2588.299057393829
 20
2048.999683277028
 30
0.0
 11
-2513.299057393839
 21
2123.999683277019
 31
0.0
  0
LINE
  5
141
330
1F
100
AcDbEntity
  8
ハッチ
  6
JWW_DASHED1
 62
   120
370
     5
100
AcDbLine
 10
-2630.725464265029
 20
2048.999683277028
 30
0.0
 11
-2555.725464265039
 21
2123.999683277023
 31
0.0
  0
LINE
  5
142
330
1F
100
AcDbEntity
  8
ハッチ
  6
JWW_DASHED1
 62
   120
370
     5
100
AcDbLine
 10
-2343.59342990906
 20
2123.999683277033
 30
0.0
 11
-2418.59342990907
 21
2048.999683277022
 31
0.0
  0
LINE
  5
143
330
1F
100
AcDbEntity
  8
ハッチ
  6
JWW_DASHED1
 62
   120
370
     5
100
AcDbLine
 10
-2301.16702303786
 20
2123.999683277033
 30
0.0
 11
-2376.167023037856
 21
2048.999683277036
 31
0.0
  0
LINE
  5
144
330
1F
100
AcDbEntity
  8
ハッチ
  6
JWW_DASHED1
 62
   120
370
     5
100
AcDbLine
 10
-2258.740616166666
 20
2123.99968327703
 30
0.0
 11
-2333.740616166659
 21
2048.999683277033
 31
0.0
  0
LINE
  5
145
330
1F
100
AcDbEntity
  8
ハッチ
  6
JWW_DASHED1
 62
   120
370
     5
100
AcDbLine
 10
-2216.314209295524
 20
2123.999683277023
 30
0.0
 11
-2291.31420929552
 21
2048.999683277028
 31
0.0
  0
LINE
  5
146
330
1F
100
AcDbEntity
  8
ハッチ
  6
JWW_DASHED1
 62
   120
370
     5
100
AcDbLine
 10
-2173.887802424328
 20
2123.999683277019
 30
0.0
 11
-2248.887802424324
 21
2048.999683277022
 31
0.0
  0
LINE
  5
147
330
1F
100
AcDbEntity
  8
ハッチ
  6
JWW_DASHED1
 62
   120
370
     5
100
AcDbLine
 10
-2131.461395553128
 20
2123.999683277018
 30
0.0
 11
-2206.461395553124
 21
2048.999683277021
 31
0.0
  0
LINE
  5
148
330
1F
100
AcDbEntity
  8
ハッチ
  6
JWW_DASHED1
 62
   120
370
     5
100
AcDbLine
 10
-2089.034988681914
 20
2123.999683277032
 30
0.0
 11
-2164.034988681928
 21
2048.999683277018
 31
0.0
  0
LINE
  5
149
330
1F
100
AcDbEntity
  8
ハッチ
  6
JWW_DASHED1
 62
   120
370
     5
100
AcDbLine
 10
-2046.608581810714
 20
2123.999683277033
 30
0.0
 11
-2121.608581810724
 21
2048.999683277022
 31
0.0
  0
LINE
  5
14A
330
1F
100
AcDbEntity
  8
ハッチ
  6
JWW_DASHED1
 62
   120
370
     5
100
AcDbLine
 10
-2004.182174939507
 20
2123.999683277042
 30
0.0
 11
-2079.182174939507
 21
2048.999683277043
 31
0.0
  0
LINE
  5
14B
330
1F
100
AcDbEntity
  8
ハッチ
  6
JWW_DASHED1
 62
   120
370
     5
100
AcDbLine
 10
-1961.755768068307
 20
2123.999683277038
 30
0.0
 11
-2036.755768068307
 21
2048.999683277042
 31
0.0
  0
LINE
  5
14C
330
1F
100
AcDbEntity
  8
ハッチ
  6
JWW_DASHED1
 62
   120
370
     5
100
AcDbLine
 10
-1919.32936119711
 20
2123.999683277037
 30
0.0
 11
-1994.329361197107
 21
2048.999683277041
 31
0.0
  0
LINE
  5
14D
330
1F
100
AcDbEntity
  8
ハッチ
  6
JWW_DASHED1
 62
   120
370
     5
100
AcDbLine
 10
-1895.081457156689
 20
2105.821180446313
 30
0.0
 11
-1951.902954325968
 21
2048.999683277033
 31
0.0
  0
LINE
  5
14E
330
1F
100
AcDbEntity
  8
ハッチ
  6
JWW_DASHED1
 62
   120
370
     5
100
AcDbLine
 10
-1895.081457156685
 20
2063.394773575114
 30
0.0
 11
-1909.476547454772
 21
2048.999683277029
 31
0.0
  0
LINE
  5
14F
330
1F
100
AcDbEntity
  8
ハッチ
  6
JWW_DASHED1
 62
   120
370
     5
100
AcDbLine
 10
-2359.842346719371
 20
2828.999683277037
 30
0.0
 11
-2434.842346719371
 21
2753.999683277011
 31
0.0
  0
LINE
  5
150
330
1F
100
AcDbEntity
  8
ハッチ
  6
JWW_DASHED1
 62
   120
370
     5
100
AcDbLine
 10
-2317.415939848151
 20
2828.999683277033
 30
0.0
 11
-2392.415939848143
 21
2753.999683277038
 31
0.0
  0
LINE
  5
151
330
1F
100
AcDbEntity
  8
ハッチ
  6
JWW_DASHED1
 62
   120
370
     5
100
AcDbLine
 10
-2274.989532976947
 20
2828.999683277035
 30
0.0
 11
-2349.989532976947
 21
2753.999683277037
 31
0.0
  0
LINE
  5
152
330
1F
100
AcDbEntity
  8
ハッチ
  6
JWW_DASHED1
 62
   120
370
     5
100
AcDbLine
 10
-2232.563126105751
 20
2828.999683277032
 30
0.0
 11
-2307.563126105751
 21
2753.999683277033
 31
0.0
  0
LINE
  5
153
330
1F
100
AcDbEntity
  8
ハッチ
  6
JWW_DASHED1
 62
   120
370
     5
100
AcDbLine
 10
-2190.136719234557
 20
2828.99968327703
 30
0.0
 11
-2265.136719234551
 21
2753.999683277033
 31
0.0
  0
LINE
  5
154
330
1F
100
AcDbEntity
  8
ハッチ
  6
JWW_DASHED1
 62
   120
370
     5
100
AcDbLine
 10
-2147.710312363415
 20
2828.999683277023
 30
0.0
 11
-2222.710312363412
 21
2753.999683277028
 31
0.0
  0
LINE
  5
155
330
1F
100
AcDbEntity
  8
ハッチ
  6
JWW_DASHED1
 62
   120
370
     5
100
AcDbLine
 10
-2105.283905492219
 20
2828.999683277019
 30
0.0
 11
-2180.283905492215
 21
2753.999683277023
 31
0.0
  0
LINE
  5
156
330
1F
100
AcDbEntity
  8
ハッチ
  6
JWW_DASHED1
 62
   120
370
     5
100
AcDbLine
 10
-2062.857498621005
 20
2828.999683277033
 30
0.0
 11
-2137.857498621019
 21
2753.999683277019
 31
0.0
  0
LINE
  5
157
330
1F
100
AcDbEntity
  8
ハッチ
  6
JWW_DASHED1
 62
   120
370
     5
100
AcDbLine
 10
-2020.431091749805
 20
2828.999683277033
 30
0.0
 11
-2095.431091749815
 21
2753.999683277023
 31
0.0
  0
LINE
  5
158
330
1F
100
AcDbEntity
  8
ハッチ
  6
JWW_DASHED1
 62
   120
370
     5
100
AcDbLine
 10
-1978.004684878612
 20
2828.99968327703
 30
0.0
 11
-2053.004684878601
 21
2753.999683277035
 31
0.0
  0
LINE
  5
159
330
1F
100
AcDbEntity
  8
ハッチ
  6
JWW_DASHED1
 62
   120
370
     5
100
AcDbLine
 10
-1935.578278007398
 20
2828.999683277041
 30
0.0
 11
-2010.578278007398
 21
2753.999683277043
 31
0.0
  0
LINE
  5
15A
330
1F
100
AcDbEntity
  8
ハッチ
  6
JWW_DASHED1
 62
   120
370
     5
100
AcDbLine
 10
-1895.081457156696
 20
2827.070097256542
 30
0.0
 11
-1968.151871136198
 21
2753.999683277041
 31
0.0
  0
LINE
  5
15B
330
1F
100
AcDbEntity
  8
ハッチ
  6
JWW_DASHED1
 62
   120
370
     5
100
AcDbLine
 10
-1895.081457156696
 20
2784.643690385342
 30
0.0
 11
-1925.725464265001
 21
2753.999683277037
 31
0.0
  0
LINE
  5
15C
330
1F
100
AcDbEntity
  8
仕上げ
  6
Continuous
 62
    92
370
    13
100
AcDbLine
 10
-1946.081457156683
 20
2753.999683277038
 30
0.0
 11
-1946.081457156683
 21
2123.999683277033
 31
0.0
  0
LINE
  5
15D
330
1F
100
AcDbEntity
  8
0-4_枠
  6
Continuous
 62
    92
370
    13
100
AcDbLine
 10
-1751.081457156682
 20
2887.029120528543
 30
0.0
 11
-1751.081457156682
 21
2420.999683277026
 31
0.0
  0
LINE
  5
15E
330
1F
100
AcDbEntity
  8
0-4_枠
  6
Continuous
 62
    92
370
    13
100
AcDbLine
 10
-1754.081022281191
 20
2420.999683277026
 30
0.0
 11
-1754.081022281191
 21
2885.786044965933
 31
0.0
  0
LINE
  5
15F
330
1F
100
AcDbEntity
  8
0-4_枠
  6
Continuous
 62
    92
370
    13
100
AcDbLine
 10
-1751.081457156682
 20
1990.970246025499
 30
0.0
 11
-1751.081457156682
 21
2264.999683277026
 31
0.0
  0
LINE
  5
160
330
1F
100
AcDbEntity
  8
0-4_枠
  6
Continuous
 62
    92
370
    13
100
AcDbLine
 10
-1754.081022281191
 20
1992.213321588107
 30
0.0
 11
-1754.081022281191
 21
2264.999683277026
 31
0.0
  0
LINE
  5
161
330
1F
100
AcDbEntity
  8
ハッチ
  6
Continuous
 62
   120
370
     5
100
AcDbLine
 10
-1777.13943014212
 20
2264.999683277026
 30
0.0
 11
-1754.081022281191
 21
2241.941441407374
 31
0.0
  0
LINE
  5
162
330
1F
100
AcDbEntity
  8
ハッチ
  6
Continuous
 62
   120
370
     5
100
AcDbLine
 10
-1895.081457156696
 20
2382.940861258675
 30
0.0
 11
-1799.339589955099
 21
2287.199683277026
 31
0.0
  0
LINE
  5
163
330
1F
100
AcDbEntity
  8
ハッチ
  6
Continuous
 62
   120
370
     5
100
AcDbLine
 10
-1775.175812461565
 20
2398.799683277025
 30
0.0
 11
-1754.081022281191
 21
2377.704919381356
 31
0.0
  0
LINE
  5
164
330
1F
100
AcDbEntity
  8
ハッチ
  6
Continuous
 62
   120
370
     5
100
AcDbLine
 10
-1895.081457156682
 20
2518.705178566338
 30
0.0
 11
-1797.375840123423
 21
2420.999683277026
 31
0.0
  0
LINE
  5
165
330
1F
100
AcDbEntity
  8
ハッチ
  6
Continuous
 62
   120
370
     5
100
AcDbLine
 10
-1895.081457156682
 20
2450.822877886256
 30
0.0
 11
-1754.081022281191
 21
2309.822821360727
 31
0.0
  0
LINE
  5
166
330
1F
100
AcDbEntity
  8
0-4_枠
  6
Continuous
 62
    92
370
    13
100
AcDbLine
 10
-1751.081457156682
 20
2287.199683277026
 30
0.0
 11
-1751.081457156682
 21
2398.799683277025
 31
0.0
  0
LINE
  5
167
330
1F
100
AcDbEntity
  8
0-4_枠
  6
Continuous
 62
    92
370
    13
100
AcDbLine
 10
-1754.081022281191
 20
2287.199683277026
 30
0.0
 11
-1754.081022281191
 21
2398.799683277025
 31
0.0
  0
LINE
  5
168
330
1F
100
AcDbEntity
  8
0-4_枠
  6
Continuous
 62
    92
370
    13
100
AcDbLine
 10
-1802.081457156681
 20
2264.999683277026
 30
0.0
 11
-1802.081457156681
 21
2287.199683277026
 31
0.0
  0
LINE
  5
169
330
1F
100
AcDbEntity
  8
0-4_枠
  6
Continuous
 62
    92
370
    13
100
AcDbLine
 10
-1802.081457156681
 20
2398.799683277025
 30
0.0
 11
-1802.081457156681
 21
2420.999683277026
 31
0.0
  0
LINE
  5
16A
330
1F
100
AcDbEntity
  8
0-4_枠
  6
Continuous
 62
    92
370
    13
100
AcDbLine
 10
-1802.081457156681
 20
2420.999683277026
 30
0.0
 11
-1751.081457156682
 21
2420.999683277026
 31
0.0
  0
LINE
  5
16B
330
1F
100
AcDbEntity
  8
0-4_枠
  6
Continuous
 62
    92
370
    13
100
AcDbLine
 10
-1751.081457156682
 20
2398.799683277025
 30
0.0
 11
-1802.081457156681
 21
2398.799683277025
 31
0.0
  0
LINE
  5
16C
330
1F
100
AcDbEntity
  8
0-4_枠
  6
Continuous
 62
    92
370
    13
100
AcDbLine
 10
-1751.081457156682
 20
2287.199683277026
 30
0.0
 11
-1802.081457156681
 21
2287.199683277026
 31
0.0
  0
LINE
  5
16D
330
1F
100
AcDbEntity
  8
0-4_枠
  6
Continuous
 62
    92
370
    13
100
AcDbLine
 10
-1751.081457156682
 20
2264.999683277026
 30
0.0
 11
-1802.081457156681
 21
2264.999683277026
 31
0.0
  0
LINE
  5
16E
330
1F
100
AcDbEntity
  8
ハッチ
  6
Continuous
 62
   120
370
     5
100
AcDbLine
 10
-1895.081457156682
 20
2111.4116946163
 30
0.0
 11
-1764.981977467055
 21
1981.312366402244
 31
0.0
  0
LINE
  5
16F
330
1F
100
AcDbEntity
  8
ハッチ
  6
Continuous
 62
   120
370
     5
100
AcDbLine
 10
-1895.081457156682
 20
2315.055617156941
 30
0.0
 11
-1754.081022281191
 21
2174.058257953535
 31
0.0
  0
LINE
  5
170
330
1F
100
AcDbEntity
  8
ハッチ
  6
Continuous
 62
   120
370
     5
100
AcDbLine
 10
-1895.081457156682
 20
2586.587667245061
 30
0.0
 11
-1754.081022281191
 21
2445.586845294843
 31
0.0
  0
LINE
  5
171
330
1F
100
AcDbEntity
  8
ハッチ
  6
Continuous
 62
   120
370
     5
100
AcDbLine
 10
-1802.200923232584
 20
2901.000118152509
 30
0.0
 11
-1754.081022281191
 21
2852.879726306806
 31
0.0
  0
LINE
  5
172
330
1F
100
AcDbEntity
  8
ハッチ
  6
Continuous
 62
   120
370
     5
100
AcDbLine
 10
-1870.081689626535
 20
2901.000118152509
 30
0.0
 11
-1754.081022281191
 21
2784.997871295822
 31
0.0
  0
LINE
  5
173
330
1F
100
AcDbEntity
  8
ハッチ
  6
Continuous
 62
   120
370
     5
100
AcDbLine
 10
-1895.081457156682
 20
2790.235932418801
 30
0.0
 11
-1754.081022281191
 21
2649.233577625167
 31
0.0
  0
LINE
  5
174
330
1F
100
AcDbEntity
  8
ハッチ
  6
Continuous
 62
   120
370
     5
100
AcDbLine
 10
-1895.081457156682
 20
2722.353012254405
 30
0.0
 11
-1754.081022281191
 21
2581.351138965498
 31
0.0
  0
LINE
  5
175
330
1F
100
AcDbEntity
  8
ハッチ
  6
Continuous
 62
   120
370
     5
100
AcDbLine
 10
-1895.081457156682
 20
2654.470173954665
 30
0.0
 11
-1754.081022281191
 21
2513.469283954511
 31
0.0
  0
LINE
  5
176
330
1F
100
AcDbEntity
  8
ハッチ
  6
Continuous
 62
   120
370
     5
100
AcDbLine
 10
-1895.081457156682
 20
2247.175796140841
 30
0.0
 11
-1754.081022281191
 21
2106.175807849776
 31
0.0
  0
LINE
  5
177
330
1F
100
AcDbEntity
  8
ハッチ
  6
Continuous
 62
   120
370
     5
100
AcDbLine
 10
-1895.081457156682
 20
2179.293582788156
 30
0.0
 11
-1754.081022281191
 21
2038.293369190106
 31
0.0
  0
LINE
  5
178
330
1F
100
AcDbEntity
  8
0-4_枠
  6
Continuous
 62
    92
370
    13
100
AcDbLine
 10
-1895.081457156682
 20
2903.999683277019
 30
0.0
 11
-1895.081457156682
 21
1973.999683277021
 31
0.0
  0
LINE
  5
179
330
1F
100
AcDbEntity
  8
0-4_枠
  6
Continuous
 62
    92
370
    13
100
AcDbLine
 10
-1769.29450037499
 20
1976.999843494308
 30
0.0
 11
-1754.081022281191
 21
1992.213321588107
 31
0.0
  0
LINE
  5
17A
330
1F
100
AcDbEntity
  8
0-4_枠
  6
Continuous
 62
    92
370
    13
100
AcDbLine
 10
-1769.295095467479
 20
2901.00011815222
 30
0.0
 11
-1754.081022281191
 21
2885.786044965933
 31
0.0
  0
LINE
  5
17B
330
1F
100
AcDbEntity
  8
0-4_枠
  6
Continuous
 62
    92
370
    13
100
AcDbLine
 10
-1768.052019905158
 20
1973.999683277021
 30
0.0
 11
-1751.081457156682
 21
1990.970246025499
 31
0.0
  0
LINE
  5
17C
330
1F
100
AcDbEntity
  8
0-4_枠
  6
Continuous
 62
    92
370
    13
100
AcDbLine
 10
-1768.052019905158
 20
1973.999683277021
 30
0.0
 11
-1895.081457156682
 21
1973.999683277021
 31
0.0
  0
LINE
  5
17D
330
1F
100
AcDbEntity
  8
0-4_枠
  6
Continuous
 62
    92
370
    13
100
AcDbLine
 10
-1768.052019905158
 20
2903.999683277019
 30
0.0
 11
-1751.081457156682
 21
2887.029120528543
 31
0.0
  0
LINE
  5
17E
330
1F
100
AcDbEntity
  8
0-4_枠
  6
Continuous
 62
    92
370
    13
100
AcDbLine
 10
-1768.052019905158
 20
2903.999683277019
 30
0.0
 11
-1895.081457156682
 21
2903.999683277019
 31
0.0
  0
LINE
  5
17F
330
1F
100
AcDbEntity
  8
0-4_枠
  6
Continuous
 62
    92
370
    13
100
AcDbLine
 10
-1892.081457156683
 20
2063.999683277026
 30
0.0
 11
-1895.081457156682
 21
2063.999683277026
 31
0.0
  0
LINE
  5
180
330
1F
100
AcDbEntity
  8
0-4_枠
  6
Continuous
 62
    92
370
    13
100
AcDbLine
 10
-1892.081457156683
 20
2063.999683277026
 30
0.0
 11
-1892.081457156683
 21
1976.999843494312
 31
0.0
  0
LINE
  5
181
330
1F
100
AcDbEntity
  8
0-4_枠
  6
Continuous
 62
    92
370
    13
100
AcDbLine
 10
-1769.29450037499
 20
1976.999843494308
 30
0.0
 11
-1892.081457156683
 21
1976.999843494308
 31
0.0
  0
LINE
  5
182
330
1F
100
AcDbEntity
  8
0-4_枠
  6
Continuous
 62
    92
370
    13
100
AcDbLine
 10
-1892.081457156683
 20
2813.999683277019
 30
0.0
 11
-1895.081457156682
 21
2813.999683277019
 31
0.0
  0
LINE
  5
183
330
1F
100
AcDbEntity
  8
0-4_枠
  6
Continuous
 62
    92
370
    13
100
AcDbLine
 10
-1892.081457156683
 20
2813.999683277019
 30
0.0
 11
-1892.081457156683
 21
2901.000118152509
 31
0.0
  0
LINE
  5
184
330
1F
100
AcDbEntity
  8
0-4_枠
  6
Continuous
 62
    92
370
    13
100
AcDbLine
 10
-1892.081457156683
 20
2901.00011815222
 30
0.0
 11
-1769.295095467479
 21
2901.00011815222
 31
0.0
  0
LINE
  5
185
330
1F
100
AcDbEntity
  8
ハッチ
  6
Continuous
 62
   120
370
     5
100
AcDbLine
 10
-1892.081457156683
 20
2855.117275320612
 30
0.0
 11
-1754.081022281191
 21
2717.115432636152
 31
0.0
  0
LINE
  5
186
330
1F
100
AcDbEntity
  8
ハッチ
  6
Continuous
 62
   120
370
     5
100
AcDbLine
 10
-1892.081457156683
 20
2040.529542281545
 30
0.0
 11
-1828.551684401366
 21
1976.999843494308
 31
0.0
  0
LINE
  5
187
330
1F
100
AcDbEntity
  8
0-4_枠
  6
Continuous
 62
    92
370
    13
100
AcDbLine
 10
1770.918542843312
 20
2887.029120528543
 30
0.0
 11
1770.918542843312
 21
2420.999683277026
 31
0.0
  0
LINE
  5
188
330
1F
100
AcDbEntity
  8
0-4_枠
  6
Continuous
 62
    92
370
    13
100
AcDbLine
 10
1773.918107967824
 20
2420.999683277026
 30
0.0
 11
1773.918107967824
 21
2885.786044965933
 31
0.0
  0
LINE
  5
189
330
1F
100
AcDbEntity
  8
0-4_枠
  6
Continuous
 62
    92
370
    13
100
AcDbLine
 10
1770.918542843312
 20
1990.970246025497
 30
0.0
 11
1770.918542843312
 21
2264.999683277026
 31
0.0
  0
LINE
  5
18A
330
1F
100
AcDbEntity
  8
0-4_枠
  6
Continuous
 62
    92
370
    13
100
AcDbLine
 10
1773.918107967824
 20
1992.213321588107
 30
0.0
 11
1773.918107967824
 21
2264.999683277026
 31
0.0
  0
LINE
  5
18B
330
1F
100
AcDbEntity
  8
ハッチ
  6
Continuous
 62
   120
370
     5
100
AcDbLine
 10
1796.976515828754
 20
2264.999683277026
 30
0.0
 11
1773.918107967824
 21
2241.941441407374
 31
0.0
  0
LINE
  5
18C
330
1F
100
AcDbEntity
  8
ハッチ
  6
Continuous
 62
   120
370
     5
100
AcDbLine
 10
1914.918542843328
 20
2382.940861258675
 30
0.0
 11
1819.176675641731
 21
2287.199683277025
 31
0.0
  0
LINE
  5
18D
330
1F
100
AcDbEntity
  8
ハッチ
  6
Continuous
 62
   120
370
     5
100
AcDbLine
 10
1795.012898148198
 20
2398.799683277025
 30
0.0
 11
1773.918107967824
 21
2377.704919381356
 31
0.0
  0
LINE
  5
18E
330
1F
100
AcDbEntity
  8
ハッチ
  6
Continuous
 62
   120
370
     5
100
AcDbLine
 10
1914.918542843315
 20
2518.705178566338
 30
0.0
 11
1817.212925810054
 21
2420.999683277026
 31
0.0
  0
LINE
  5
18F
330
1F
100
AcDbEntity
  8
ハッチ
  6
Continuous
 62
   120
370
     5
100
AcDbLine
 10
1914.918542843315
 20
2450.822877886256
 30
0.0
 11
1773.918107967824
 21
2309.822821360726
 31
0.0
  0
LINE
  5
190
330
1F
100
AcDbEntity
  8
0-4_枠
  6
Continuous
 62
    92
370
    13
100
AcDbLine
 10
1770.918542843312
 20
2287.199683277026
 30
0.0
 11
1770.918542843312
 21
2398.799683277025
 31
0.0
  0
LINE
  5
191
330
1F
100
AcDbEntity
  8
0-4_枠
  6
Continuous
 62
    92
370
    13
100
AcDbLine
 10
1773.918107967824
 20
2287.199683277026
 30
0.0
 11
1773.918107967824
 21
2398.799683277025
 31
0.0
  0
LINE
  5
192
330
1F
100
AcDbEntity
  8
0-4_枠
  6
Continuous
 62
    92
370
    13
100
AcDbLine
 10
1821.918542843314
 20
2264.999683277026
 30
0.0
 11
1821.918542843314
 21
2287.199683277026
 31
0.0
  0
LINE
  5
193
330
1F
100
AcDbEntity
  8
0-4_枠
  6
Continuous
 62
    92
370
    13
100
AcDbLine
 10
1821.918542843314
 20
2398.799683277025
 30
0.0
 11
1821.918542843314
 21
2420.999683277026
 31
0.0
  0
LINE
  5
194
330
1F
100
AcDbEntity
  8
0-4_枠
  6
Continuous
 62
    92
370
    13
100
AcDbLine
 10
1821.918542843314
 20
2420.999683277026
 30
0.0
 11
1770.918542843312
 21
2420.999683277026
 31
0.0
  0
LINE
  5
195
330
1F
100
AcDbEntity
  8
0-4_枠
  6
Continuous
 62
    92
370
    13
100
AcDbLine
 10
1770.918542843312
 20
2398.799683277025
 30
0.0
 11
1821.918542843314
 21
2398.799683277025
 31
0.0
  0
LINE
  5
196
330
1F
100
AcDbEntity
  8
0-4_枠
  6
Continuous
 62
    92
370
    13
100
AcDbLine
 10
1770.918542843312
 20
2287.199683277026
 30
0.0
 11
1821.918542843314
 21
2287.199683277026
 31
0.0
  0
LINE
  5
197
330
1F
100
AcDbEntity
  8
0-4_枠
  6
Continuous
 62
    92
370
    13
100
AcDbLine
 10
1770.918542843312
 20
2264.999683277026
 30
0.0
 11
1821.918542843314
 21
2264.999683277026
 31
0.0
  0
LINE
  5
198
330
1F
100
AcDbEntity
  8
ハッチ
  6
Continuous
 62
   120
370
     5
100
AcDbLine
 10
1914.918542843315
 20
2111.411694616299
 30
0.0
 11
1784.819063153689
 21
1981.312366402244
 31
0.0
  0
LINE
  5
199
330
1F
100
AcDbEntity
  8
ハッチ
  6
Continuous
 62
   120
370
     5
100
AcDbLine
 10
1914.918542843315
 20
2315.055617156941
 30
0.0
 11
1773.918107967824
 21
2174.058257953535
 31
0.0
  0
LINE
  5
19A
330
1F
100
AcDbEntity
  8
ハッチ
  6
Continuous
 62
   120
370
     5
100
AcDbLine
 10
1914.918542843315
 20
2586.587667245061
 30
0.0
 11
1773.918107967824
 21
2445.586845294843
 31
0.0
  0
LINE
  5
19B
330
1F
100
AcDbEntity
  8
ハッチ
  6
Continuous
 62
   120
370
     5
100
AcDbLine
 10
1822.038008919217
 20
2901.000118152509
 30
0.0
 11
1773.918107967824
 21
2852.879726306806
 31
0.0
  0
LINE
  5
19C
330
1F
100
AcDbEntity
  8
ハッチ
  6
Continuous
 62
   120
370
     5
100
AcDbLine
 10
1889.918775313167
 20
2901.000118152509
 30
0.0
 11
1773.918107967824
 21
2784.997871295822
 31
0.0
  0
LINE
  5
19D
330
1F
100
AcDbEntity
  8
ハッチ
  6
Continuous
 62
   120
370
     5
100
AcDbLine
 10
1914.918542843315
 20
2790.235932418801
 30
0.0
 11
1773.918107967824
 21
2649.233577625167
 31
0.0
  0
LINE
  5
19E
330
1F
100
AcDbEntity
  8
ハッチ
  6
Continuous
 62
   120
370
     5
100
AcDbLine
 10
1914.918542843315
 20
2722.353012254405
 30
0.0
 11
1773.918107967824
 21
2581.351138965498
 31
0.0
  0
LINE
  5
19F
330
1F
100
AcDbEntity
  8
ハッチ
  6
Continuous
 62
   120
370
     5
100
AcDbLine
 10
1914.918542843315
 20
2654.470173954663
 30
0.0
 11
1773.918107967824
 21
2513.46928395451
 31
0.0
  0
LINE
  5
1A0
330
1F
100
AcDbEntity
  8
ハッチ
  6
Continuous
 62
   120
370
     5
100
AcDbLine
 10
1914.918542843315
 20
2247.175796140841
 30
0.0
 11
1773.918107967824
 21
2106.175807849775
 31
0.0
  0
LINE
  5
1A1
330
1F
100
AcDbEntity
  8
ハッチ
  6
Continuous
 62
   120
370
     5
100
AcDbLine
 10
1914.918542843315
 20
2179.293582788155
 30
0.0
 11
1773.918107967824
 21
2038.293369190105
 31
0.0
  0
LINE
  5
1A2
330
1F
100
AcDbEntity
  8
0-4_枠
  6
Continuous
 62
    92
370
    13
100
AcDbLine
 10
1914.918542843315
 20
2903.999683277019
 30
0.0
 11
1914.918542843315
 21
1973.999683277021
 31
0.0
  0
LINE
  5
1A3
330
1F
100
AcDbEntity
  8
0-4_枠
  6
Continuous
 62
    92
370
    13
100
AcDbLine
 10
1789.131586061624
 20
1976.999843494308
 30
0.0
 11
1773.918107967824
 21
1992.213321588107
 31
0.0
  0
LINE
  5
1A4
330
1F
100
AcDbEntity
  8
0-4_枠
  6
Continuous
 62
    92
370
    13
100
AcDbLine
 10
1789.132181154112
 20
2901.00011815222
 30
0.0
 11
1773.918107967824
 21
2885.786044965933
 31
0.0
  0
LINE
  5
1A5
330
1F
100
AcDbEntity
  8
0-4_枠
  6
Continuous
 62
    92
370
    13
100
AcDbLine
 10
1787.889105591792
 20
1973.999683277021
 30
0.0
 11
1770.918542843312
 21
1990.970246025499
 31
0.0
  0
LINE
  5
1A6
330
1F
100
AcDbEntity
  8
0-4_枠
  6
Continuous
 62
    92
370
    13
100
AcDbLine
 10
1787.889105591792
 20
1973.999683277021
 30
0.0
 11
1914.918542843315
 21
1973.999683277021
 31
0.0
  0
LINE
  5
1A7
330
1F
100
AcDbEntity
  8
0-4_枠
  6
Continuous
 62
    92
370
    13
100
AcDbLine
 10
1787.889105591792
 20
2903.999683277019
 30
0.0
 11
1770.918542843312
 21
2887.029120528543
 31
0.0
  0
LINE
  5
1A8
330
1F
100
AcDbEntity
  8
0-4_枠
  6
Continuous
 62
    92
370
    13
100
AcDbLine
 10
1787.889105591792
 20
2903.999683277019
 30
0.0
 11
1914.918542843315
 21
2903.999683277019
 31
0.0
  0
LINE
  5
1A9
330
1F
100
AcDbEntity
  8
0-4_枠
  6
Continuous
 62
    92
370
    13
100
AcDbLine
 10
1911.918542843317
 20
2063.999683277026
 30
0.0
 11
1911.918542843317
 21
1976.999843494312
 31
0.0
  0
LINE
  5
1AA
330
1F
100
AcDbEntity
  8
0-4_枠
  6
Continuous
 62
    92
370
    13
100
AcDbLine
 10
1911.918542843317
 20
2063.999683277026
 30
0.0
 11
1914.918542843318
 21
2063.999683277026
 31
0.0
  0
LINE
  5
1AB
330
1F
100
AcDbEntity
  8
0-4_枠
  6
Continuous
 62
    92
370
    13
100
AcDbLine
 10
1789.131586061624
 20
1976.999843494308
 30
0.0
 11
1911.918542843317
 21
1976.999843494308
 31
0.0
  0
LINE
  5
1AC
330
1F
100
AcDbEntity
  8
0-4_枠
  6
Continuous
 62
    92
370
    13
100
AcDbLine
 10
1911.918542843317
 20
2813.999683277019
 30
0.0
 11
1911.918542843317
 21
2901.000118152509
 31
0.0
  0
LINE
  5
1AD
330
1F
100
AcDbEntity
  8
0-4_枠
  6
Continuous
 62
    92
370
    13
100
AcDbLine
 10
1911.918542843317
 20
2813.999683277019
 30
0.0
 11
1914.918542843318
 21
2813.999683277019
 31
0.0
  0
LINE
  5
1AE
330
1F
100
AcDbEntity
  8
0-4_枠
  6
Continuous
 62
    92
370
    13
100
AcDbLine
 10
1911.918542843317
 20
2901.00011815222
 30
0.0
 11
1789.132181154112
 21
2901.00011815222
 31
0.0
  0
LINE
  5
1AF
330
1F
100
AcDbEntity
  8
ハッチ
  6
Continuous
 62
   120
370
     5
100
AcDbLine
 10
1911.918542843317
 20
2040.529542281547
 30
0.0
 11
1848.388770087998
 21
1976.999843494308
 31
0.0
  0
LINE
  5
1B0
330
1F
100
AcDbEntity
  8
ハッチ
  6
Continuous
 62
   120
370
     5
100
AcDbLine
 10
1911.918542843317
 20
2855.117275320615
 30
0.0
 11
1773.918107967824
 21
2717.115432636152
 31
0.0
  0
LINE
  5
1B1
330
1F
100
AcDbEntity
  8
仕上げ
  6
Continuous
 62
     7
370
     9
100
AcDbLine
 10
2235.918542843317
 20
2753.999683277028
 30
0.0
 11
1965.918542843317
 21
2123.999683277028
 31
0.0
  0
LWPOLYLINE
  5
1B2
330
1F
100
AcDbEntity
  8
0-B_寸法
  6
Continuous
 62
     7
370
     9
100
AcDbPolyline
 90
        4
 70
     1
 43
6.0
 10
-1892.081457156682
 20
803.9996832770273
 42
0.4142135623731
 10
-1895.081457156682
 20
806.9996832770274
 42
0.4142135623731
 10
-1898.081457156682
 20
803.9996832770273
 42
0.4142135623731
 10
-1895.081457156682
 20
800.9996832770273
 42
0.4142135623731
  0
LINE
  5
1B3
330
1F
100
AcDbEntity
  8
0-B_寸法
  6
Continuous
 62
   120
370
     5
100
AcDbLine
 10
1914.918542843316
 20
803.9996832770273
 30
0.0
 11
1914.918542843316
 21
1793.999683277027
 31
0.0
  0
LWPOLYLINE
  5
1B4
330
1F
100
AcDbEntity
  8
0-B_寸法
  6
Continuous
 62
     7
370
     9
100
AcDbPolyline
 90
        4
 70
     1
 43
6.0
 10
1917.918542843316
 20
803.9996832770273
 42
0.4142135623731
 10
1914.918542843316
 20
806.9996832770274
 42
0.4142135623731
 10
1911.918542843316
 20
803.9996832770273
 42
0.4142135623731
 10
1914.918542843316
 20
800.9996832770273
 42
0.4142135623731
  0
LINE
  5
1B5
330
1F
100
AcDbEntity
  8
0-B_寸法
  6
Continuous
 62
   120
370
     5
100
AcDbLine
 10
-1895.081457156682
 20
803.9996832770273
 30
0.0
 11
-1895.081457156682
 21
1793.999683277027
 31
0.0
  0
LINE
  5
1B6
330
1F
100
AcDbEntity
  8
0-B_寸法
  6
Continuous
 62
   120
370
     5
100
AcDbLine
 10
1770.918542843317
 20
1223.999683277027
 30
0.0
 11
-1751.081457156683
 21
1223.999683277027
 31
0.0
  0
LINE
  5
1B7
330
1F
100
AcDbEntity
  8
0-B_寸法
  6
Continuous
 62
   120
370
     5
100
AcDbLine
 10
1770.918542843317
 20
1013.999683277027
 30
0.0
 11
1770.918542843317
 21
1793.999683277027
 31
0.0
  0
LWPOLYLINE
  5
1B8
330
1F
100
AcDbEntity
  8
0-B_寸法
  6
Continuous
 62
     7
370
     9
100
AcDbPolyline
 90
        4
 70
     1
 43
6.0
 10
1773.918542843318
 20
1013.999683277027
 42
0.4142135623731
 10
1770.918542843317
 20
1016.999683277027
 42
0.4142135623731
 10
1767.918542843317
 20
1013.999683277027
 42
0.4142135623731
 10
1770.918542843317
 20
1010.999683277027
 42
0.4142135623731
  0
LWPOLYLINE
  5
1B9
330
1F
100
AcDbEntity
  8
0-B_寸法
  6
Continuous
 62
     7
370
     9
100
AcDbPolyline
 90
        4
 70
     1
 43
6.0
 10
1917.918542843316
 20
1013.999683277027
 42
0.4142135623731
 10
1914.918542843316
 20
1016.999683277027
 42
0.4142135623731
 10
1911.918542843316
 20
1013.999683277027
 42
0.4142135623731
 10
1914.918542843316
 20
1010.999683277027
 42
0.4142135623731
  0
LINE
  5
1BA
330
1F
100
AcDbEntity
  8
0-B_寸法
  6
Continuous
 62
   120
370
     5
100
AcDbLine
 10
1914.918542843316
 20
1013.999683277027
 30
0.0
 11
-1895.081457156682
 21
1013.999683277027
 31
0.0
  0
LINE
  5
1BB
330
1F
100
AcDbEntity
  8
0-B_寸法
  6
Continuous
 62
   120
370
     5
100
AcDbLine
 10
-1751.081457156683
 20
1013.999683277027
 30
0.0
 11
-1751.081457156683
 21
1793.999683277027
 31
0.0
  0
LWPOLYLINE
  5
1BC
330
1F
100
AcDbEntity
  8
0-B_寸法
  6
Continuous
 62
     7
370
     9
100
AcDbPolyline
 90
        4
 70
     1
 43
6.0
 10
-1892.081457156682
 20
1013.999683277027
 42
0.4142135623731
 10
-1895.081457156682
 20
1016.999683277027
 42
0.4142135623731
 10
-1898.081457156682
 20
1013.999683277027
 42
0.4142135623731
 10
-1895.081457156682
 20
1010.999683277027
 42
0.4142135623731
  0
LWPOLYLINE
  5
1BD
330
1F
100
AcDbEntity
  8
0-B_寸法
  6
Continuous
 62
     7
370
     9
100
AcDbPolyline
 90
        4
 70
     1
 43
6.0
 10
-1748.081457156683
 20
1013.999683277027
 42
0.4142135623731
 10
-1751.081457156683
 20
1016.999683277027
 42
0.4142135623731
 10
-1754.081457156683
 20
1013.999683277027
 42
0.4142135623731
 10
-1751.081457156683
 20
1010.999683277027
 42
0.4142135623731
  0
LINE
  5
1BE
330
1F
100
AcDbEntity
  8
0-B_寸法
  6
Continuous
 62
   120
370
     5
100
AcDbLine
 10
1758.918542843318
 20
1223.999683277027
 30
0.0
 11
1758.918542843318
 21
1793.999683277027
 31
0.0
  0
LWPOLYLINE
  5
1BF
330
1F
100
AcDbEntity
  8
0-B_寸法
  6
Continuous
 62
     7
370
     9
100
AcDbPolyline
 90
        4
 70
     1
 43
6.0
 10
1761.918542843318
 20
1223.999683277027
 42
0.4142135623731
 10
1758.918542843318
 20
1226.999683277027
 42
0.4142135623731
 10
1755.918542843318
 20
1223.999683277027
 42
0.4142135623731
 10
1758.918542843318
 20
1220.999683277027
 42
0.4142135623731
  0
LWPOLYLINE
  5
1C0
330
1F
100
AcDbEntity
  8
0-B_寸法
  6
Continuous
 62
     7
370
     9
100
AcDbPolyline
 90
        4
 70
     1
 43
6.0
 10
1773.918542843318
 20
1223.999683277027
 42
0.4142135623731
 10
1770.918542843317
 20
1226.999683277027
 42
0.4142135623731
 10
1767.918542843317
 20
1223.999683277027
 42
0.4142135623731
 10
1770.918542843317
 20
1220.999683277027
 42
0.4142135623731
  0
LINE
  5
1C1
330
1F
100
AcDbEntity
  8
0-B_寸法
  6
Continuous
 62
   120
370
     5
100
AcDbLine
 10
-1721.081457156683
 20
1223.999683277027
 30
0.0
 11
-1721.081457156683
 21
1793.999683277027
 31
0.0
  0
LWPOLYLINE
  5
1C2
330
1F
100
AcDbEntity
  8
0-B_寸法
  6
Continuous
 62
     7
370
     9
100
AcDbPolyline
 90
        4
 70
     1
 43
6.0
 10
-1748.081457156683
 20
1223.999683277027
 42
0.4142135623731
 10
-1751.081457156683
 20
1226.999683277027
 42
0.4142135623731
 10
-1754.081457156683
 20
1223.999683277027
 42
0.4142135623731
 10
-1751.081457156683
 20
1220.999683277027
 42
0.4142135623731
  0
LWPOLYLINE
  5
1C3
330
1F
100
AcDbEntity
  8
0-B_寸法
  6
Continuous
 62
     7
370
     9
100
AcDbPolyline
 90
        4
 70
     1
 43
6.0
 10
-1718.081457156683
 20
1223.999683277027
 42
0.4142135623731
 10
-1721.081457156683
 20
1226.999683277027
 42
0.4142135623731
 10
-1724.081457156683
 20
1223.999683277027
 42
0.4142135623731
 10
-1721.081457156683
 20
1220.999683277027
 42
0.4142135623731
  0
LINE
  5
1C4
330
1F
100
AcDbEntity
  8
0-B_寸法
  6
Continuous
 62
   120
370
     5
100
AcDbLine
 10
1914.918542843316
 20
803.9996832770273
 30
0.0
 11
-1895.081457156682
 21
803.9996832770273
 31
0.0
  0
LINE
  5
1C5
330
1F
100
AcDbEntity
  8
0-B_寸法
  6
Continuous
 62
   120
370
     5
100
AcDbLine
 10
-1691.081560153507
 20
1433.999683277026
 30
0.0
 11
1410.949618813217
 21
1433.999683277026
 31
0.0
  0
LWPOLYLINE
  5
1C6
330
1F
100
AcDbEntity
  8
0-B_寸法
  6
Continuous
 62
     7
370
     9
100
AcDbPolyline
 90
        4
 70
     1
 43
6.0
 10
-1688.081560153507
 20
1433.999683277026
 42
0.4142135623731
 10
-1691.081560153507
 20
1436.999683277026
 42
0.4142135623731
 10
-1694.081560153507
 20
1433.999683277026
 42
0.4142135623731
 10
-1691.081560153507
 20
1430.999683277026
 42
0.4142135623731
  0
LWPOLYLINE
  5
1C7
330
1F
100
AcDbEntity
  8
0-B_寸法
  6
Continuous
 62
     7
370
     9
100
AcDbPolyline
 90
        4
 70
     1
 43
6.0
 10
1413.949618813217
 20
1433.999683277026
 42
0.4142135623731
 10
1410.949618813217
 20
1436.999683277026
 42
0.4142135623731
 10
1407.949618813217
 20
1433.999683277026
 42
0.4142135623731
 10
1410.949618813217
 20
1430.999683277026
 42
0.4142135623731
  0
LINE
  5
1C8
330
1F
100
AcDbEntity
  8
0-B_寸法
  6
Continuous
 62
   120
370
     5
100
AcDbLine
 10
-1691.081560153507
 20
1433.999683277026
 30
0.0
 11
-1691.081560153507
 21
1793.999683277027
 31
0.0
  0
LINE
  5
1C9
330
1F
100
AcDbEntity
  8
0-B_寸法
  6
Continuous
 62
   120
370
     5
100
AcDbLine
 10
1410.949618813217
 20
1433.999683277026
 30
0.0
 11
1410.949618813217
 21
1793.999683277027
 31
0.0
  0
TEXT
  5
1CA
330
1F
100
AcDbEntity
  8
0-A_文字
  6
Continuous
 62
     7
370
     9
100
AcDbText
 10
-3095.081457156685
 20
3228.357783538348
 30
0.0
 40
91.44
  1
■横断面図
 41
1.1
  7
ＭＳ ゴシック
100
AcDbText
  0
TEXT
  5
1CB
330
1F
100
AcDbEntity
  8
0-A_文字
  6
Continuous
 62
     7
370
     9
100
AcDbText
 10
-2255.081457156682
 20
1840.919683277027
 30
0.0
 40
91.44
  1
（ラッチ側）
  7
ＭＳ ゴシック
100
AcDbText
  0
TEXT
  5
1CC
330
1F
100
AcDbEntity
  8
0-A_文字
  6
Continuous
 62
     7
370
     9
100
AcDbText
 10
1751.009138890101
 20
1829.551515849175
 30
0.0
 40
91.44
  1
（丁番側）
 41
1.1
  7
ＭＳ ゴシック
100
AcDbText
  0
TEXT
  5
1CD
330
1F
100
AcDbEntity
  8
0-A_文字
  6
Continuous
 62
     7
370
     9
100
AcDbText
 10
1553.746902933049
 20
644.1224190781506
 30
0.0
 40
68.58
  1
※図示：右吊り元
  7
ＭＳ ゴシック
100
AcDbText
  0
TEXT
  5
1CE
330
1F
100
AcDbEntity
  8
0-B_寸法
  6
Continuous
 62
     7
370
     0
100
AcDbText
 10
-1474.471467470607
 20
2348.999683277028
 30
0.0
 40
91.44
  1
155
 50
90.0
  7
ＭＳ ゴシック
100
AcDbText
  0
TEXT
  5
1CF
330
1F
100
AcDbEntity
  8
0-B_寸法
  6
Continuous
 62
     7
370
   211
100
AcDbText
 10
-1712.166976120605
 20
1255.919683277027
 30
0.0
 40
91.44
  1
5
  7
ＭＳ ゴシック
100
AcDbText
  0
TEXT
  5
1D0
330
1F
100
AcDbEntity
  8
0-B_寸法
  6
Continuous
 62
     7
370
   211
100
AcDbText
 10
1687.543914483338
 20
1255.919683277027
 30
0.0
 40
91.44
  1
2
  7
ＭＳ ゴシック
100
AcDbText
  0
TEXT
  5
1D1
330
1F
100
AcDbEntity
  8
0-B_寸法
  6
Continuous
 62
     7
370
   211
100
AcDbText
 10
-1883.081457156683
 20
1045.919683277027
 30
0.0
 40
91.44
  1
24
  7
ＭＳ ゴシック
100
AcDbText
  0
TEXT
  5
1D2
330
1F
100
AcDbEntity
  8
0-B_寸法
  6
Continuous
 62
     7
370
   211
100
AcDbText
 10
1782.918542843317
 20
1045.919683277027
 30
0.0
 40
91.44
  1
24
  7
ＭＳ ゴシック
100
AcDbText
  0
LWPOLYLINE
  5
1D3
330
1F
100
AcDbEntity
  8
0-B_寸法
  6
Continuous
 62
     7
370
     9
100
AcDbPolyline
 90
        4
 70
     1
 43
6.0
 10
-1048.146349003603
 20
2033.999683277021
 42
0.4142135623731
 10
-1051.146349003603
 20
2036.999683277021
 42
0.4142135623731
 10
-1054.146349003603
 20
2033.999683277021
 42
0.4142135623731
 10
-1051.146349003603
 20
2030.999683277022
 42
0.4142135623731
  0
LWPOLYLINE
  5
1D4
330
1F
100
AcDbEntity
  8
0-B_寸法
  6
Continuous
 62
     7
370
     9
100
AcDbPolyline
 90
        4
 70
     1
 43
6.0
 10
-1048.146349003603
 20
2249.999683277022
 42
0.4142135623731
 10
-1051.146349003603
 20
2252.999683277022
 42
0.4142135623731
 10
-1054.146349003603
 20
2249.999683277022
 42
0.4142135623731
 10
-1051.146349003603
 20
2246.999683277022
 42
0.4142135623731
  0
LINE
  5
1D5
330
1F
100
AcDbEntity
  8
0-B_寸法
  6
Continuous
 62
   120
370
     5
100
AcDbLine
 10
-1051.146349003603
 20
2249.999683277022
 30
0.0
 11
-1051.146349003603
 21
2033.999683277021
 31
0.0
  0
LINE
  5
1D6
330
1F
100
AcDbEntity
  8
0-6_扉
  6
Continuous
 62
   200
370
    20
100
AcDbLine
 10
78.91854284331657
 20
2249.999683277022
 30
0.0
 11
1758.918542843318
 21
2249.999683277022
 31
0.0
  0
LINE
  5
1D7
330
1F
100
AcDbEntity
  8
0-6_扉
  6
Continuous
 62
   200
370
    20
100
AcDbLine
 10
-1721.081457156683
 20
2249.999683277022
 30
0.0
 11
-41.08145715668343
 21
2249.999683277022
 31
0.0
  0
LINE
  5
1D8
330
1F
100
AcDbEntity
  8
0-6_扉
  6
Continuous
 62
   200
370
    20
100
AcDbLine
 10
78.91854284331657
 20
2033.999683277021
 30
0.0
 11
1758.918542843318
 21
2033.999683277021
 31
0.0
  0
LINE
  5
1D9
330
1F
100
AcDbEntity
  8
0-6_扉
  6
Continuous
 62
   200
370
    20
100
AcDbLine
 10
-1721.081457156683
 20
2033.999683277021
 30
0.0
 11
-41.08145715668343
 21
2033.999683277021
 31
0.0
  0
LINE
  5
1DA
330
1F
100
AcDbEntity
  8
0-6_扉
  6
Continuous
 62
   200
370
    20
100
AcDbLine
 10
1758.918542843318
 20
2249.999683277022
 30
0.0
 11
1758.918542843318
 21
2033.999683277021
 31
0.0
  0
LINE
  5
1DB
330
1F
100
AcDbEntity
  8
0-6_扉
  6
Continuous
 62
   200
370
    20
100
AcDbLine
 10
-1721.081457156683
 20
2033.999683277021
 30
0.0
 11
-1721.081457156683
 21
2249.999683277022
 31
0.0
  0
LINE
  5
1DC
330
1F
100
AcDbEntity
  8
0-0_補助線
  6
JWW_HOJO
 62
   120
370
     5
100
AcDbLine
 10
3114.918542843318
 20
2141.999683277022
 30
0.0
 11
-3095.081457156685
 21
2141.999683277022
 31
0.0
  0
LINE
  5
1DD
330
1F
100
AcDbEntity
  8
0-6_扉
  6
JWW_DASHED2
 62
   200
370
    20
100
AcDbLine
 10
1410.949618813217
 20
1877.448156947578
 30
0.0
 11
1626.949618813217
 21
1877.448156947578
 31
0.0
  0
CIRCLE
  5
1DE
330
1F
100
AcDbEntity
  8
0-7_金物
  6
Continuous
 62
     7
370
     9
100
AcDbCircle
 10
1753.209843992984
 20
1871.73945809725
 30
0.0
 40
30.0
  0
CIRCLE
  5
1DF
330
1F
100
AcDbEntity
  8
0-7_金物
  6
Continuous
 62
     7
370
     9
100
AcDbCircle
 10
1753.209843992984
 20
1871.73945809725
 30
0.0
 40
21.00000000000001
  0
TEXT
  5
1E0
330
1F
100
AcDbEntity
  8
0-B_寸法
  6
Continuous
 62
     7
370
   211
100
AcDbText
 10
-1083.066349003603
 20
2081.999683277022
 30
0.0
 40
91.44
  1
36
 50
90.0
  7
ＭＳ ゴシック
100
AcDbText
  0
LINE
  5
1E1
330
1F
100
AcDbEntity
  8
0-6_扉
  6
JWW_DASHED2
 62
   200
370
    20
100
AcDbLine
 10
1410.949618813217
 20
1877.448156947578
 30
0.0
 11
1410.949618813217
 21
1793.999683277027
 31
0.0
  0
LINE
  5
1E2
330
1F
100
AcDbEntity
  8
0-6_扉
  6
JWW_DASHED2
 62
   200
370
    20
100
AcDbLine
 10
1626.949618813217
 20
1877.448156947578
 30
0.0
 11
1626.949618813217
 21
1793.999683277027
 31
0.0
  0
INSERT
  5
1E3
330
1F
100
AcDbEntity
  8
0-0_補助線
  6
Continuous
 62
     7
370
     9
100
AcDbBlockReference
  2
01@@SfigorgFlag@@4_0-0_
 10
1770.041093606549
 20
2342.999683277025
 30
0.0
 41
-30.0
 42
30.0
 50
270.0
  0
INSERT
  5
1E4
330
1F
100
AcDbEntity
  8
0-0_補助線
  6
Continuous
 62
     7
370
     9
100
AcDbBlockReference
  2
2@@SfigorgFlag@@4_0-0_
 10
-1750.155379081672
 20
2333.530998685455
 30
0.0
 41
-30.0
 42
30.0
  0
LINE
  5
1E5
330
1F
100
AcDbEntity
  8
0-A_文字
  6
Continuous
 62
    92
370
    13
100
AcDbLine
 10
4083.835838693024
 20
3730.000181455871
 30
0.0
 11
4083.835838693024
 21
2764.000181455871
 31
0.0
  0
LINE
  5
1E6
330
1F
100
AcDbEntity
  8
0-A_文字
  6
Continuous
 62
    92
370
    13
100
AcDbLine
 10
4083.835838693024
 20
3604.000181455871
 30
0.0
 11
5679.835838693025
 21
3604.000181455871
 31
0.0
  0
LINE
  5
1E7
330
1F
100
AcDbEntity
  8
0-A_文字
  6
Continuous
 62
    92
370
    13
100
AcDbLine
 10
5679.835838693025
 20
3730.000181455871
 30
0.0
 11
4083.835838693024
 21
3730.000181455871
 31
0.0
  0
LINE
  5
1E8
330
1F
100
AcDbEntity
  8
0-A_文字
  6
Continuous
 62
    92
370
    13
100
AcDbLine
 10
5679.835838693025
 20
3730.000181455871
 30
0.0
 11
5679.835838693025
 21
2764.000181455871
 31
0.0
  0
LINE
  5
1E9
330
1F
100
AcDbEntity
  8
0-A_文字
  6
Continuous
 62
    92
370
    13
100
AcDbLine
 10
5679.835838693025
 20
2764.000181455871
 30
0.0
 11
4083.835838693024
 21
2764.000181455871
 31
0.0
  0
LINE
  5
1EA
330
1F
100
AcDbEntity
  8
0-A_文字
  6
Continuous
 62
    92
370
    13
100
AcDbLine
 10
4881.835838693025
 20
3730.000181455871
 30
0.0
 11
4881.835838693025
 21
2764.000181455871
 31
0.0
  0
LINE
  5
1EB
330
1F
100
AcDbEntity
  8
0-0_補助線
  6
JWW_HOJO
 62
   120
370
     5
100
AcDbLine
 10
5658.835838693023
 20
3730.000181455871
 30
0.0
 11
5658.835838693023
 21
2764.000181455871
 31
0.0
  0
LINE
  5
1EC
330
1F
100
AcDbEntity
  8
0-0_補助線
  6
JWW_HOJO
 62
   120
370
     5
100
AcDbLine
 10
4902.835838693029
 20
3730.000181455871
 30
0.0
 11
4902.835838693029
 21
2764.000181455871
 31
0.0
  0
LINE
  5
1ED
330
1F
100
AcDbEntity
  8
戸当り
  6
Continuous
 62
    40
370
    15
100
AcDbLine
 10
5436.235838693025
 20
3481.846273380329
 30
0.0
 11
5658.835838693023
 21
3481.846273380329
 31
0.0
  0
LINE
  5
1EE
330
1F
100
AcDbEntity
  8
戸当り
  6
Continuous
 62
    40
370
    15
100
AcDbLine
 10
5436.235838693025
 20
3481.846273380329
 30
0.0
 11
5436.235838693025
 21
3444.04627338033
 31
0.0
  0
LINE
  5
1EF
330
1F
100
AcDbEntity
  8
戸当り
  6
Continuous
 62
    40
370
    15
100
AcDbLine
 10
5125.435838693024
 20
3481.846273380329
 30
0.0
 11
4902.835838693029
 21
3481.846273380329
 31
0.0
  0
LINE
  5
1F0
330
1F
100
AcDbEntity
  8
戸当り
  6
Continuous
 62
    40
370
    15
100
AcDbLine
 10
4638.235838693025
 20
3481.846273380329
 30
0.0
 11
4860.835838693027
 21
3481.846273380329
 31
0.0
  0
LINE
  5
1F1
330
1F
100
AcDbEntity
  8
戸当り
  6
Continuous
 62
    40
370
    15
100
AcDbLine
 10
4327.435838693027
 20
3481.846273380329
 30
0.0
 11
4327.435838693027
 21
3444.04627338033
 31
0.0
  0
LINE
  5
1F2
330
1F
100
AcDbEntity
  8
戸当り
  6
Continuous
 62
    40
370
    15
100
AcDbLine
 10
4327.435838693027
 20
3481.846273380329
 30
0.0
 11
4104.835838693025
 21
3481.846273380329
 31
0.0
  0
LINE
  5
1F3
330
1F
100
AcDbEntity
  8
0-0_補助線
  6
JWW_HOJO
 62
   120
370
     5
100
AcDbLine
 10
4860.835838693027
 20
3730.000181455871
 30
0.0
 11
4860.835838693027
 21
2764.000181455871
 31
0.0
  0
LINE
  5
1F4
330
1F
100
AcDbEntity
  8
0-0_補助線
  6
JWW_HOJO
 62
   120
370
     5
100
AcDbLine
 10
4104.835838693025
 20
3730.000181455871
 30
0.0
 11
4104.835838693025
 21
2764.000181455871
 31
0.0
  0
LINE
  5
1F5
330
1F
100
AcDbEntity
  8
戸当り
  6
Continuous
 62
    40
370
    15
100
AcDbLine
 10
4104.835838693025
 20
3444.04627338033
 30
0.0
 11
4860.835838693027
 21
3444.04627338033
 31
0.0
  0
LINE
  5
1F6
330
1F
100
AcDbEntity
  8
戸当り
  6
Continuous
 62
    40
370
    15
100
AcDbLine
 10
4638.235838693025
 20
3481.846273380329
 30
0.0
 11
4638.235838693025
 21
3133.246273380328
 31
0.0
  0
ARC
  5
1F7
330
1F
100
AcDbEntity
  8
戸当り
  6
Continuous
 62
    40
370
    15
100
AcDbCircle
 10
4638.235838693025
 20
3444.04627338033
 30
0.0
 40
310.8
100
AcDbArc
 50
180.0
 51
270.0
  0
LINE
  5
1F8
330
1F
100
AcDbEntity
  8
戸当り
  6
Continuous
 62
    40
370
    15
100
AcDbLine
 10
5658.835838693023
 20
3444.04627338033
 30
0.0
 11
4902.835838693029
 21
3444.04627338033
 31
0.0
  0
LINE
  5
1F9
330
1F
100
AcDbEntity
  8
戸当り
  6
Continuous
 62
    40
370
    15
100
AcDbLine
 10
5125.435838693024
 20
3481.846273380329
 30
0.0
 11
5125.435838693024
 21
3133.246273380328
 31
0.0
  0
ARC
  5
1FA
330
1F
100
AcDbEntity
  8
戸当り
  6
Continuous
 62
    40
370
    15
100
AcDbCircle
 10
5125.435838693024
 20
3444.04627338033
 30
0.0
 40
310.8
100
AcDbArc
 50
270.0
 51
0.0
  0
ELLIPSE
  5
1FB
330
1F
100
AcDbEntity
  8
戸当り
  6
Continuous
 62
    92
370
    13
100
AcDbEllipse
 10
5207.192036141519
 20
2972.884428393056
 30
0.0
 11
-17.7763823922528
 21
100.8148742797557
 31
0.0
210
0.0
220
0.0
230
1.0
 40
0.4000000000000001
 41
1.85063327265668
 42
2.442876790075129
  0
ELLIPSE
  5
1FC
330
1F
100
AcDbEntity
  8
戸当り
  6
Continuous
 62
    92
370
    13
100
AcDbEllipse
 10
5207.192036141519
 20
2972.884428393056
 30
0.0
 11
-17.7763823922528
 21
100.8148742797557
 31
0.0
210
0.0
220
0.0
230
1.0
 40
0.4000000000000001
 41
3.840308517104467
 42
4.432552034522944
  0
ELLIPSE
  5
1FD
330
1F
100
AcDbEntity
  8
戸当り
  6
Continuous
 62
    92
370
    13
100
AcDbEllipse
 10
5206.77229009162
 20
2975.264926534712
 30
0.0
 11
-14.67024424252691
 21
83.19908946199425
 31
0.0
210
0.0
220
0.0
230
1.0
 40
0.5
 41
4.340591432030095
 42
8.225779182329084
  0
LINE
  5
1FE
330
1F
100
AcDbEntity
  8
戸当り
  6
Continuous
 62
    92
370
    13
100
AcDbLine
 10
5246.741919914281
 20
2900.267379069785
 30
0.0
 11
5194.863795824742
 21
2891.119866084259
 31
0.0
  0
LINE
  5
1FF
330
1F
100
AcDbEntity
  8
戸当り
  6
Continuous
 62
    92
370
    13
100
AcDbLine
 10
5248.929886952885
 20
2887.858801381833
 30
0.0
 11
5197.051762863346
 21
2878.711288396305
 31
0.0
  0
ELLIPSE
  5
200
330
1F
100
AcDbEntity
  8
戸当り
  6
Continuous
 62
    92
370
    13
100
AcDbEllipse
 10
5222.990824908113
 20
2883.285044889069
 30
0.0
 11
-7.622927487939132
 21
43.23177007461331
 31
0.0
210
0.0
220
0.0
230
1.0
 40
0.6
 41
1.570796326794897
 42
4.71238898038469
  0
ELLIPSE
  5
201
330
1F
100
AcDbEntity
  8
戸当り
  6
Continuous
 62
    92
370
    13
100
AcDbEllipse
 10
5361.652805079395
 20
3008.935263882863
 30
0.0
 11
26.49533313827762
 21
98.88192943551533
 31
0.0
210
0.0
220
0.0
230
1.0
 40
0.4
 41
1.85063327265668
 42
2.442876790075129
  0
ELLIPSE
  5
202
330
1F
100
AcDbEntity
  8
戸当り
  6
Continuous
 62
    92
370
    13
100
AcDbEllipse
 10
5361.652805079395
 20
3008.935263882863
 30
0.0
 11
26.49533313827762
 21
98.88192943551533
 31
0.0
210
0.0
220
0.0
230
1.0
 40
0.4
 41
3.840308517104467
 42
4.432552034522944
  0
ELLIPSE
  5
203
330
1F
100
AcDbEntity
  8
戸当り
  6
Continuous
 62
    92
370
    13
100
AcDbEllipse
 10
5362.278427952499
 20
3011.270120231655
 30
0.0
 11
21.86569797210526
 21
81.6038957748525
 31
0.0
210
0.0
220
0.0
230
1.0
 40
0.5
 41
4.340591432030095
 42
8.225779182329084
  0
LINE
  5
204
330
1F
100
AcDbEntity
  8
戸当り
  6
Continuous
 62
    92
370
    13
100
AcDbLine
 10
5366.807881561303
 20
2926.407363477468
 30
0.0
 11
5315.924427684913
 21
2940.041543851755
 31
0.0
  0
LINE
  5
205
330
1F
100
AcDbEntity
  8
戸当り
  6
Continuous
 62
    92
370
    13
100
AcDbLine
 10
5363.546761593016
 20
2914.236698066227
 30
0.0
 11
5312.663307716619
 21
2927.870878440511
 31
0.0
  0
ELLIPSE
  5
206
330
1F
100
AcDbEntity
  8
戸当り
  6
Continuous
 62
    92
370
    13
100
AcDbEllipse
 10
5338.10503465482
 20
2921.053788253369
 30
0.0
 11
11.36181697857171
 21
42.40287823032828
 31
0.0
210
0.0
220
0.0
230
1.0
 40
0.6
 41
1.570796326794897
 42
4.71238898038469
  0
LINE
  5
207
330
1F
100
AcDbEntity
  8
0-0_補助線
  6
JWW_HOJO
 62
   120
370
     5
100
AcDbLine
 10
5280.835838693027
 20
3730.000181455871
 30
0.0
 11
5280.835838693027
 21
2764.000181455871
 31
0.0
  0
LINE
  5
208
330
1F
100
AcDbEntity
  8
0-0_補助線
  6
JWW_HOJO
 62
   120
370
     5
100
AcDbLine
 10
4482.835838693022
 20
3730.000181455871
 30
0.0
 11
4482.835838693022
 21
2764.000181455871
 31
0.0
  0
ELLIPSE
  5
209
330
1F
100
AcDbEntity
  8
戸当り
  6
Continuous
 62
    92
370
    13
100
AcDbEllipse
 10
4409.192036141519
 20
2972.884428393056
 30
0.0
 11
-17.7763823922528
 21
100.8148742797557
 31
0.0
210
0.0
220
0.0
230
1.0
 40
0.4000000000000001
 41
1.85063327265668
 42
2.442876790075129
  0
ELLIPSE
  5
20A
330
1F
100
AcDbEntity
  8
戸当り
  6
Continuous
 62
    92
370
    13
100
AcDbEllipse
 10
4409.192036141519
 20
2972.884428393056
 30
0.0
 11
-17.7763823922528
 21
100.8148742797557
 31
0.0
210
0.0
220
0.0
230
1.0
 40
0.4000000000000001
 41
3.840308517104467
 42
4.432552034522944
  0
ELLIPSE
  5
20B
330
1F
100
AcDbEntity
  8
戸当り
  6
Continuous
 62
    92
370
    13
100
AcDbEllipse
 10
4408.772290091615
 20
2975.264926534712
 30
0.0
 11
-14.67024424252691
 21
83.19908946199425
 31
0.0
210
0.0
220
0.0
230
1.0
 40
0.5
 41
4.340591432030095
 42
8.225779182329084
  0
LINE
  5
20C
330
1F
100
AcDbEntity
  8
戸当り
  6
Continuous
 62
    92
370
    13
100
AcDbLine
 10
4448.741919914281
 20
2900.267379069785
 30
0.0
 11
4396.863795824745
 21
2891.119866084259
 31
0.0
  0
LINE
  5
20D
330
1F
100
AcDbEntity
  8
戸当り
  6
Continuous
 62
    92
370
    13
100
AcDbLine
 10
4450.929886952883
 20
2887.858801381833
 30
0.0
 11
4399.051762863348
 21
2878.711288396305
 31
0.0
  0
ELLIPSE
  5
20E
330
1F
100
AcDbEntity
  8
戸当り
  6
Continuous
 62
    92
370
    13
100
AcDbEllipse
 10
4424.990824908116
 20
2883.285044889069
 30
0.0
 11
-7.622927487939132
 21
43.23177007461331
 31
0.0
210
0.0
220
0.0
230
1.0
 40
0.6
 41
1.570796326794897
 42
4.71238898038469
  0
ELLIPSE
  5
20F
330
1F
100
AcDbEntity
  8
戸当り
  6
Continuous
 62
    92
370
    13
100
AcDbEllipse
 10
4563.652805079393
 20
3008.935263882863
 30
0.0
 11
26.49533313827762
 21
98.88192943551533
 31
0.0
210
0.0
220
0.0
230
1.0
 40
0.4
 41
1.85063327265668
 42
2.442876790075129
  0
ELLIPSE
  5
210
330
1F
100
AcDbEntity
  8
戸当り
  6
Continuous
 62
    92
370
    13
100
AcDbEllipse
 10
4563.652805079393
 20
3008.935263882863
 30
0.0
 11
26.49533313827762
 21
98.88192943551533
 31
0.0
210
0.0
220
0.0
230
1.0
 40
0.4
 41
3.840308517104467
 42
4.432552034522944
  0
ELLIPSE
  5
211
330
1F
100
AcDbEntity
  8
戸当り
  6
Continuous
 62
    92
370
    13
100
AcDbEllipse
 10
4564.278427952497
 20
3011.270120231655
 30
0.0
 11
21.86569797210526
 21
81.6038957748525
 31
0.0
210
0.0
220
0.0
230
1.0
 40
0.5
 41
4.340591432030095
 42
8.225779182329084
  0
LINE
  5
212
330
1F
100
AcDbEntity
  8
戸当り
  6
Continuous
 62
    92
370
    13
100
AcDbLine
 10
4568.807881561306
 20
2926.407363477468
 30
0.0
 11
4517.924427684909
 21
2940.041543851755
 31
0.0
  0
LINE
  5
213
330
1F
100
AcDbEntity
  8
戸当り
  6
Continuous
 62
    92
370
    13
100
AcDbLine
 10
4565.546761593012
 20
2914.236698066227
 30
0.0
 11
4514.663307716621
 21
2927.870878440511
 31
0.0
  0
ELLIPSE
  5
214
330
1F
100
AcDbEntity
  8
戸当り
  6
Continuous
 62
    92
370
    13
100
AcDbEllipse
 10
4540.105034654816
 20
2921.053788253369
 30
0.0
 11
11.36181697857171
 21
42.40287823032828
 31
0.0
210
0.0
220
0.0
230
1.0
 40
0.6
 41
1.570796326794897
 42
4.71238898038469
  0
TEXT
  5
215
330
1F
100
AcDbEntity
  8
0-A_文字
  6
Continuous
 62
     7
370
     9
100
AcDbText
 10
4083.835838693027
 20
3776.92018145587
 30
0.0
 40
91.44
  1
■吊り手方向
 41
1.104166666666667
  7
ＭＳ ゴシック
100
AcDbText
  0
TEXT
  5
216
330
1F
100
AcDbEntity
  8
0-A_文字
  6
Continuous
 62
     7
370
     9
100
AcDbText
 10
4332.835838693029
 20
3634.690181455871
 30
0.0
 40
68.58
  1
右吊元
 41
1.111111111111111
  7
ＭＳ ゴシック
100
AcDbText
  0
TEXT
  5
217
330
1F
100
AcDbEntity
  8
0-A_文字
  6
Continuous
 62
     7
370
     9
100
AcDbText
 10
5130.835838693027
 20
3634.690181455871
 30
0.0
 40
68.58
  1
左吊元
 41
1.111111111111111
  7
ＭＳ ゴシック
100
AcDbText
  0
LINE
  5
218
330
1F
100
AcDbEntity
  8
F-0_補助線
  6
JWW_HOJO
 62
   120
370
     5
100
AcDbLine
 10
-5659.999495325861
 20
4424.999604096284
 30
0.0
 11
-5659.999495325861
 21
-4455.0
 31
0.0
  0
LINE
  5
219
330
1F
100
AcDbEntity
  8
F-0_補助線
  6
JWW_HOJO
 62
   120
370
     5
100
AcDbLine
 10
-6140.081333436773
 20
194.9998020481422
 30
0.0
 11
6159.917676803936
 21
194.9998020481422
 31
0.0
  0
LINE
  5
21A
330
1F
100
AcDbEntity
  8
F-0_補助線
  6
JWW_HOJO
 62
   120
370
     5
100
AcDbLine
 10
9.918171683581818
 20
-4455.0
 30
0.0
 11
9.918171683581818
 21
4424.999604096284
 31
0.0
  0
LINE
  5
21B
330
1F
100
AcDbEntity
  8
F-0_補助線
  6
JWW_HOJO
 62
   120
370
     5
100
AcDbLine
 10
-200.0818283164182
 20
-3159.000197951857
 30
0.0
 11
-200.0818283164182
 21
194.9998020481422
 31
0.0
  0
LINE
  5
21C
330
1F
100
AcDbEntity
  8
F-0_補助線
  6
JWW_HOJO
 62
   120
370
     5
100
AcDbLine
 10
219.9181716835818
 20
-3159.000197951857
 30
0.0
 11
219.9181716835818
 21
194.9998020481422
 31
0.0
  0
LINE
  5
21D
330
1F
100
AcDbEntity
  8
F-0_補助線
  6
JWW_HOJO
 62
   120
370
     5
100
AcDbLine
 10
5679.835838693025
 20
4000.000181455871
 30
0.0
 11
5679.835838693025
 21
-4455.0
 31
0.0
  0
LINE
  5
21E
330
1F
100
AcDbEntity
  8
F-0_補助線
  6
JWW_HOJO
 62
   120
370
     5
100
AcDbLine
 10
-6140.081333436773
 20
-3159.000197951857
 30
0.0
 11
6159.917676803936
 21
-3159.000197951857
 31
0.0
  0
LINE
  5
21F
330
1F
100
AcDbEntity
  8
F-0_補助線
  6
JWW_HOJO
 62
   120
370
     5
100
AcDbLine
 10
-6140.081333436773
 20
2438.999683277028
 30
0.0
 11
6159.917676803936
 21
2438.999683277028
 31
0.0
  0
LINE
  5
220
330
1F
100
AcDbEntity
  8
F-0_補助線
  6
JWW_HOJO
 62
   120
370
     5
100
AcDbLine
 10
-6140.081333436773
 20
3730.000181455871
 30
0.0
 11
6159.917676803936
 21
3730.000181455871
 31
0.0
  0
LINE
  5
221
330
1F
100
AcDbEntity
  8
F-0_補助線
  6
JWW_HOJO
 62
   120
370
     5
100
AcDbLine
 10
-6140.081333436773
 20
4000.000181455871
 30
0.0
 11
6159.917676803936
 21
4000.000181455871
 31
0.0
  0
LINE
  5
222
330
1F
100
AcDbEntity
  8
0-4_枠
  6
Continuous
 62
   120
370
     5
100
AcDbLine
 10
-1955.081457156684
 20
-3087.999827616935
 30
0.0
 11
-1955.081457156684
 21
-1836.999469989065
 31
0.0
  0
LINE
  5
223
330
1F
100
AcDbEntity
  8
0-4_枠
  6
Continuous
 62
   120
370
     5
100
AcDbLine
 10
-2885.081457156685
 20
-3087.999827616935
 30
0.0
 11
-2885.081457156685
 21
-1836.999469989065
 31
0.0
  0
LINE
  5
224
330
1F
100
AcDbEntity
  8
0-6_扉
  6
Continuous
 62
   200
370
    20
100
AcDbLine
 10
-2015.081457156684
 20
-1836.999469989065
 30
0.0
 11
-2015.081457156684
 21
-3009.999318354847
 31
0.0
  0
LINE
  5
225
330
1F
100
AcDbEntity
  8
0-6_扉
  6
Continuous
 62
   200
370
    20
100
AcDbLine
 10
-2231.081457156682
 20
-1836.999469989065
 30
0.0
 11
-2231.081457156682
 21
-3009.999318354847
 31
0.0
  0
LINE
  5
226
330
1F
100
AcDbEntity
  8
0-B_寸法
  6
Continuous
 62
   120
370
     5
100
AcDbLine
 10
-1535.081457156682
 20
-549.9994156296302
 30
0.0
 11
-1535.081457156682
 21
-3069.999318354847
 31
0.0
  0
LINE
  5
227
330
1F
100
AcDbEntity
  8
0-B_寸法
  6
Continuous
 62
   120
370
     5
100
AcDbLine
 10
-1325.081457156682
 20
-405.9994156296281
 30
0.0
 11
-1325.081457156682
 21
-3087.999827616935
 31
0.0
  0
LINE
  5
228
330
1F
100
AcDbEntity
  8
0-B_寸法
  6
Continuous
 62
   120
370
     5
100
AcDbLine
 10
-1115.081457156682
 20
-3087.999827616935
 30
0.0
 11
-1745.081457156684
 21
-3087.999827616935
 31
0.0
  0
LINE
  5
229
330
1F
100
AcDbEntity
  8
0-1_通り芯
  6
JWW_CENTER1
 62
   120
370
     5
100
AcDbLine
 10
-3095.081457156685
 20
-405.9994156296281
 30
0.0
 11
-1745.081457156684
 21
-405.9994156296281
 31
0.0
  0
LINE
  5
22A
330
1F
100
AcDbEntity
  8
ハッチ
  6
Continuous
 62
   120
370
     5
100
AcDbLine
 10
-2021.611316161205
 20
-408.9994156296288
 30
0.0
 11
-1982.081617373969
 21
-448.5291604415747
 31
0.0
  0
LINE
  5
22B
330
1F
100
AcDbEntity
  8
ハッチ
  6
Continuous
 62
   120
370
     5
100
AcDbLine
 10
-2836.199049200271
 20
-408.9994156296288
 30
0.0
 11
-2698.197206515815
 21
-546.9998505051158
 31
0.0
  0
LINE
  5
22C
330
1F
100
AcDbEntity
  8
ハッチ
  6
Continuous
 62
   120
370
     5
100
AcDbLine
 10
-2858.081892032167
 20
-454.9988563706515
 30
0.0
 11
-2766.079645175483
 21
-546.9998505051158
 31
0.0
  0
LINE
  5
22D
330
1F
100
AcDbEntity
  8
ハッチ
  6
Continuous
 62
   120
370
     5
100
AcDbLine
 10
-2567.669441124724
 20
-405.9994156296281
 30
0.0
 11
-2426.668619174506
 21
-546.9998505051158
 31
0.0
  0
LINE
  5
22E
330
1F
100
AcDbEntity
  8
ハッチ
  6
Continuous
 62
   120
370
     5
100
AcDbLine
 10
-2296.137391036604
 20
-405.9994156296281
 30
0.0
 11
-2155.140031833198
 21
-546.9998505051158
 31
0.0
  0
LINE
  5
22F
330
1F
100
AcDbEntity
  8
ハッチ
  6
Continuous
 62
   120
370
     5
100
AcDbLine
 10
-2771.317706298461
 20
-405.9994156296281
 30
0.0
 11
-2630.315351504824
 21
-546.9998505051158
 31
0.0
  0
LINE
  5
230
330
1F
100
AcDbEntity
  8
ハッチ
  6
Continuous
 62
   120
370
     5
100
AcDbLine
 10
-2703.434786134063
 20
-405.9994156296281
 30
0.0
 11
-2562.43291284516
 21
-546.9998505051158
 31
0.0
  0
LINE
  5
231
330
1F
100
AcDbEntity
  8
ハッチ
  6
Continuous
 62
   120
370
     5
100
AcDbLine
 10
-2635.551947834328
 20
-405.9994156296281
 30
0.0
 11
-2494.55105783417
 21
-546.9998505051158
 31
0.0
  0
LINE
  5
232
330
1F
100
AcDbEntity
  8
ハッチ
  6
Continuous
 62
   120
370
     5
100
AcDbLine
 10
-2228.2575700205
 20
-405.9994156296281
 30
0.0
 11
-2087.257581729434
 21
-546.9998505051158
 31
0.0
  0
LINE
  5
233
330
1F
100
AcDbEntity
  8
ハッチ
  6
Continuous
 62
   120
370
     5
100
AcDbLine
 10
-2160.375356667815
 20
-405.9994156296281
 30
0.0
 11
-2019.375143069764
 21
-546.9998505051158
 31
0.0
  0
LINE
  5
234
330
1F
100
AcDbEntity
  8
ハッチ
  6
Continuous
 62
   120
370
     5
100
AcDbLine
 10
-2092.49346849596
 20
-405.9994156296281
 30
0.0
 11
-1982.081617373969
 21
-516.4113953049205
 31
0.0
  0
LINE
  5
235
330
1F
100
AcDbEntity
  8
ハッチ
  6
Continuous
 62
   120
370
     5
100
AcDbLine
 10
-2364.022635138351
 20
-405.9994156296281
 30
0.0
 11
-2268.281457156681
 21
-501.7412828312283
 31
0.0
  0
LINE
  5
236
330
1F
100
AcDbEntity
  8
ハッチ
  6
Continuous
 62
   120
370
     5
100
AcDbLine
 10
-2246.08145715668
 20
-523.9414426442008
 30
0.0
 11
-2223.023215287039
 21
-546.9998505051158
 31
0.0
  0
LINE
  5
237
330
1F
100
AcDbEntity
  8
ハッチ
  6
Continuous
 62
   120
370
     5
100
AcDbLine
 10
-2431.904651765916
 20
-405.9994156296281
 30
0.0
 11
-2290.904595240385
 21
-546.9998505051158
 31
0.0
  0
LINE
  5
238
330
1F
100
AcDbEntity
  8
ハッチ
  6
Continuous
 62
   120
370
     5
100
AcDbLine
 10
-2499.786952445999
 20
-405.9994156296281
 30
0.0
 11
-2402.081457156682
 21
-503.7050326628886
 31
0.0
  0
LINE
  5
239
330
1F
100
AcDbEntity
  8
ハッチ
  6
Continuous
 62
   120
370
     5
100
AcDbLine
 10
-2379.88145715668
 20
-525.905060324752
 30
0.0
 11
-2358.786693261014
 21
-546.9998505051158
 31
0.0
  0
LINE
  5
23A
330
1F
100
AcDbEntity
  8
0-0_補助線
  6
JWW_HOJO
 62
   120
370
     5
100
AcDbLine
 10
-1535.081457156682
 20
-3159.99962162328
 30
0.0
 11
-1535.081457156682
 21
194.0005843703719
 31
0.0
  0
LINE
  5
23B
330
1F
100
AcDbEntity
  8
0-1_通り芯
  6
JWW_CENTER1
 62
   120
370
     5
100
AcDbLine
 10
-2420.08145715668
 20
-3279.99962162328
 30
0.0
 11
-2420.08145715668
 21
194.0005843703719
 31
0.0
  0
LINE
  5
23C
330
1F
100
AcDbEntity
  8
0-0_補助線
  6
JWW_HOJO
 62
   120
370
     5
100
AcDbLine
 10
-3305.081457156685
 20
194.0005843703719
 30
0.0
 11
-1115.081457156682
 21
194.0005843703719
 31
0.0
  0
LINE
  5
23D
330
1F
100
AcDbEntity
  8
0-0_補助線
  6
JWW_HOJO
 62
   120
370
     5
100
AcDbLine
 10
-1115.081457156682
 20
-3159.99962162328
 30
0.0
 11
-1115.081457156682
 21
194.0005843703719
 31
0.0
  0
LINE
  5
23E
330
1F
100
AcDbEntity
  8
0-0_補助線
  6
JWW_HOJO
 62
   120
370
     5
100
AcDbLine
 10
-1745.081457156684
 20
-3159.99962162328
 30
0.0
 11
-1745.081457156684
 21
194.0005843703719
 31
0.0
  0
LINE
  5
23F
330
1F
100
AcDbEntity
  8
0-0_補助線
  6
JWW_HOJO
 62
   120
370
     5
100
AcDbLine
 10
-3095.081457156685
 20
-3159.99962162328
 30
0.0
 11
-3095.081457156685
 21
194.0005843703719
 31
0.0
  0
LINE
  5
240
330
1F
100
AcDbEntity
  8
ハッチ
  6
JWW_DASHED1
 62
   120
370
     5
100
AcDbLine
 10
-2105.081457156677
 20
175.3653708651532
 30
0.0
 11
-2086.446243651463
 21
194.0005843703719
 31
0.0
  0
LINE
  5
241
330
1F
100
AcDbEntity
  8
ハッチ
  6
JWW_DASHED1
 62
   120
370
     5
100
AcDbLine
 10
-2810.08145715668
 20
149.1878808042443
 30
0.0
 11
-2765.268753590554
 21
194.0005843703719
 31
0.0
  0
LINE
  5
242
330
1F
100
AcDbEntity
  8
ハッチ
  6
JWW_DASHED1
 62
   120
370
     5
100
AcDbLine
 10
-2810.081457156667
 20
191.614287675458
 30
0.0
 11
-2807.695160461754
 21
194.0005843703719
 31
0.0
  0
LINE
  5
243
330
1F
100
AcDbEntity
  8
ハッチ
  6
JWW_DASHED1
 62
   120
370
     5
100
AcDbLine
 10
-2105.081457156691
 20
132.938963993943
 30
0.0
 11
-2044.019836780262
 21
194.0005843703719
 31
0.0
  0
LINE
  5
244
330
1F
100
AcDbEntity
  8
ハッチ
  6
JWW_DASHED1
 62
   120
370
     5
100
AcDbLine
 10
-2105.081457156687
 20
90.51255712274639
 30
0.0
 11
-2030.081457156673
 21
165.51255712276
 31
0.0
  0
LINE
  5
245
330
1F
100
AcDbEntity
  8
ハッチ
  6
JWW_DASHED1
 62
   120
370
     5
100
AcDbLine
 10
-2810.081457156676
 20
106.7614739330477
 30
0.0
 11
-2735.081457156665
 21
181.7614739330614
 31
0.0
  0
LINE
  5
246
330
1F
100
AcDbEntity
  8
ハッチ
  6
JWW_DASHED1
 62
   120
370
     5
100
AcDbLine
 10
-2810.081457156687
 20
64.33506706183749
 30
0.0
 11
-2735.081457156693
 21
139.3350670618341
 31
0.0
  0
LINE
  5
247
330
1F
100
AcDbEntity
  8
0-B_寸法
  6
Continuous
 62
   120
370
     5
100
AcDbLine
 10
-1115.081457156682
 20
-405.9994156296281
 30
0.0
 11
-1115.081457156682
 21
-3159.99962162328
 31
0.0
  0
LINE
  5
248
330
1F
100
AcDbEntity
  8
0-B_寸法
  6
Continuous
 62
   120
370
     5
100
AcDbLine
 10
-1115.081457156682
 20
-405.9994156296281
 30
0.0
 11
-1745.081457156684
 21
-405.9994156296281
 31
0.0
  0
LINE
  5
249
330
1F
100
AcDbEntity
  8
0-B_寸法
  6
Continuous
 62
   120
370
     5
100
AcDbLine
 10
-1325.081457156682
 20
-549.9994156296302
 30
0.0
 11
-1745.081457156684
 21
-549.9994156296302
 31
0.0
  0
LINE
  5
24A
330
1F
100
AcDbEntity
  8
0-B_寸法
  6
Continuous
 62
   120
370
     5
100
AcDbLine
 10
-1535.081457156682
 20
-567.9994156296275
 30
0.0
 11
-1745.081457156684
 21
-567.9994156296275
 31
0.0
  0
LINE
  5
24B
330
1F
100
AcDbEntity
  8
0-B_寸法
  6
Continuous
 62
   120
370
     5
100
AcDbLine
 10
-2861.081457156684
 20
-858.5294053157029
 30
0.0
 11
-2861.081457156684
 21
-651.3972664921025
 31
0.0
  0
LINE
  5
24C
330
1F
100
AcDbEntity
  8
0-B_寸法
  6
Continuous
 62
   120
370
     5
100
AcDbLine
 10
-2861.081457156684
 20
-858.5294053157029
 30
0.0
 11
-1979.081457156683
 21
-858.5294053157029
 31
0.0
  0
LINE
  5
24D
330
1F
100
AcDbEntity
  8
0-B_寸法
  6
Continuous
 62
   120
370
     5
100
AcDbLine
 10
-1979.081457156683
 20
-858.5294053157029
 30
0.0
 11
-1979.081457156683
 21
-651.3972664921025
 31
0.0
  0
LINE
  5
24E
330
1F
100
AcDbEntity
  8
0-4_枠
  6
Continuous
 62
   120
370
     5
100
AcDbLine
 10
-1955.081457156684
 20
-1716.999469989065
 30
0.0
 11
-1955.081457156684
 21
-405.9994156296281
 31
0.0
  0
LINE
  5
24F
330
1F
100
AcDbEntity
  8
0-4_枠
  6
Continuous
 62
   120
370
     5
100
AcDbLine
 10
-2885.081457156685
 20
-1716.999469989065
 30
0.0
 11
-2885.081457156685
 21
-405.9994156296281
 31
0.0
  0
LINE
  5
250
330
1F
100
AcDbEntity
  8
0-4_枠
  6
Continuous
 62
   120
370
     5
100
AcDbLine
 10
-1979.081457156683
 20
-405.9994156296281
 30
0.0
 11
-1955.081457156684
 21
-405.9994156296281
 31
0.0
  0
LINE
  5
251
330
1F
100
AcDbEntity
  8
0-4_枠
  6
Continuous
 62
   120
370
     5
100
AcDbLine
 10
-2861.081457156684
 20
-405.9994156296281
 30
0.0
 11
-2885.081457156685
 21
-405.9994156296281
 31
0.0
  0
LINE
  5
252
330
1F
100
AcDbEntity
  8
ハッチ
  6
JWW_DASHED1
 62
   120
370
     5
100
AcDbLine
 10
-2050.050140583581
 20
-405.9994156296281
 30
0.0
 11
-2030.081457156677
 21
-386.0307322027276
 31
0.0
  0
LINE
  5
253
330
1F
100
AcDbEntity
  8
ハッチ
  6
JWW_DASHED1
 62
   120
370
     5
100
AcDbLine
 10
-2092.476547454778
 20
-405.9994156296281
 30
0.0
 11
-2030.08145715668
 21
-343.6043253315378
 31
0.0
  0
LINE
  5
254
330
1F
100
AcDbEntity
  8
ハッチ
  6
JWW_DASHED1
 62
   120
370
     5
100
AcDbLine
 10
-2105.08145715668
 20
-376.1779184603378
 30
0.0
 11
-2030.081457156685
 21
-301.1779184603446
 31
0.0
  0
LINE
  5
255
330
1F
100
AcDbEntity
  8
ハッチ
  6
JWW_DASHED1
 62
   120
370
     5
100
AcDbLine
 10
-2771.299057393817
 20
-405.9994156296281
 30
0.0
 11
-2735.08145715668
 21
-369.7818153924945
 31
0.0
  0
LINE
  5
256
330
1F
100
AcDbEntity
  8
ハッチ
  6
JWW_DASHED1
 62
   120
370
     5
100
AcDbLine
 10
-2810.08145715668
 20
-402.3554085212979
 30
0.0
 11
-2735.081457156691
 21
-327.3554085213115
 31
0.0
  0
LINE
  5
257
330
1F
100
AcDbEntity
  8
ハッチ
  6
JWW_DASHED1
 62
   120
370
     5
100
AcDbLine
 10
-2810.08145715668
 20
-359.9290016501013
 30
0.0
 11
-2735.081457156694
 21
-284.9290016501149
 31
0.0
  0
LINE
  5
258
330
1F
100
AcDbEntity
  8
ハッチ
  6
JWW_DASHED1
 62
   120
370
     5
100
AcDbLine
 10
-2105.081457156687
 20
48.08615025154637
 30
0.0
 11
-2030.081457156687
 21
123.0861502515464
 31
0.0
  0
LINE
  5
259
330
1F
100
AcDbEntity
  8
ハッチ
  6
JWW_DASHED1
 62
   120
370
     5
100
AcDbLine
 10
-2105.081457156684
 20
5.659743380349767
 30
0.0
 11
-2030.081457156685
 21
80.65974338034636
 31
0.0
  0
LINE
  5
25A
330
1F
100
AcDbEntity
  8
ハッチ
  6
JWW_DASHED1
 62
   120
370
     5
100
AcDbLine
 10
-2105.081457156677
 20
-36.76666349078886
 30
0.0
 11
-2030.081457156677
 21
38.23333650920773
 31
0.0
  0
LINE
  5
25B
330
1F
100
AcDbEntity
  8
ハッチ
  6
JWW_DASHED1
 62
   120
370
     5
100
AcDbLine
 10
-2105.081457156673
 20
-79.19307036198546
 30
0.0
 11
-2030.081457156673
 21
-4.193070361985463
 31
0.0
  0
LINE
  5
25C
330
1F
100
AcDbEntity
  8
ハッチ
  6
JWW_DASHED1
 62
   120
370
     5
100
AcDbLine
 10
-2105.081457156672
 20
-121.6194772331821
 30
0.0
 11
-2030.081457156673
 21
-46.61947723318548
 31
0.0
  0
LINE
  5
25D
330
1F
100
AcDbEntity
  8
ハッチ
  6
JWW_DASHED1
 62
   120
370
     5
100
AcDbLine
 10
-2105.081457156685
 20
-164.0458841043957
 30
0.0
 11
-2030.081457156672
 21
-89.0458841043855
 31
0.0
  0
LINE
  5
25E
330
1F
100
AcDbEntity
  8
ハッチ
  6
JWW_DASHED1
 62
   120
370
     5
100
AcDbLine
 10
-2105.081457156687
 20
-206.4722909755992
 30
0.0
 11
-2030.081457156673
 21
-131.4722909755855
 31
0.0
  0
LINE
  5
25F
330
1F
100
AcDbEntity
  8
ハッチ
  6
JWW_DASHED1
 62
   120
370
     5
100
AcDbLine
 10
-2105.081457156694
 20
-248.898697846806
 30
0.0
 11
-2030.081457156694
 21
-173.8986978468094
 31
0.0
  0
LINE
  5
260
330
1F
100
AcDbEntity
  8
ハッチ
  6
JWW_DASHED1
 62
   120
370
     5
100
AcDbLine
 10
-2105.081457156691
 20
-291.325104718006
 30
0.0
 11
-2030.081457156694
 21
-216.325104718006
 31
0.0
  0
LINE
  5
261
330
1F
100
AcDbEntity
  8
ハッチ
  6
JWW_DASHED1
 62
   120
370
     5
100
AcDbLine
 10
-2105.081457156691
 20
-333.7515115891992
 30
0.0
 11
-2030.081457156691
 21
-258.751511589206
 31
0.0
  0
LINE
  5
262
330
1F
100
AcDbEntity
  8
ハッチ
  6
JWW_DASHED1
 62
   120
370
     5
100
AcDbLine
 10
-2810.081457156687
 20
21.90866019063748
 30
0.0
 11
-2735.081457156691
 21
96.90866019063407
 31
0.0
  0
LINE
  5
263
330
1F
100
AcDbEntity
  8
ハッチ
  6
JWW_DASHED1
 62
   120
370
     5
100
AcDbLine
 10
-2810.081457156685
 20
-20.51774668055913
 30
0.0
 11
-2735.081457156687
 21
54.48225331943746
 31
0.0
  0
LINE
  5
264
330
1F
100
AcDbEntity
  8
ハッチ
  6
JWW_DASHED1
 62
   120
370
     5
100
AcDbLine
 10
-2810.081457156683
 20
-62.94415355175573
 30
0.0
 11
-2735.081457156687
 21
12.05584644823745
 31
0.0
  0
LINE
  5
265
330
1F
100
AcDbEntity
  8
ハッチ
  6
JWW_DASHED1
 62
   120
370
     5
100
AcDbLine
 10
-2810.081457156676
 20
-105.3705604228944
 30
0.0
 11
-2735.08145715668
 21
-30.37056042290118
 31
0.0
  0
LINE
  5
266
330
1F
100
AcDbEntity
  8
ハッチ
  6
JWW_DASHED1
 62
   120
370
     5
100
AcDbLine
 10
-2810.081457156673
 20
-147.7969672940944
 30
0.0
 11
-2735.081457156677
 21
-72.79696729409437
 31
0.0
  0
LINE
  5
267
330
1F
100
AcDbEntity
  8
ハッチ
  6
JWW_DASHED1
 62
   120
370
     5
100
AcDbLine
 10
-2810.081457156687
 20
-190.223374165308
 30
0.0
 11
-2735.081457156673
 21
-115.2233741652944
 31
0.0
  0
LINE
  5
268
330
1F
100
AcDbEntity
  8
ハッチ
  6
JWW_DASHED1
 62
   120
370
     5
100
AcDbLine
 10
-2810.081457156687
 20
-232.649781036508
 30
0.0
 11
-2735.081457156677
 21
-157.6497810364944
 31
0.0
  0
LINE
  5
269
330
1F
100
AcDbEntity
  8
ハッチ
  6
JWW_DASHED1
 62
   120
370
     5
100
AcDbLine
 10
-2810.081457156683
 20
-275.0761879077012
 30
0.0
 11
-2735.081457156687
 21
-200.0761879077081
 31
0.0
  0
LINE
  5
26A
330
1F
100
AcDbEntity
  8
ハッチ
  6
JWW_DASHED1
 62
   120
370
     5
100
AcDbLine
 10
-2810.081457156694
 20
-317.5025947789149
 30
0.0
 11
-2735.081457156698
 21
-242.5025947789149
 31
0.0
  0
LINE
  5
26B
330
1F
100
AcDbEntity
  8
0-B_寸法
  6
Continuous
 62
   120
370
     5
100
AcDbLine
 10
-1115.081457156682
 20
-3159.99962162328
 30
0.0
 11
-1745.081457156684
 21
-3159.99962162328
 31
0.0
  0
LINE
  5
26C
330
1F
100
AcDbEntity
  8
0-B_寸法
  6
Continuous
 62
   120
370
     5
100
AcDbLine
 10
-1325.081457156682
 20
-3069.999318354847
 30
0.0
 11
-1745.081457156684
 21
-3069.999318354847
 31
0.0
  0
LINE
  5
26D
330
1F
100
AcDbEntity
  8
0-B_寸法
  6
Continuous
 62
   120
370
     5
100
AcDbLine
 10
-1535.081457156682
 20
-3009.999318354847
 30
0.0
 11
-1745.081457156684
 21
-3009.999318354847
 31
0.0
  0
LINE
  5
26E
330
1F
100
AcDbEntity
  8
0-0_補助線
  6
JWW_HOJO
 62
   120
370
     5
100
AcDbLine
 10
-1115.081457156682
 20
-3159.99962162328
 30
0.0
 11
-3305.081457156685
 21
-3159.99962162328
 31
0.0
  0
LINE
  5
26F
330
1F
100
AcDbEntity
  8
0-0_補助線
  6
JWW_HOJO
 62
   120
370
     5
100
AcDbLine
 10
-1841.472600877706
 20
-1836.999469989065
 30
0.0
 11
-2998.690313435658
 21
-1836.999469989065
 31
0.0
  0
LINE
  5
270
330
1F
100
AcDbEntity
  8
0-0_補助線
  6
JWW_HOJO
 62
   120
370
     5
100
AcDbLine
 10
-1841.472600877706
 20
-1716.999469989065
 30
0.0
 11
-2998.690313435658
 21
-1716.999469989065
 31
0.0
  0
LINE
  5
271
330
1F
100
AcDbEntity
  8
0-1_通り芯
  6
JWW_CENTER1
 62
   120
370
     5
100
AcDbLine
 10
-3095.081457156685
 20
-3159.99962162328
 30
0.0
 11
-1730.938324331382
 21
-3159.99962162328
 31
0.0
  0
LINE
  5
272
330
1F
100
AcDbEntity
  8
0-0_補助線
  6
JWW_HOJO
 62
   120
370
     5
100
AcDbLine
 10
-1325.081457156682
 20
-3159.99962162328
 30
0.0
 11
-1325.081457156682
 21
194.0005843703719
 31
0.0
  0
LWPOLYLINE
  5
273
330
1F
100
AcDbEntity
  8
0-B_寸法
  6
Continuous
 62
     7
370
     9
100
AcDbPolyline
 90
        4
 70
     1
 43
6.0
 10
-1532.081457156682
 20
-549.9994156296302
 42
0.4142135623731
 10
-1535.081457156682
 20
-546.9994156296301
 42
0.4142135623731
 10
-1538.081457156682
 20
-549.9994156296302
 42
0.4142135623731
 10
-1535.081457156682
 20
-552.9994156296302
 42
0.4142135623731
  0
LWPOLYLINE
  5
274
330
1F
100
AcDbEntity
  8
0-B_寸法
  6
Continuous
 62
     7
370
     9
100
AcDbPolyline
 90
        4
 70
     1
 43
6.0
 10
-1322.081457156682
 20
-549.9994156296302
 42
0.4142135623731
 10
-1325.081457156682
 20
-546.9994156296301
 42
0.4142135623731
 10
-1328.081457156682
 20
-549.9994156296302
 42
0.4142135623731
 10
-1325.081457156682
 20
-552.9994156296302
 42
0.4142135623731
  0
LWPOLYLINE
  5
275
330
1F
100
AcDbEntity
  8
0-B_寸法
  6
Continuous
 62
     7
370
     9
100
AcDbPolyline
 90
        4
 70
     1
 43
6.0
 10
-1322.081457156682
 20
-405.9994156296281
 42
0.4142135623731
 10
-1325.081457156682
 20
-402.9994156296281
 42
0.4142135623731
 10
-1328.081457156682
 20
-405.9994156296281
 42
0.4142135623731
 10
-1325.081457156682
 20
-408.9994156296281
 42
0.4142135623731
  0
TEXT
  5
276
330
1F
100
AcDbEntity
  8
0-B_寸法
  6
Continuous
 62
     7
370
     0
100
AcDbText
 10
-1355.299161743679
 20
-529.4252926040563
 30
0.0
 40
91.44
  1
24
 50
90.0
  7
ＭＳ ゴシック
100
AcDbText
  0
TEXT
  5
277
330
1F
100
AcDbEntity
  8
0-B_寸法
  6
Continuous
 62
     7
370
     0
100
AcDbText
 10
-1564.979451716178
 20
-633.3093668400384
 30
0.0
 40
91.44
  1
3
 50
90.0
  7
ＭＳ ゴシック
100
AcDbText
  0
TEXT
  5
278
330
1F
100
AcDbEntity
  8
0-B_寸法
  6
Continuous
 62
     7
370
     0
100
AcDbText
 10
-2555.081457156685
 20
-826.6094053157029
 30
0.0
 40
91.44
  1
147
  7
ＭＳ ゴシック
100
AcDbText
  0
LWPOLYLINE
  5
279
330
1F
100
AcDbEntity
  8
0-B_寸法
  6
Continuous
 62
     7
370
     9
100
AcDbPolyline
 90
        4
 70
     1
 43
6.0
 10
-1112.081457156682
 20
-3087.999827616935
 42
0.4142135623731
 10
-1115.081457156682
 20
-3084.999827616935
 42
0.4142135623731
 10
-1118.081457156682
 20
-3087.999827616935
 42
0.4142135623731
 10
-1115.081457156682
 20
-3090.999827616934
 42
0.4142135623731
  0
LINE
  5
27A
330
1F
100
AcDbEntity
  8
仕上げ
  6
Continuous
 62
     7
370
     9
100
AcDbLine
 10
-3095.081457156685
 20
-3141.999827616934
 30
0.0
 11
-1745.081457156684
 21
-3141.999827616934
 31
0.0
  0
LINE
  5
27B
330
1F
100
AcDbEntity
  8
仕上げ
  6
Continuous
 62
     7
370
     9
100
AcDbLine
 10
-3095.081457156685
 20
-3132.999827616931
 30
0.0
 11
-1745.081457156684
 21
-3132.999827616931
 31
0.0
  0
LINE
  5
27C
330
1F
100
AcDbEntity
  8
仕上げ
  6
Continuous
 62
     7
370
     9
100
AcDbLine
 10
-3095.081457156685
 20
-3123.999827616933
 30
0.0
 11
-1745.081457156684
 21
-3123.999827616933
 31
0.0
  0
LINE
  5
27D
330
1F
100
AcDbEntity
  8
仕上げ
  6
Continuous
 62
     7
370
     9
100
AcDbLine
 10
-3095.081457156685
 20
-3114.999827616931
 30
0.0
 11
-1745.081457156684
 21
-3114.999827616931
 31
0.0
  0
LINE
  5
27E
330
1F
100
AcDbEntity
  8
仕上げ
  6
Continuous
 62
     7
370
     9
100
AcDbLine
 10
-3095.081457156685
 20
-3105.999827616932
 30
0.0
 11
-1745.081457156684
 21
-3105.999827616932
 31
0.0
  0
LINE
  5
27F
330
1F
100
AcDbEntity
  8
仕上げ
  6
Continuous
 62
     7
370
     9
100
AcDbLine
 10
-3095.081457156685
 20
-3150.999827616932
 30
0.0
 11
-1745.081457156684
 21
-3150.999827616932
 31
0.0
  0
LINE
  5
280
330
1F
100
AcDbEntity
  8
仕上げ
  6
Continuous
 62
     7
370
     9
100
AcDbLine
 10
-3095.081457156685
 20
-3096.999827616934
 30
0.0
 11
-1745.081457156684
 21
-3096.999827616934
 31
0.0
  0
TEXT
  5
281
330
1F
100
AcDbEntity
  8
0-B_寸法
  6
Continuous
 62
     7
370
     0
100
AcDbText
 10
-1568.253525164374
 20
-3021.79264541012
 30
0.0
 40
91.44
  1
10
 50
90.0
  7
ＭＳ ゴシック
100
AcDbText
  0
TEXT
  5
282
330
1F
100
AcDbEntity
  8
0-B_寸法
  6
Continuous
 62
     7
370
     0
100
AcDbText
 10
-1349.708167148804
 20
-3064.900679936731
 30
0.0
 40
91.44
  1
3
 50
90.0
  7
ＭＳ ゴシック
100
AcDbText
  0
TEXT
  5
283
330
1F
100
AcDbEntity
  8
0-B_寸法
  6
Continuous
 62
     7
370
     0
100
AcDbText
 10
-1136.947336434562
 20
-3286.318276124156
 30
0.0
 40
91.44
  1
12
 50
90.0
  7
ＭＳ ゴシック
100
AcDbText
  0
LWPOLYLINE
  5
284
330
1F
100
AcDbEntity
  8
0-B_寸法
  6
Continuous
 62
     7
370
     9
100
AcDbPolyline
 90
        4
 70
     1
 43
6.0
 10
-1322.081457156682
 20
-3087.999827616935
 42
0.4142135623731
 10
-1325.081457156682
 20
-3084.999827616935
 42
0.4142135623731
 10
-1328.081457156682
 20
-3087.999827616935
 42
0.4142135623731
 10
-1325.081457156682
 20
-3090.999827616934
 42
0.4142135623731
  0
LWPOLYLINE
  5
285
330
1F
100
AcDbEntity
  8
0-B_寸法
  6
Continuous
 62
     7
370
     9
100
AcDbPolyline
 90
        4
 70
     1
 43
6.0
 10
-1112.081457156682
 20
-405.9994156296281
 42
0.4142135623731
 10
-1115.081457156682
 20
-402.9994156296281
 42
0.4142135623731
 10
-1118.081457156682
 20
-405.9994156296281
 42
0.4142135623731
 10
-1115.081457156682
 20
-408.9994156296281
 42
0.4142135623731
  0
LWPOLYLINE
  5
286
330
1F
100
AcDbEntity
  8
0-B_寸法
  6
Continuous
 62
     7
370
     9
100
AcDbPolyline
 90
        4
 70
     1
 43
6.0
 10
-1532.081457156682
 20
-567.9994156296275
 42
0.4142135623731
 10
-1535.081457156682
 20
-564.9994156296274
 42
0.4142135623731
 10
-1538.081457156682
 20
-567.9994156296275
 42
0.4142135623731
 10
-1535.081457156682
 20
-570.9994156296275
 42
0.4142135623731
  0
LWPOLYLINE
  5
287
330
1F
100
AcDbEntity
  8
0-B_寸法
  6
Continuous
 62
     7
370
     9
100
AcDbPolyline
 90
        4
 70
     1
 43
6.0
 10
-2858.081457156684
 20
-858.5294053157029
 42
0.4142135623731
 10
-2861.081457156684
 20
-855.5294053157028
 42
0.4142135623731
 10
-2864.081457156684
 20
-858.5294053157029
 42
0.4142135623731
 10
-2861.081457156684
 20
-861.5294053157029
 42
0.4142135623731
  0
LWPOLYLINE
  5
288
330
1F
100
AcDbEntity
  8
0-B_寸法
  6
Continuous
 62
     7
370
     9
100
AcDbPolyline
 90
        4
 70
     1
 43
6.0
 10
-1976.081457156683
 20
-858.5294053157029
 42
0.4142135623731
 10
-1979.081457156683
 20
-855.5294053157028
 42
0.4142135623731
 10
-1982.081457156682
 20
-858.5294053157029
 42
0.4142135623731
 10
-1979.081457156683
 20
-861.5294053157029
 42
0.4142135623731
  0
LINE
  5
289
330
1F
100
AcDbEntity
  8
仕上げ
  6
Continuous
 62
     7
370
     9
100
AcDbLine
 10
-2735.08145715668
 20
-357.9994156296274
 30
0.0
 11
-2105.08145715668
 21
-87.99941562962744
 31
0.0
  0
LWPOLYLINE
  5
28A
330
1F
100
AcDbEntity
  8
0-B_寸法
  6
Continuous
 62
     7
370
     9
100
AcDbPolyline
 90
        4
 70
     1
 43
6.0
 10
-1112.081457156682
 20
-3159.99962162328
 42
0.4142135623731
 10
-1115.081457156682
 20
-3156.999621623281
 42
0.4142135623731
 10
-1118.081457156682
 20
-3159.99962162328
 42
0.4142135623731
 10
-1115.081457156682
 20
-3162.99962162328
 42
0.4142135623731
  0
LWPOLYLINE
  5
28B
330
1F
100
AcDbEntity
  8
0-B_寸法
  6
Continuous
 62
     7
370
     9
100
AcDbPolyline
 90
        4
 70
     1
 43
6.0
 10
-1322.081457156682
 20
-3069.999318354847
 42
0.4142135623731
 10
-1325.081457156682
 20
-3066.999318354847
 42
0.4142135623731
 10
-1328.081457156682
 20
-3069.999318354847
 42
0.4142135623731
 10
-1325.081457156682
 20
-3072.999318354847
 42
0.4142135623731
  0
LWPOLYLINE
  5
28C
330
1F
100
AcDbEntity
  8
0-B_寸法
  6
Continuous
 62
     7
370
     9
100
AcDbPolyline
 90
        4
 70
     1
 43
6.0
 10
-1532.081457156682
 20
-3069.999318354847
 42
0.4142135623731
 10
-1535.081457156682
 20
-3066.999318354847
 42
0.4142135623731
 10
-1538.081457156682
 20
-3069.999318354847
 42
0.4142135623731
 10
-1535.081457156682
 20
-3072.999318354847
 42
0.4142135623731
  0
LWPOLYLINE
  5
28D
330
1F
100
AcDbEntity
  8
0-B_寸法
  6
Continuous
 62
     7
370
     9
100
AcDbPolyline
 90
        4
 70
     1
 43
6.0
 10
-1532.081457156682
 20
-3009.999318354847
 42
0.4142135623731
 10
-1535.081457156682
 20
-3006.999318354847
 42
0.4142135623731
 10
-1538.081457156682
 20
-3009.999318354847
 42
0.4142135623731
 10
-1535.081457156682
 20
-3012.999318354847
 42
0.4142135623731
  0
LINE
  5
28E
330
1F
100
AcDbEntity
  8
0-4_枠
  6
Continuous
 62
    92
370
    13
100
AcDbLine
 10
-2039.081457156683
 20
-408.9994156296288
 30
0.0
 11
-1982.081617373965
 21
-408.9994156296288
 31
0.0
  0
LINE
  5
28F
330
1F
100
AcDbEntity
  8
0-4_枠
  6
Continuous
 62
    92
370
    13
100
AcDbLine
 10
-2039.081457156683
 20
-408.9994156296288
 30
0.0
 11
-2039.081457156683
 21
-405.9994156296281
 31
0.0
  0
LINE
  5
290
330
1F
100
AcDbEntity
  8
0-4_枠
  6
Continuous
 62
    92
370
    13
100
AcDbLine
 10
-1979.081457156683
 20
-545.7567749425116
 30
0.0
 11
-1979.081457156683
 21
-405.9994156296281
 31
0.0
  0
LINE
  5
291
330
1F
100
AcDbEntity
  8
0-4_枠
  6
Continuous
 62
    92
370
    13
100
AcDbLine
 10
-1983.324097843801
 20
-549.9994156296302
 30
0.0
 11
-1979.081457156683
 21
-545.7567749425116
 31
0.0
  0
LINE
  5
292
330
1F
100
AcDbEntity
  8
0-4_枠
  6
Continuous
 62
    92
370
    13
100
AcDbLine
 10
-1984.567173406407
 20
-546.9998505051158
 30
0.0
 11
-1982.081617373965
 21
-544.5142944726726
 31
0.0
  0
LINE
  5
293
330
1F
100
AcDbEntity
  8
0-4_枠
  6
Continuous
 62
    92
370
    13
100
AcDbLine
 10
-1982.081617373965
 20
-544.5142944726726
 30
0.0
 11
-1982.081617373965
 21
-408.9994156296288
 31
0.0
  0
LINE
  5
294
330
1F
100
AcDbEntity
  8
0-4_枠
  6
Continuous
 62
    92
370
    13
100
AcDbLine
 10
-2801.08145715668
 20
-405.9994156296281
 30
0.0
 11
-2801.08145715668
 21
-408.9994156296288
 31
0.0
  0
LINE
  5
295
330
1F
100
AcDbEntity
  8
0-4_枠
  6
Continuous
 62
    92
370
    13
100
AcDbLine
 10
-2801.08145715668
 20
-408.9994156296288
 30
0.0
 11
-2858.081892032167
 21
-408.9994156296288
 31
0.0
  0
LINE
  5
296
330
1F
100
AcDbEntity
  8
0-4_枠
  6
Continuous
 62
    92
370
    13
100
AcDbLine
 10
-2861.08145715668
 20
-545.7567731240588
 30
0.0
 11
-2861.08145715668
 21
-405.9994156296281
 31
0.0
  0
LINE
  5
297
330
1F
100
AcDbEntity
  8
0-4_枠
  6
Continuous
 62
    92
370
    13
100
AcDbLine
 10
-2856.83881465111
 20
-549.9994119927246
 30
0.0
 11
-2861.08145715668
 21
-545.7567731240588
 31
0.0
  0
LINE
  5
298
330
1F
100
AcDbEntity
  8
0-4_枠
  6
Continuous
 62
    92
370
    13
100
AcDbLine
 10
-2855.595738366531
 20
-546.9998483430377
 30
0.0
 11
-2858.081892032167
 21
-544.5136968085976
 31
0.0
  0
LINE
  5
299
330
1F
100
AcDbEntity
  8
0-4_枠
  6
Continuous
 62
    92
370
    13
100
AcDbLine
 10
-2858.081892032167
 20
-544.5136968085976
 30
0.0
 11
-2858.081892032167
 21
-408.9994156296288
 31
0.0
  0
LINE
  5
29A
330
1F
100
AcDbEntity
  8
0-4_枠
  6
Continuous
 62
    92
370
    13
100
AcDbLine
 10
-2861.08145715668
 20
-405.9994156296281
 30
0.0
 11
-1979.081457156683
 21
-405.9994156296281
 31
0.0
  0
LINE
  5
29B
330
1F
100
AcDbEntity
  8
0-4_枠
  6
Continuous
 62
    92
370
    13
100
AcDbLine
 10
-2402.08145715668
 20
-549.9994156296302
 30
0.0
 11
-2402.08145715668
 21
-498.9994156296288
 31
0.0
  0
LINE
  5
29C
330
1F
100
AcDbEntity
  8
0-4_枠
  6
Continuous
 62
    92
370
    13
100
AcDbLine
 10
-2379.88145715668
 20
-549.9994156296302
 30
0.0
 11
-2379.88145715668
 21
-498.9994156296288
 31
0.0
  0
LINE
  5
29D
330
1F
100
AcDbEntity
  8
0-4_枠
  6
Continuous
 62
    92
370
    13
100
AcDbLine
 10
-2268.281457156681
 20
-549.9994156296302
 30
0.0
 11
-2268.281457156681
 21
-498.9994156296288
 31
0.0
  0
LINE
  5
29E
330
1F
100
AcDbEntity
  8
0-4_枠
  6
Continuous
 62
    92
370
    13
100
AcDbLine
 10
-2246.08145715668
 20
-498.9994156296288
 30
0.0
 11
-2246.08145715668
 21
-549.9994156296302
 31
0.0
  0
LINE
  5
29F
330
1F
100
AcDbEntity
  8
0-4_枠
  6
Continuous
 62
    92
370
    13
100
AcDbLine
 10
-2268.281457156681
 20
-498.9994156296288
 30
0.0
 11
-2246.08145715668
 21
-498.9994156296288
 31
0.0
  0
LINE
  5
2A0
330
1F
100
AcDbEntity
  8
0-4_枠
  6
Continuous
 62
    92
370
    13
100
AcDbLine
 10
-2402.08145715668
 20
-498.9994156296288
 30
0.0
 11
-2379.88145715668
 21
-498.9994156296288
 31
0.0
  0
LINE
  5
2A1
330
1F
100
AcDbEntity
  8
0-4_枠
  6
Continuous
 62
    92
370
    13
100
AcDbLine
 10
-2379.88145715668
 20
-546.9998505051158
 30
0.0
 11
-2268.281457156681
 21
-546.9998505051158
 31
0.0
  0
LINE
  5
2A2
330
1F
100
AcDbEntity
  8
0-4_枠
  6
Continuous
 62
    92
370
    13
100
AcDbLine
 10
-2379.88145715668
 20
-549.9994156296302
 30
0.0
 11
-2268.281457156681
 21
-549.9994156296302
 31
0.0
  0
LINE
  5
2A3
330
1F
100
AcDbEntity
  8
0-4_枠
  6
Continuous
 62
    92
370
    13
100
AcDbLine
 10
-1984.567173406405
 20
-546.9998505051158
 30
0.0
 11
-2246.08145715668
 21
-546.9998505051158
 31
0.0
  0
LINE
  5
2A4
330
1F
100
AcDbEntity
  8
0-4_枠
  6
Continuous
 62
    92
370
    13
100
AcDbLine
 10
-1983.324097843801
 20
-549.9994156296302
 30
0.0
 11
-2246.08145715668
 21
-549.9994156296302
 31
0.0
  0
LINE
  5
2A5
330
1F
100
AcDbEntity
  8
0-4_枠
  6
Continuous
 62
    92
370
    13
100
AcDbLine
 10
-2855.595740906956
 20
-546.9998505051158
 30
0.0
 11
-2402.08145715668
 21
-546.9998505051158
 31
0.0
  0
LINE
  5
2A6
330
1F
100
AcDbEntity
  8
0-4_枠
  6
Continuous
 62
    92
370
    13
100
AcDbLine
 10
-2856.838816469562
 20
-549.9994156296302
 30
0.0
 11
-2402.08145715668
 21
-549.9994156296302
 31
0.0
  0
LINE
  5
2A7
330
1F
100
AcDbEntity
  8
仕上げ
  6
Continuous
 62
    92
370
    13
100
AcDbLine
 10
-2735.08145715668
 20
-357.9994156296274
 30
0.0
 11
-2105.08145715668
 21
-357.9994156296274
 31
0.0
  0
LINE
  5
2A8
330
1F
100
AcDbEntity
  8
仕上げ
  6
Continuous
 62
    92
370
    13
100
AcDbLine
 10
-2735.08145715668
 20
-87.99941562962744
 30
0.0
 11
-2105.08145715668
 21
-87.99941562962744
 31
0.0
  0
LINE
  5
2A9
330
1F
100
AcDbEntity
  8
仕上げ
  6
Continuous
 62
    40
370
    15
100
AcDbLine
 10
-3095.081457156685
 20
-3159.999827616931
 30
0.0
 11
-1745.081457156684
 21
-3159.999827616931
 31
0.0
  0
LINE
  5
2AA
330
1F
100
AcDbEntity
  8
仕上げ
  6
Continuous
 62
    40
370
    15
100
AcDbLine
 10
-3095.081457156685
 20
-3087.999827616935
 30
0.0
 11
-1745.081457156684
 21
-3087.999827616935
 31
0.0
  0
LINE
  5
2AB
330
1F
100
AcDbEntity
  8
仕上げ
  6
Continuous
 62
    40
370
    15
100
AcDbLine
 10
-2030.081457156677
 20
-405.9994156296281
 30
0.0
 11
-2030.081457156677
 21
194.0005843703719
 31
0.0
  0
LINE
  5
2AC
330
1F
100
AcDbEntity
  8
仕上げ
  6
Continuous
 62
    40
370
    15
100
AcDbLine
 10
-2105.08145715668
 20
-405.9994156296281
 30
0.0
 11
-2105.08145715668
 21
194.0005843703719
 31
0.0
  0
LINE
  5
2AD
330
1F
100
AcDbEntity
  8
仕上げ
  6
Continuous
 62
    40
370
    15
100
AcDbLine
 10
-2735.08145715668
 20
-405.9994156296281
 30
0.0
 11
-2735.08145715668
 21
194.0005843703719
 31
0.0
  0
LINE
  5
2AE
330
1F
100
AcDbEntity
  8
仕上げ
  6
Continuous
 62
    40
370
    15
100
AcDbLine
 10
-2810.08145715668
 20
-405.9994156296281
 30
0.0
 11
-2810.08145715668
 21
194.0005843703719
 31
0.0
  0
LINE
  5
2AF
330
1F
100
AcDbEntity
  8
0-B_寸法
  6
Continuous
 62
   120
370
     5
100
AcDbLine
 10
-2015.081457156684
 20
-1146.288510343319
 30
0.0
 11
-2231.081457156682
 21
-1146.288510343319
 31
0.0
  0
TEXT
  5
2B0
330
1F
100
AcDbEntity
  8
0-B_寸法
  6
Continuous
 62
     7
370
   211
100
AcDbText
 10
-2183.081457156683
 20
-1114.368510343319
 30
0.0
 40
91.44
  1
36
  7
ＭＳ ゴシック
100
AcDbText
  0
LINE
  5
2B1
330
1F
100
AcDbEntity
  8
0-7_金物
  6
Continuous
 62
     7
370
     9
100
AcDbLine
 10
-2021.081457156682
 20
-3087.999827616935
 30
0.0
 11
-2015.081457156684
 21
-3087.999827616935
 31
0.0
  0
LINE
  5
2B2
330
1F
100
AcDbEntity
  8
0-7_金物
  6
Continuous
 62
     7
370
     9
100
AcDbLine
 10
-2055.881457156675
 20
-3087.999827616935
 30
0.0
 11
-2049.881457156676
 21
-3087.999827616935
 31
0.0
  0
LINE
  5
2B3
330
1F
100
AcDbEntity
  8
0-7_金物
  6
Continuous
 62
     7
370
     9
100
AcDbLine
 10
-2088.281457156675
 20
-3087.999827616935
 30
0.0
 11
-2082.281457156677
 21
-3087.999827616935
 31
0.0
  0
LINE
  5
2B4
330
1F
100
AcDbEntity
  8
0-7_金物
  6
Continuous
 62
     7
370
     9
100
AcDbLine
 10
-2126.081457156675
 20
-3087.999827616935
 30
0.0
 11
-2120.081457156677
 21
-3087.999827616935
 31
0.0
  0
LINE
  5
2B5
330
1F
100
AcDbEntity
  8
0-7_金物
  6
Continuous
 62
     7
370
     9
100
AcDbLine
 10
-2163.881457156675
 20
-3087.999827616935
 30
0.0
 11
-2157.881457156677
 21
-3087.999827616935
 31
0.0
  0
LINE
  5
2B6
330
1F
100
AcDbEntity
  8
0-7_金物
  6
Continuous
 62
     7
370
     9
100
AcDbLine
 10
-2196.281457156676
 20
-3087.999827616935
 30
0.0
 11
-2190.281457156676
 21
-3087.999827616935
 31
0.0
  0
LINE
  5
2B7
330
1F
100
AcDbEntity
  8
0-7_金物
  6
Continuous
 62
     7
370
     9
100
AcDbLine
 10
-2231.08145715668
 20
-3087.999827616935
 30
0.0
 11
-2225.08145715668
 21
-3087.999827616935
 31
0.0
  0
LINE
  5
2B8
330
1F
100
AcDbEntity
  8
0-7_金物
  6
Continuous
 62
     7
370
     9
100
AcDbLine
 10
-2088.281457156675
 20
-3075.999827616935
 30
0.0
 11
-2120.081457156677
 21
-3075.999827616935
 31
0.0
  0
LINE
  5
2B9
330
1F
100
AcDbEntity
  8
0-7_金物
  6
Continuous
 62
     7
370
     9
100
AcDbLine
 10
-2120.081457156677
 20
-3087.999827616935
 30
0.0
 11
-2120.081457156677
 21
-3075.999827616935
 31
0.0
  0
LINE
  5
2BA
330
1F
100
AcDbEntity
  8
0-7_金物
  6
Continuous
 62
     7
370
     9
100
AcDbLine
 10
-2055.881457156675
 20
-3075.999827616935
 30
0.0
 11
-2082.281457156677
 21
-3075.999827616935
 31
0.0
  0
LINE
  5
2BB
330
1F
100
AcDbEntity
  8
0-7_金物
  6
Continuous
 62
     7
370
     9
100
AcDbLine
 10
-2033.081457156681
 20
-3075.999827616935
 30
0.0
 11
-2049.881457156676
 21
-3075.999827616935
 31
0.0
  0
LINE
  5
2BC
330
1F
100
AcDbEntity
  8
0-7_金物
  6
Continuous
 62
     7
370
     9
100
AcDbLine
 10
-2126.081457156675
 20
-3075.999827616935
 30
0.0
 11
-2157.881457156677
 21
-3075.999827616935
 31
0.0
  0
LINE
  5
2BD
330
1F
100
AcDbEntity
  8
0-7_金物
  6
Continuous
 62
     7
370
     9
100
AcDbLine
 10
-2163.881457156675
 20
-3075.999827616935
 30
0.0
 11
-2190.281457156676
 21
-3075.999827616935
 31
0.0
  0
LINE
  5
2BE
330
1F
100
AcDbEntity
  8
0-7_金物
  6
Continuous
 62
     7
370
     9
100
AcDbLine
 10
-2196.281457156676
 20
-3075.999827616935
 30
0.0
 11
-2213.081457156681
 21
-3075.999827616935
 31
0.0
  0
LINE
  5
2BF
330
1F
100
AcDbEntity
  8
0-7_金物
  6
Continuous
 62
     7
370
     9
100
AcDbLine
 10
-2190.281457156676
 20
-3087.999827616935
 30
0.0
 11
-2190.281457156676
 21
-3075.999827616935
 31
0.0
  0
LINE
  5
2C0
330
1F
100
AcDbEntity
  8
0-7_金物
  6
Continuous
 62
     7
370
     9
100
AcDbLine
 10
-2196.281457156676
 20
-3087.999827616935
 30
0.0
 11
-2196.281457156676
 21
-3075.999827616935
 31
0.0
  0
LINE
  5
2C1
330
1F
100
AcDbEntity
  8
0-7_金物
  6
Continuous
 62
     7
370
     9
100
AcDbLine
 10
-2157.881457156677
 20
-3087.999827616935
 30
0.0
 11
-2157.881457156677
 21
-3075.999827616935
 31
0.0
  0
LINE
  5
2C2
330
1F
100
AcDbEntity
  8
0-7_金物
  6
Continuous
 62
     7
370
     9
100
AcDbLine
 10
-2163.881457156675
 20
-3087.999827616935
 30
0.0
 11
-2163.881457156675
 21
-3075.999827616935
 31
0.0
  0
LINE
  5
2C3
330
1F
100
AcDbEntity
  8
0-7_金物
  6
Continuous
 62
     7
370
     9
100
AcDbLine
 10
-2126.081457156675
 20
-3087.999827616935
 30
0.0
 11
-2126.081457156675
 21
-3075.999827616935
 31
0.0
  0
LINE
  5
2C4
330
1F
100
AcDbEntity
  8
0-7_金物
  6
Continuous
 62
     7
370
     9
100
AcDbLine
 10
-2055.881457156675
 20
-3087.999827616935
 30
0.0
 11
-2055.881457156675
 21
-3075.999827616935
 31
0.0
  0
LINE
  5
2C5
330
1F
100
AcDbEntity
  8
0-7_金物
  6
Continuous
 62
     7
370
     9
100
AcDbLine
 10
-2049.881457156676
 20
-3087.999827616935
 30
0.0
 11
-2049.881457156676
 21
-3075.999827616935
 31
0.0
  0
LINE
  5
2C6
330
1F
100
AcDbEntity
  8
0-7_金物
  6
Continuous
 62
     7
370
     9
100
AcDbLine
 10
-2088.281457156675
 20
-3087.999827616935
 30
0.0
 11
-2088.281457156675
 21
-3075.999827616935
 31
0.0
  0
LINE
  5
2C7
330
1F
100
AcDbEntity
  8
0-7_金物
  6
Continuous
 62
     7
370
     9
100
AcDbLine
 10
-2082.281457156677
 20
-3087.999827616935
 30
0.0
 11
-2082.281457156677
 21
-3075.999827616935
 31
0.0
  0
ARC
  5
2C8
330
1F
100
AcDbEntity
  8
0-7_金物
  6
Continuous
 62
     7
370
     9
100
AcDbCircle
 10
-2033.081457156681
 20
-3087.999827616935
 30
0.0
 40
12.0
100
AcDbArc
 50
0.0
 51
90.0
  0
ARC
  5
2C9
330
1F
100
AcDbEntity
  8
0-7_金物
  6
Continuous
 62
     7
370
     9
100
AcDbCircle
 10
-2213.081457156681
 20
-3087.999827616935
 30
0.0
 40
12.0
100
AcDbArc
 50
90.0
 51
180.0
  0
ARC
  5
2CA
330
1F
100
AcDbEntity
  8
0-7_金物
  6
Continuous
 62
     7
370
     9
100
AcDbCircle
 10
-2033.081457156681
 20
-3087.999827616935
 30
0.0
 40
18.0
100
AcDbArc
 50
0.0
 51
90.0
  0
LINE
  5
2CB
330
1F
100
AcDbEntity
  8
0-7_金物
  6
Continuous
 62
     7
370
     9
100
AcDbLine
 10
-2033.081457156681
 20
-3069.999827616934
 30
0.0
 11
-2213.081457156681
 21
-3069.999827616934
 31
0.0
  0
ARC
  5
2CC
330
1F
100
AcDbEntity
  8
0-7_金物
  6
Continuous
 62
     7
370
     9
100
AcDbCircle
 10
-2213.081457156681
 20
-3087.999827616935
 30
0.0
 40
18.0
100
AcDbArc
 50
90.0
 51
180.0
  0
LWPOLYLINE
  5
2CD
330
1F
100
AcDbEntity
  8
0-B_寸法
  6
Continuous
 62
     7
370
     9
100
AcDbPolyline
 90
        4
 70
     1
 43
6.0
 10
-2228.081457156682
 20
-1146.288510343319
 42
0.4142135623731
 10
-2231.081457156682
 20
-1143.288510343319
 42
0.4142135623731
 10
-2234.081457156682
 20
-1146.288510343319
 42
0.4142135623731
 10
-2231.081457156682
 20
-1149.288510343319
 42
0.4142135623731
  0
LWPOLYLINE
  5
2CE
330
1F
100
AcDbEntity
  8
0-B_寸法
  6
Continuous
 62
     7
370
     9
100
AcDbPolyline
 90
        4
 70
     1
 43
6.0
 10
-2012.081457156684
 20
-1146.288510343319
 42
0.4142135623731
 10
-2015.081457156684
 20
-1143.288510343319
 42
0.4142135623731
 10
-2018.081457156684
 20
-1146.288510343319
 42
0.4142135623731
 10
-2015.081457156684
 20
-1149.288510343319
 42
0.4142135623731
  0
LINE
  5
2CF
330
1F
100
AcDbEntity
  8
0-6_扉
  6
Continuous
 62
   200
370
    20
100
AcDbLine
 10
-2015.081457156684
 20
-567.9994156296275
 30
0.0
 11
-2015.081457156684
 21
-1716.999469989065
 31
0.0
  0
LINE
  5
2D0
330
1F
100
AcDbEntity
  8
0-6_扉
  6
Continuous
 62
   200
370
    20
100
AcDbLine
 10
-2231.081457156682
 20
-567.9994156296275
 30
0.0
 11
-2231.081457156682
 21
-1716.999469989065
 31
0.0
  0
LINE
  5
2D1
330
1F
100
AcDbEntity
  8
0-6_扉
  6
Continuous
 62
   200
370
    20
100
AcDbLine
 10
-2231.081457156682
 20
-567.9994156296275
 30
0.0
 11
-2015.081457156684
 21
-567.9994156296275
 31
0.0
  0
LINE
  5
2D2
330
1F
100
AcDbEntity
  8
0-6_扉
  6
Continuous
 62
   200
370
    20
100
AcDbLine
 10
-2231.081457156682
 20
-3009.999318354847
 30
0.0
 11
-2015.081457156684
 21
-3009.999318354847
 31
0.0
  0
LINE
  5
2D3
330
1F
100
AcDbEntity
  8
0-0_補助線
  6
JWW_HOJO
 62
   120
370
     5
100
AcDbLine
 10
-2123.081457156683
 20
-3279.99962162328
 30
0.0
 11
-2123.081457156683
 21
194.0005843703719
 31
0.0
  0
INSERT
  5
2D4
330
1F
100
AcDbEntity
  8
0-0_補助線
  6
Continuous
 62
     7
370
     9
100
AcDbBlockReference
  2
2@@SfigorgFlag@@4_0-0_
 10
-2314.612772565109
 20
-550.9254937046385
 30
0.0
 41
30.0
 42
30.0
 50
90.0
  0
TEXT
  5
2D5
330
1F
100
AcDbEntity
  8
0-B_寸法
  6
Continuous
 62
     7
370
     0
100
AcDbText
 10
-1140.916107583386
 20
-2319.999469989062
 30
0.0
 40
91.44
  1
枠外＝2,035(2,235)
 50
90.0
  7
ＭＳ ゴシック
100
AcDbText
  0
TEXT
  5
2D6
330
1F
100
AcDbEntity
  8
0-B_寸法
  6
Continuous
 62
     7
370
   211
100
AcDbText
 10
-1357.001457156682
 20
-2319.999469989062
 30
0.0
 40
91.44
  1
枠内＝2,008(2,208)
 50
90.0
  7
ＭＳ ゴシック
100
AcDbText
  0
TEXT
  5
2D7
330
1F
100
AcDbEntity
  8
0-B_寸法
  6
Continuous
 62
     7
370
     0
100
AcDbText
 10
-1565.082277801361
 20
-2319.999469989062
 30
0.0
 40
91.44
  1
ＤＨ＝1,995(2,195)
 50
90.0
  7
ＭＳ ゴシック
100
AcDbText
  0
TEXT
  5
2D8
330
1F
100
AcDbEntity
  8
0-A_文字
  6
Continuous
 62
     7
370
     0
100
AcDbText
 10
-2219.447185336041
 20
-3544.089101075576
 30
0.0
 40
68.58
  1
※(　)内寸法はハイドア
 41
1.151515151515152
  7
ＭＳ ゴシック
100
AcDbText
  0
LINE
  5
2D9
330
1F
100
AcDbEntity
  8
0-A_文字
  6
Continuous
 62
    92
370
    13
100
AcDbLine
 10
1719.918171683586
 20
-3273.999621623281
 30
0.0
 11
1719.918171683583
 21
-405.9994156296281
 31
0.0
  0
LINE
  5
2DA
330
1F
100
AcDbEntity
  8
0-A_文字
  6
Continuous
 62
    92
370
    13
100
AcDbLine
 10
3519.918171683587
 20
-3273.999621623279
 30
0.0
 11
3519.918171683587
 21
-405.9994156296281
 31
0.0
  0
LINE
  5
2DB
330
1F
100
AcDbEntity
  8
0-A_文字
  6
Continuous
 62
    92
370
    13
100
AcDbLine
 10
3519.918171683587
 20
-2305.040972509213
 30
0.0
 11
1719.918171683589
 21
-2305.040972509213
 31
0.0
  0
LINE
  5
2DC
330
1F
100
AcDbEntity
  8
0-A_文字
  6
Continuous
 62
    92
370
    13
100
AcDbLine
 10
3519.918171683587
 20
-3273.99962162328
 30
0.0
 11
1719.918171683586
 21
-3273.99962162328
 31
0.0
  0
LINE
  5
2DD
330
1F
100
AcDbEntity
  8
0-A_文字
  6
Continuous
 62
    92
370
    13
100
AcDbLine
 10
3519.918171683587
 20
-2125.040972509214
 30
0.0
 11
1719.918171683586
 21
-2125.040972509214
 31
0.0
  0
LINE
  5
2DE
330
1F
100
AcDbEntity
  8
0-4_枠
  6
Continuous
 62
    92
370
    13
100
AcDbLine
 10
2910.771030233654
 20
-885.9994156296282
 30
0.0
 11
2910.771030233654
 21
-1945.040972509215
 31
0.0
  0
LINE
  5
2DF
330
1F
100
AcDbEntity
  8
0-4_枠
  6
Continuous
 62
    92
370
    13
100
AcDbLine
 10
2694.771030233654
 20
-885.9994156296282
 30
0.0
 11
2694.771030233654
 21
-1945.040972509215
 31
0.0
  0
LINE
  5
2E0
330
1F
100
AcDbEntity
  8
0-B_寸法
  6
Continuous
 62
   120
370
     5
100
AcDbLine
 10
2694.771030233654
 20
-1426.449322020423
 30
0.0
 11
2910.771030233654
 21
-1426.449322020423
 31
0.0
  0
LWPOLYLINE
  5
2E1
330
1F
100
AcDbEntity
  8
0-B_寸法
  6
Continuous
 62
     7
370
     9
100
AcDbPolyline
 90
        4
 70
     1
 43
6.0
 10
2697.771030233654
 20
-1426.449322020423
 42
0.4142135623731
 10
2694.771030233654
 20
-1423.449322020423
 42
0.4142135623731
 10
2691.771030233654
 20
-1426.449322020423
 42
0.4142135623731
 10
2694.771030233654
 20
-1429.449322020423
 42
0.4142135623731
  0
LWPOLYLINE
  5
2E2
330
1F
100
AcDbEntity
  8
0-B_寸法
  6
Continuous
 62
     7
370
     9
100
AcDbPolyline
 90
        4
 70
     1
 43
6.0
 10
2913.771030233654
 20
-1426.449322020423
 42
0.4142135623731
 10
2910.771030233654
 20
-1423.449322020423
 42
0.4142135623731
 10
2907.771030233654
 20
-1426.449322020423
 42
0.4142135623731
 10
2910.771030233654
 20
-1429.449322020423
 42
0.4142135623731
  0
LINE
  5
2E3
330
1F
100
AcDbEntity
  8
0-B_寸法
  6
Continuous
 62
   120
370
     5
100
AcDbLine
 10
2505.771030233654
 20
-1238.141468608638
 30
0.0
 11
2694.771030233654
 21
-1238.141468608638
 31
0.0
  0
LWPOLYLINE
  5
2E4
330
1F
100
AcDbEntity
  8
0-B_寸法
  6
Continuous
 62
     7
370
     9
100
AcDbPolyline
 90
        4
 70
     1
 43
6.0
 10
2508.771030233654
 20
-1238.141468608638
 42
0.4142135623731
 10
2505.771030233654
 20
-1235.141468608638
 42
0.4142135623731
 10
2502.771030233654
 20
-1238.141468608638
 42
0.4142135623731
 10
2505.771030233654
 20
-1241.141468608638
 42
0.4142135623731
  0
LWPOLYLINE
  5
2E5
330
1F
100
AcDbEntity
  8
0-B_寸法
  6
Continuous
 62
     7
370
     9
100
AcDbPolyline
 90
        4
 70
     1
 43
6.0
 10
2697.771030233654
 20
-1238.141468608638
 42
0.4142135623731
 10
2694.771030233654
 20
-1235.141468608638
 42
0.4142135623731
 10
2691.771030233654
 20
-1238.141468608638
 42
0.4142135623731
 10
2694.771030233654
 20
-1241.141468608638
 42
0.4142135623731
  0
TEXT
  5
2E6
330
1F
100
AcDbEntity
  8
0-A_文字
  6
Continuous
 62
     7
370
     0
100
AcDbText
 10
1845.862863451524
 20
-539.0794156296282
 30
0.0
 40
91.44
  1
床直付けレール取付位置目安
 41
1.0
  7
ＭＳ ゴシック
100
AcDbText
  0
TEXT
  5
2E7
330
1F
100
AcDbEntity
  8
0-A_文字
  6
Continuous
 62
     7
370
     9
100
AcDbText
 10
2891.302045429157
 20
-1021.448022876289
 30
0.0
 40
91.44
  1
（ドア側）
  7
ＭＳ ゴシック
100
AcDbText
  0
TEXT
  5
2E8
330
1F
100
AcDbEntity
  8
0-B_寸法
  6
Continuous
 62
     7
370
   211
100
AcDbText
 10
2438.678997309302
 20
-1206.221468608638
 30
0.0
 40
91.44
  1
31.5
 41
1.09375
  7
ＭＳ ゴシック
100
AcDbText
  0
TEXT
  5
2E9
330
1F
100
AcDbEntity
  8
0-B_寸法
  6
Continuous
 62
     7
370
   211
100
AcDbText
 10
2739.021030233653
 20
-1394.529322020423
 30
0.0
 40
91.44
  1
36
 41
1.0625
  7
ＭＳ ゴシック
100
AcDbText
  0
TEXT
  5
2EA
330
1F
100
AcDbEntity
  8
0-A_文字
  6
Continuous
 62
     7
370
     9
100
AcDbText
 10
2025.862863451524
 20
-2258.120972509214
 30
0.0
 40
91.44
  1
下枠詳細図（S＝1/1）
  7
ＭＳ ゴシック
100
AcDbText
  0
TEXT
  5
2EB
330
1F
100
AcDbEntity
  8
0-A_文字
  6
Continuous
 62
     7
370
     0
100
AcDbText
 10
2199.918171683592
 20
-782.6278877055005
 30
0.0
 40
91.44
  1
壁(枠)センター
 41
0.9999999999999959
  7
ＭＳ ゴシック
100
AcDbText
  0
TEXT
  5
2EC
330
1F
100
AcDbEntity
  8
0-A_文字
  6
Continuous
 62
     7
370
     0
100
AcDbText
 10
2072.418171683585
 20
-1628.408505445339
 30
0.0
 40
91.44
  1
床
  7
ＭＳ ゴシック
100
AcDbText
  0
TEXT
  5
2ED
330
1F
100
AcDbEntity
  8
0-A_文字
  6
Continuous
 62
     7
370
     0
100
AcDbText
 10
3047.418171683587
 20
-1628.408505445339
 30
0.0
 40
91.44
  1
床
  7
ＭＳ ゴシック
100
AcDbText
  0
LINE
  5
2EE
330
1F
100
AcDbEntity
  8
仕上げ
  6
Continuous
 62
   120
370
     5
100
AcDbLine
 10
2910.771030233654
 20
-1485.424349757382
 30
0.0
 11
3279.918171683584
 21
-1485.424349757382
 31
0.0
  0
LINE
  5
2EF
330
1F
100
AcDbEntity
  8
仕上げ
  6
Continuous
 62
   120
370
     5
100
AcDbLine
 10
2910.771030233654
 20
-1285.616038381463
 30
0.0
 11
3279.918171683584
 21
-1285.616038381463
 31
0.0
  0
LINE
  5
2F0
330
1F
100
AcDbEntity
  8
仕上げ
  6
Continuous
 62
   120
370
     5
100
AcDbLine
 10
2910.771030233654
 20
-1085.807727005545
 30
0.0
 11
3279.918171683584
 21
-1085.807727005545
 31
0.0
  0
LINE
  5
2F1
330
1F
100
AcDbEntity
  8
仕上げ
  6
Continuous
 62
   120
370
     5
100
AcDbLine
 10
2694.771030233654
 20
-1285.616038381463
 30
0.0
 11
1959.918171683586
 21
-1285.616038381463
 31
0.0
  0
LINE
  5
2F2
330
1F
100
AcDbEntity
  8
仕上げ
  6
Continuous
 62
   120
370
     5
100
AcDbLine
 10
2694.771030233654
 20
-1485.424349757382
 30
0.0
 11
1959.918171683586
 21
-1485.424349757382
 31
0.0
  0
LINE
  5
2F3
330
1F
100
AcDbEntity
  8
仕上げ
  6
Continuous
 62
   120
370
     5
100
AcDbLine
 10
2694.771030233654
 20
-1685.232661133299
 30
0.0
 11
1959.918171683586
 21
-1685.232661133299
 31
0.0
  0
LINE
  5
2F4
330
1F
100
AcDbEntity
  8
仕上げ
  6
Continuous
 62
   120
370
     5
100
AcDbLine
 10
2694.771030233654
 20
-1885.040972509215
 30
0.0
 11
1959.918171683586
 21
-1885.040972509215
 31
0.0
  0
LINE
  5
2F5
330
1F
100
AcDbEntity
  8
仕上げ
  6
Continuous
 62
   120
370
     5
100
AcDbLine
 10
1959.918171683586
 20
-1085.807727005545
 30
0.0
 11
2694.771030233654
 21
-1085.807727005545
 31
0.0
  0
LINE
  5
2F6
330
1F
100
AcDbEntity
  8
仕上げ
  6
Continuous
 62
   120
370
     5
100
AcDbLine
 10
2910.771030233654
 20
-1685.232661133299
 30
0.0
 11
3279.918171683584
 21
-1685.232661133299
 31
0.0
  0
LINE
  5
2F7
330
1F
100
AcDbEntity
  8
仕上げ
  6
Continuous
 62
   120
370
     5
100
AcDbLine
 10
2910.771030233654
 20
-1885.040972509215
 30
0.0
 11
3279.918171683584
 21
-1885.040972509215
 31
0.0
  0
LINE
  5
2F8
330
1F
100
AcDbEntity
  8
0-1_通り芯
  6
JWW_CENTER1
 62
   120
370
     5
100
AcDbLine
 10
2505.771030233654
 20
-825.9994156296282
 30
0.0
 11
2505.771030233654
 21
-2005.040972509215
 31
0.0
  0
LINE
  5
2F9
330
1F
100
AcDbEntity
  8
7-B_寸法
  6
Continuous
 62
   120
370
     5
100
AcDbLine
 10
1965.862863451528
 20
-2869.392205548968
 30
0.0
 11
2145.862863451528
 21
-2869.392205548968
 31
0.0
  0
LINE
  5
2FA
330
1F
100
AcDbEntity
  8
7-B_寸法
  6
Continuous
 62
   120
370
     5
100
AcDbLine
 10
1965.862863451528
 20
-2959.392205548968
 30
0.0
 11
2145.862863451528
 21
-2959.392205548968
 31
0.0
  0
LINE
  5
2FB
330
1F
100
AcDbEntity
  8
7-B_寸法
  6
Continuous
 62
   120
370
     5
100
AcDbLine
 10
1965.862863451528
 20
-2959.392205548968
 30
0.0
 11
1965.862863451528
 21
-2869.392205548968
 31
0.0
  0
LINE
  5
2FC
330
1F
100
AcDbEntity
  8
7-B_寸法
  6
Continuous
 62
   120
370
     5
100
AcDbLine
 10
3285.862863451521
 20
-2659.392205548968
 30
0.0
 11
3285.862863451521
 21
-2809.392205548968
 31
0.0
  0
LINE
  5
2FD
330
1F
100
AcDbEntity
  8
7-B_寸法
  6
Continuous
 62
   120
370
     5
100
AcDbLine
 10
2205.862863451528
 20
-2659.392205548968
 30
0.0
 11
2205.862863451528
 21
-2809.392205548968
 31
0.0
  0
LINE
  5
2FE
330
1F
100
AcDbEntity
  8
7-B_寸法
  6
Continuous
 62
   120
370
     5
100
AcDbLine
 10
2205.862863451528
 20
-2659.392205548968
 30
0.0
 11
3285.862863451521
 21
-2659.392205548968
 31
0.0
  0
LWPOLYLINE
  5
2FF
330
1F
100
AcDbEntity
  8
7-B_寸法
  6
Continuous
 62
     7
370
     9
100
AcDbPolyline
 90
        4
 70
     1
 43
6.0
 10
1968.862863451528
 20
-2869.392205548968
 42
0.4142135623731
 10
1965.862863451528
 20
-2866.392205548968
 42
0.4142135623731
 10
1962.862863451528
 20
-2869.392205548968
 42
0.4142135623731
 10
1965.862863451528
 20
-2872.392205548968
 42
0.4142135623731
  0
LWPOLYLINE
  5
300
330
1F
100
AcDbEntity
  8
7-B_寸法
  6
Continuous
 62
     7
370
     9
100
AcDbPolyline
 90
        4
 70
     1
 43
6.0
 10
1968.862863451528
 20
-2959.392205548968
 42
0.4142135623731
 10
1965.862863451528
 20
-2956.392205548968
 42
0.4142135623731
 10
1962.862863451528
 20
-2959.392205548968
 42
0.4142135623731
 10
1965.862863451528
 20
-2962.392205548968
 42
0.4142135623731
  0
LWPOLYLINE
  5
301
330
1F
100
AcDbEntity
  8
7-B_寸法
  6
Continuous
 62
     7
370
     9
100
AcDbPolyline
 90
        4
 70
     1
 43
6.0
 10
3288.862863451521
 20
-2659.392205548968
 42
0.4142135623731
 10
3285.862863451521
 20
-2656.392205548968
 42
0.4142135623731
 10
3282.862863451522
 20
-2659.392205548968
 42
0.4142135623731
 10
3285.862863451521
 20
-2662.392205548968
 42
0.4142135623731
  0
LWPOLYLINE
  5
302
330
1F
100
AcDbEntity
  8
7-B_寸法
  6
Continuous
 62
     7
370
     9
100
AcDbPolyline
 90
        4
 70
     1
 43
6.0
 10
2208.862863451528
 20
-2659.392205548968
 42
0.4142135623731
 10
2205.862863451528
 20
-2656.392205548968
 42
0.4142135623731
 10
2202.862863451528
 20
-2659.392205548968
 42
0.4142135623731
 10
2205.862863451528
 20
-2662.392205548968
 42
0.4142135623731
  0
LINE
  5
303
330
1F
100
AcDbEntity
  8
7-7_金物
  6
Continuous
 62
     7
370
     9
100
AcDbLine
 10
3255.862863451521
 20
-2959.392205548968
 30
0.0
 11
3285.862863451521
 21
-2959.392205548968
 31
0.0
  0
LINE
  5
304
330
1F
100
AcDbEntity
  8
7-7_金物
  6
Continuous
 62
     7
370
     9
100
AcDbLine
 10
3081.862863451553
 20
-2959.392205548968
 30
0.0
 11
3111.86286345155
 21
-2959.392205548968
 31
0.0
  0
LINE
  5
305
330
1F
100
AcDbEntity
  8
7-7_金物
  6
Continuous
 62
     7
370
     9
100
AcDbLine
 10
2919.862863451551
 20
-2959.392205548968
 30
0.0
 11
2949.862863451547
 21
-2959.392205548968
 31
0.0
  0
LINE
  5
306
330
1F
100
AcDbEntity
  8
7-7_金物
  6
Continuous
 62
     7
370
     9
100
AcDbLine
 10
2730.862863451552
 20
-2959.392205548968
 30
0.0
 11
2760.862863451548
 21
-2959.392205548968
 31
0.0
  0
LINE
  5
307
330
1F
100
AcDbEntity
  8
7-7_金物
  6
Continuous
 62
     7
370
     9
100
AcDbLine
 10
2541.862863451552
 20
-2959.392205548968
 30
0.0
 11
2571.86286345155
 21
-2959.392205548968
 31
0.0
  0
LINE
  5
308
330
1F
100
AcDbEntity
  8
7-7_金物
  6
Continuous
 62
     7
370
     9
100
AcDbLine
 10
2379.862863451549
 20
-2959.392205548968
 30
0.0
 11
2409.862863451549
 21
-2959.392205548968
 31
0.0
  0
LINE
  5
309
330
1F
100
AcDbEntity
  8
7-7_金物
  6
Continuous
 62
     7
370
     9
100
AcDbLine
 10
2205.862863451528
 20
-2959.392205548968
 30
0.0
 11
2235.862863451528
 21
-2959.392205548968
 31
0.0
  0
LINE
  5
30A
330
1F
100
AcDbEntity
  8
7-7_金物
  6
Continuous
 62
     7
370
     9
100
AcDbLine
 10
2919.862863451551
 20
-2899.392205548968
 30
0.0
 11
2760.862863451548
 21
-2899.392205548968
 31
0.0
  0
LINE
  5
30B
330
1F
100
AcDbEntity
  8
7-7_金物
  6
Continuous
 62
     7
370
     9
100
AcDbLine
 10
2760.862863451548
 20
-2959.392205548968
 30
0.0
 11
2760.862863451548
 21
-2899.392205548968
 31
0.0
  0
LINE
  5
30C
330
1F
100
AcDbEntity
  8
7-7_金物
  6
Continuous
 62
     7
370
     9
100
AcDbLine
 10
3081.862863451553
 20
-2899.392205548968
 30
0.0
 11
2949.862863451547
 21
-2899.392205548968
 31
0.0
  0
LINE
  5
30D
330
1F
100
AcDbEntity
  8
7-7_金物
  6
Continuous
 62
     7
370
     9
100
AcDbLine
 10
3195.862863451521
 20
-2899.392205548968
 30
0.0
 11
3111.86286345155
 21
-2899.392205548968
 31
0.0
  0
LINE
  5
30E
330
1F
100
AcDbEntity
  8
7-7_金物
  6
Continuous
 62
     7
370
     9
100
AcDbLine
 10
2730.862863451552
 20
-2899.392205548968
 30
0.0
 11
2571.86286345155
 21
-2899.392205548968
 31
0.0
  0
LINE
  5
30F
330
1F
100
AcDbEntity
  8
7-7_金物
  6
Continuous
 62
     7
370
     9
100
AcDbLine
 10
2541.862863451552
 20
-2899.392205548968
 30
0.0
 11
2409.862863451549
 21
-2899.392205548968
 31
0.0
  0
LINE
  5
310
330
1F
100
AcDbEntity
  8
7-7_金物
  6
Continuous
 62
     7
370
     9
100
AcDbLine
 10
2379.862863451549
 20
-2899.392205548968
 30
0.0
 11
2295.862863451528
 21
-2899.392205548968
 31
0.0
  0
LINE
  5
311
330
1F
100
AcDbEntity
  8
7-7_金物
  6
Continuous
 62
     7
370
     9
100
AcDbLine
 10
2409.862863451549
 20
-2959.392205548968
 30
0.0
 11
2409.862863451549
 21
-2899.392205548968
 31
0.0
  0
LINE
  5
312
330
1F
100
AcDbEntity
  8
7-7_金物
  6
Continuous
 62
     7
370
     9
100
AcDbLine
 10
2379.862863451549
 20
-2959.392205548968
 30
0.0
 11
2379.862863451549
 21
-2899.392205548968
 31
0.0
  0
LINE
  5
313
330
1F
100
AcDbEntity
  8
7-7_金物
  6
Continuous
 62
     7
370
     9
100
AcDbLine
 10
2571.86286345155
 20
-2959.392205548968
 30
0.0
 11
2571.86286345155
 21
-2899.392205548968
 31
0.0
  0
LINE
  5
314
330
1F
100
AcDbEntity
  8
7-7_金物
  6
Continuous
 62
     7
370
     9
100
AcDbLine
 10
2541.862863451552
 20
-2959.392205548968
 30
0.0
 11
2541.862863451552
 21
-2899.392205548968
 31
0.0
  0
LINE
  5
315
330
1F
100
AcDbEntity
  8
7-7_金物
  6
Continuous
 62
     7
370
     9
100
AcDbLine
 10
2730.862863451552
 20
-2959.392205548968
 30
0.0
 11
2730.862863451552
 21
-2899.392205548968
 31
0.0
  0
LINE
  5
316
330
1F
100
AcDbEntity
  8
7-7_金物
  6
Continuous
 62
     7
370
     9
100
AcDbLine
 10
3081.862863451553
 20
-2959.392205548968
 30
0.0
 11
3081.862863451553
 21
-2899.392205548968
 31
0.0
  0
LINE
  5
317
330
1F
100
AcDbEntity
  8
7-7_金物
  6
Continuous
 62
     7
370
     9
100
AcDbLine
 10
3111.86286345155
 20
-2959.392205548968
 30
0.0
 11
3111.86286345155
 21
-2899.392205548968
 31
0.0
  0
LINE
  5
318
330
1F
100
AcDbEntity
  8
7-7_金物
  6
Continuous
 62
     7
370
     9
100
AcDbLine
 10
2919.862863451551
 20
-2959.392205548968
 30
0.0
 11
2919.862863451551
 21
-2899.392205548968
 31
0.0
  0
LINE
  5
319
330
1F
100
AcDbEntity
  8
7-7_金物
  6
Continuous
 62
     7
370
     9
100
AcDbLine
 10
2949.862863451547
 20
-2959.392205548968
 30
0.0
 11
2949.862863451547
 21
-2899.392205548968
 31
0.0
  0
LINE
  5
31A
330
1F
100
AcDbEntity
  8
7-7_金物
  6
Continuous
 62
     7
370
     9
100
AcDbLine
 10
3195.862863451521
 20
-2869.392205548968
 30
0.0
 11
2295.862863451528
 21
-2869.392205548968
 31
0.0
  0
LINE
  5
31B
330
1F
100
AcDbEntity
  8
7-7_金物
  6
JWW_CENTER1
 62
   120
370
     5
100
AcDbLine
 10
3015.862863451548
 20
-2979.187353605446
 30
0.0
 11
3015.862863451548
 21
-2796.001726628747
 31
0.0
  0
LINE
  5
31C
330
1F
100
AcDbEntity
  8
7-7_金物
  6
JWW_CENTER1
 62
   120
370
     5
100
AcDbLine
 10
2475.862863451548
 20
-2979.187353605446
 30
0.0
 11
2475.862863451548
 21
-2796.001726628747
 31
0.0
  0
ARC
  5
31D
330
1F
100
AcDbEntity
  8
7-7_金物
  6
Continuous
 62
     7
370
     9
100
AcDbCircle
 10
3195.862863451521
 20
-2959.392205548968
 30
0.0
 40
59.99999999999999
100
AcDbArc
 50
0.0
 51
90.0
  0
ARC
  5
31E
330
1F
100
AcDbEntity
  8
7-7_金物
  6
Continuous
 62
     7
370
     9
100
AcDbCircle
 10
2295.862863451528
 20
-2959.392205548968
 30
0.0
 40
59.99999999999999
100
AcDbArc
 50
90.0
 51
180.0
  0
ARC
  5
31F
330
1F
100
AcDbEntity
  8
7-7_金物
  6
Continuous
 62
     7
370
     9
100
AcDbCircle
 10
3195.862863451521
 20
-2959.392205548968
 30
0.0
 40
90.0
100
AcDbArc
 50
0.0
 51
90.0
  0
ARC
  5
320
330
1F
100
AcDbEntity
  8
7-7_金物
  6
Continuous
 62
     7
370
     9
100
AcDbCircle
 10
2295.862863451528
 20
-2959.392205548968
 30
0.0
 40
90.0
100
AcDbArc
 50
90.0
 51
180.0
  0
TEXT
  5
321
330
1F
100
AcDbEntity
  8
7-B_寸法
  6
Continuous
 62
     7
370
   211
100
AcDbText
 10
2682.112863451525
 20
-2627.472205548968
 30
0.0
 40
91.44
  1
36
 41
1.0625
  7
ＭＳ ゴシック
100
AcDbText
  0
TEXT
  5
322
330
1F
100
AcDbEntity
  8
7-B_寸法
  6
Continuous
 62
     7
370
   211
100
AcDbText
 10
1933.942863451528
 20
-2944.392205548968
 30
0.0
 40
91.44
  1
3
 50
90.0
  7
ＭＳ ゴシック
100
AcDbText
  0
LINE
  5
323
330
1F
100
AcDbEntity
  8
0-A_文字
  6
Continuous
 62
    92
370
    13
100
AcDbLine
 10
3519.918171683587
 20
-405.9994156296281
 30
0.0
 11
1719.918171683583
 21
-405.9994156296281
 31
0.0
  0
LINE
  5
324
330
1F
100
AcDbEntity
  8
0-A_文字
  6
Continuous
 62
    92
370
    13
100
AcDbLine
 10
3519.918171683587
 20
-585.9994156296282
 30
0.0
 11
1719.918171683583
 21
-585.9994156296282
 31
0.0
  0
LINE
  5
325
330
1F
100
AcDbEntity
  8
0-A_文字
  6
Continuous
 62
    92
370
    13
100
AcDbLine
 10
1719.918171683583
 20
-405.9994156296281
 30
0.0
 11
1719.918171683583
 21
-2125.040972509215
 31
0.0
  0
LINE
  5
326
330
1F
100
AcDbEntity
  8
0-A_文字
  6
Continuous
 62
    92
370
    13
100
AcDbLine
 10
1719.918171683583
 20
-585.9994156296282
 30
0.0
 11
219.9181716835801
 21
-585.9994156296282
 31
0.0
  0
LINE
  5
327
330
1F
100
AcDbEntity
  8
0-A_文字
  6
Continuous
 62
    92
370
    13
100
AcDbLine
 10
1719.918171683582
 20
-405.9994156296281
 30
0.0
 11
219.9181716835801
 21
-405.9994156296281
 31
0.0
  0
LINE
  5
328
330
1F
100
AcDbEntity
  8
0-A_文字
  6
Continuous
 62
    92
370
    13
100
AcDbLine
 10
1719.918171683583
 20
-2125.040972509215
 30
0.0
 11
219.9181716835818
 21
-2125.040972509215
 31
0.0
  0
LINE
  5
329
330
1F
100
AcDbEntity
  8
0-A_文字
  6
Continuous
 62
    92
370
    13
100
AcDbLine
 10
219.9181716835818
 20
-405.9994156296281
 30
0.0
 11
219.9181716835818
 21
-2125.040972509215
 31
0.0
  0
TEXT
  5
32A
330
1F
100
AcDbEntity
  8
0-A_文字
  6
Continuous
 62
     7
370
     9
100
AcDbText
 10
549.9181716835818
 20
-539.0794156296282
 30
0.0
 40
91.44
  1
竪枠下端形状図
  7
ＭＳ ゴシック
100
AcDbText
  0
LINE
  5
32B
330
1F
100
AcDbEntity
  8
0-A_文字
  6
Continuous
 62
    92
370
    13
100
AcDbLine
 10
504.9181716835801
 20
-1707.877329938575
 30
0.0
 11
1434.918171683584
 21
-1707.877329938575
 31
0.0
  0
LINE
  5
32C
330
1F
100
AcDbEntity
  8
0-A_文字
  6
Continuous
 62
   120
370
     5
100
AcDbLine
 10
504.9181716835801
 20
-763.594407255288
 30
0.0
 11
1434.918171683584
 21
-763.594407255288
 31
0.0
  0
LWPOLYLINE
  5
32D
330
1F
100
AcDbEntity
  8
0-A_文字
  6
Continuous
 62
     7
370
     9
100
AcDbPolyline
 90
        4
 70
     1
 43
6.0
 10
507.9181716835802
 20
-763.594407255288
 42
0.4142135623731
 10
504.9181716835801
 20
-760.594407255288
 42
0.4142135623731
 10
501.9181716835801
 20
-763.594407255288
 42
0.4142135623731
 10
504.9181716835801
 20
-766.5944072552882
 42
0.4142135623731
  0
LWPOLYLINE
  5
32E
330
1F
100
AcDbEntity
  8
0-A_文字
  6
Continuous
 62
     7
370
     9
100
AcDbPolyline
 90
        4
 70
     1
 43
6.0
 10
1437.918171683584
 20
-763.594407255288
 42
0.4142135623731
 10
1434.918171683584
 20
-760.594407255288
 42
0.4142135623731
 10
1431.918171683584
 20
-763.594407255288
 42
0.4142135623731
 10
1434.918171683584
 20
-766.5944072552882
 42
0.4142135623731
  0
LINE
  5
32F
330
1F
100
AcDbEntity
  8
0-A_文字
  6
Continuous
 62
   120
370
     5
100
AcDbLine
 10
504.9181716835801
 20
-763.594407255288
 30
0.0
 11
504.9181716835801
 21
-907.5335478973144
 31
0.0
  0
LINE
  5
330
330
1F
100
AcDbEntity
  8
0-A_文字
  6
Continuous
 62
   120
370
     5
100
AcDbLine
 10
1434.918171683584
 20
-763.594407255288
 30
0.0
 11
1434.918171683584
 21
-907.5335478973144
 31
0.0
  0
TEXT
  5
331
330
1F
100
AcDbEntity
  8
0-A_文字
  6
Continuous
 62
     7
370
   211
100
AcDbText
 10
872.4181716835818
 20
-731.6744072552881
 30
0.0
 40
91.44
  1
155
 41
1.083333333333333
  7
ＭＳ ゴシック
100
AcDbText
  0
LINE
  5
332
330
1F
100
AcDbEntity
  8
0-A_文字
  6
Continuous
 62
    92
370
    13
100
AcDbLine
 10
504.9181716835801
 20
-995.9552350902106
 30
0.0
 11
504.9181716835801
 21
-1707.877329938575
 31
0.0
  0
LINE
  5
333
330
1F
100
AcDbEntity
  8
0-A_文字
  6
Continuous
 62
    92
370
    13
100
AcDbLine
 10
1434.918171683584
 20
-995.9552350902106
 30
0.0
 11
1434.918171683584
 21
-1707.877329938575
 31
0.0
  0
TEXT
  5
334
330
1F
100
AcDbEntity
  8
0-B_寸法
  6
Continuous
 62
     7
370
   211
100
AcDbText
 10
-560.0814571566816
 20
1465.920197957022
 30
0.0
 40
91.44
  1
有効開口寸法＝536
 41
1.117647058823529
  7
ＭＳ ゴシック
100
AcDbText
  0
TEXT
  5
335
330
1F
100
AcDbEntity
  8
0-B_寸法
  6
Continuous
 62
     7
370
   211
100
AcDbText
 10
-260.0814571566816
 20
1255.919683277027
 30
0.0
 40
91.44
  1
ＤＷ＝599
  7
ＭＳ ゴシック
100
AcDbText
  0
TEXT
  5
336
330
1F
100
AcDbEntity
  8
0-B_寸法
  6
Continuous
 62
     7
370
   211
100
AcDbText
 10
-260.0814571566816
 20
1045.919683277027
 30
0.0
 40
91.44
  1
枠内＝606
  7
ＭＳ ゴシック
100
AcDbText
  0
TEXT
  5
337
330
1F
100
AcDbEntity
  8
0-B_寸法
  6
Continuous
 62
     7
370
   211
100
AcDbText
 10
-260.0814571566816
 20
835.9196832770273
 30
0.0
 40
91.44
  1
枠外＝654
  7
ＭＳ ゴシック
100
AcDbText
  0
TEXT
  5
338
330
1F
100
AcDbEntity
  8
0-A_文字
  6
Continuous
 62
    92
370
    13
100
AcDbText
 10
-5599.999495325861
 20
3800.380181455871
 30
0.0
 40
137.16
  1
トイレドア　床直付けレール[固定枠155巾]
 41
1.081196581196581
  7
ＭＳ ゴシック
100
AcDbText
  0
TEXT
  5
339
330
1F
100
AcDbEntity
  8
F-A_文字
  6
Continuous
 62
     7
370
     0
100
AcDbText
 10
-5087.628710189612
 20
-4027.309936078389
 30
0.0
 40
68.58
  1
ソフトアート　トイレドア　固定枠155　通気　床直付けレール(アルミ)　ドアＨ共通　枠外Ｗ654
 41
1.164772727272727
  7
ＭＳ ゴシック
100
AcDbText
  0
TEXT
  5
33A
330
1F
100
AcDbEntity
  8
F-A_文字
  6
Continuous
 62
     7
370
     9
100
AcDbText
 10
3254.917643811961
 20
-4127.313118467413
 30
0.0
 40
68.58
  1
F03(X)-D0654TAe_S01
 41
1.157894736842105
  7
ＭＳ ゴシック
100
AcDbText
  0
ENDSEC
  0
SECTION
  2
OBJECTS
  0
DICTIONARY
  5
C
330
0
100
AcDbDictionary
281
     1
  3
ACAD_DETAILVIEWSTYLE
350
3F8
  3
ACAD_GROUP
350
D
  3
ACAD_LAYOUT
350
1A
  3
ACAD_MATERIAL
350
43
  3
ACAD_MLEADERSTYLE
350
6B
  3
ACAD_MLINESTYLE
350
17
  3
ACAD_PLOTSETTINGS
350
19
  3
ACAD_PLOTSTYLENAME
350
E
  3
ACAD_SCALELIST
350
47
  3
ACAD_SECTIONVIEWSTYLE
350
3F9
  3
ACAD_TABLESTYLE
350
69
  3
ACAD_VISUALSTYLE
350
2A
  3
ACDB_RECOMPOSE_DATA
350
3F5
  3
AcDbVariableDictionary
350
3C1
  0
SUN
  5
6D
330
29
100
AcDbSun
 90
        1
290
     0
 63
     7
421
 16777215
 40
1.0
291
     1
 91
  2455826
 92
 54000000
292
     0
 70
     2
 71
   256
280
     1
  0
DICTIONARY
  5
3F8
102
{ACAD_REACTORS
330
C
102
}
330
C
100
AcDbDictionary
281
     1
  0
DICTIONARY
  5
D
102
{ACAD_REACTORS
330
C
102
}
330
C
100
AcDbDictionary
281
     1
  0
DICTIONARY
  5
1A
102
{ACAD_REACTORS
330
C
102
}
330
C
100
AcDbDictionary
281
     1
  3
Layout1
350
1E
  3
Layout2
350
26
  3
Model
350
22
  0
DICTIONARY
  5
43
102
{ACAD_REACTORS
330
C
102
}
330
C
100
AcDbDictionary
281
     1
  3
ByBlock
350
45
  3
ByLayer
350
44
  3
Global
350
46
  0
DICTIONARY
  5
6B
102
{ACAD_REACTORS
330
C
102
}
330
C
100
AcDbDictionary
281
     1
  3
Standard
350
6C
  0
DICTIONARY
  5
17
102
{ACAD_REACTORS
330
C
102
}
330
C
100
AcDbDictionary
281
     1
  3
Standard
350
18
  0
DICTIONARY
  5
19
102
{ACAD_REACTORS
330
C
102
}
330
C
100
AcDbDictionary
281
     1
  0
ACDBDICTIONARYWDFLT
  5
E
102
{ACAD_REACTORS
330
C
102
}
330
C
100
AcDbDictionary
281
     1
  3
Normal
350
F
100
AcDbDictionaryWithDefault
340
F
  0
DICTIONARY
  5
47
102
{ACAD_REACTORS
330
C
102
}
330
C
100
AcDbDictionary
281
     1
  3
A0
350
48
  3
A1
350
49
  3
A2
350
4A
  3
A3
350
4B
  3
A4
350
4C
  3
A5
350
4D
  3
A6
350
4E
  3
A7
350
4F
  3
A8
350
50
  3
A9
350
51
  3
B0
350
52
  3
B1
350
53
  3
B2
350
54
  3
B3
350
55
  3
B4
350
56
  3
B5
350
57
  3
B6
350
58
  3
B7
350
59
  3
B8
350
5A
  3
B9
350
5B
  3
C0
350
5C
  3
C1
350
5D
  3
C2
350
5E
  3
C3
350
5F
  3
C4
350
60
  3
C5
350
61
  3
C6
350
62
  3
C7
350
63
  3
C8
350
64
  3
C9
350
65
  3
D0
350
66
  3
D1
350
67
  3
D2
350
68
  0
DICTIONARY
  5
3F9
102
{ACAD_REACTORS
330
C
102
}
330
C
100
AcDbDictionary
281
     1
  0
DICTIONARY
  5
69
102
{ACAD_REACTORS
330
C
102
}
330
C
100
AcDbDictionary
281
     1
  3
Standard
350
6A
  0
DICTIONARY
  5
2A
102
{ACAD_REACTORS
330
C
102
}
330
C
100
AcDbDictionary
281
     1
  3
2dWireframe
350
2F
  3
Basic
350
32
  3
Brighten
350
36
  3
ColorChange
350
3A
  3
Conceptual
350
34
  3
Dim
350
35
  3
EdgeColorOff
350
3D
  3
Facepattern
350
39
  3
Flat
350
2B
  3
FlatWithEdges
350
2C
  3
Gouraud
350
2D
  3
GouraudWithEdges
350
2E
  3
Hidden
350
31
  3
JitterOff
350
3B
  3
Linepattern
350
38
  3
OverhangOff
350
3C
  3
Realistic
350
33
  3
Shaded
350
42
  3
Shaded with edges
350
41
  3
Shades of Gray
350
3E
  3
Sketchy
350
3F
  3
Thicken
350
37
  3
Wireframe
350
30
  3
X-Ray
350
40
  0
XRECORD
  5
3F5
102
{ACAD_REACTORS
330
C
102
}
330
C
100
AcDbXrecord
280
     1
 90
        1
330
6A
  0
DICTIONARY
  5
3C1
102
{ACAD_REACTORS
330
C
102
}
330
C
100
AcDbDictionary
281
     1
  3
CANNOSCALE
350
3C2
  3
CENTEREXE
350
3FA
  3
CENTERLTYPEFILE
350
3FB
  3
CMLEADERSTYLE
350
3F7
  3
CTABLESTYLE
350
3F6
  0
LAYOUT
  5
1E
102
{ACAD_REACTORS
330
1A
102
}
330
1A
100
AcDbPlotSettings
  1

  2
none_device
  4

  6

 40
0.0
 41
0.0
 42
0.0
 43
0.0
 44
0.0
 45
0.0
 46
0.0
 47
0.0
 48
0.0
 49
0.0
140
0.0
141
0.0
142
1.0
143
1.0
 70
   688
 72
     1
 73
     0
 74
     5
  7

 75
    16
 76
     0
 77
     5
 78
   300
147
1.0
148
0.0
149
0.0
100
AcDbLayout
  1
Layout1
 70
     1
 71
     1
 10
0.0
 20
0.0
 11
420.0
 21
297.0
 12
0.0
 22
0.0
 32
0.0
 14
1.000000000000000E+20
 24
1.000000000000000E+20
 34
1.000000000000000E+20
 15
-1.000000000000000E+20
 25
-1.000000000000000E+20
 35
-1.000000000000000E+20
146
0.0
 13
0.0
 23
0.0
 33
0.0
 16
1.0
 26
0.0
 36
0.0
 17
0.0
 27
1.0
 37
0.0
 76
     0
330
1B
  0
LAYOUT
  5
26
102
{ACAD_REACTORS
330
1A
102
}
330
1A
100
AcDbPlotSettings
  1

  2
none_device
  4

  6

 40
0.0
 41
0.0
 42
0.0
 43
0.0
 44
0.0
 45
0.0
 46
0.0
 47
0.0
 48
0.0
 49
0.0
140
0.0
141
0.0
142
1.0
143
1.0
 70
   688
 72
     1
 73
     0
 74
     5
  7

 75
    16
 76
     0
 77
     5
 78
   300
147
1.0
148
0.0
149
0.0
100
AcDbLayout
  1
Layout2
 70
     1
 71
     2
 10
0.0
 20
0.0
 11
0.0
 21
0.0
 12
0.0
 22
0.0
 32
0.0
 14
0.0
 24
0.0
 34
0.0
 15
0.0
 25
0.0
 35
0.0
146
0.0
 13
0.0
 23
0.0
 33
0.0
 16
1.0
 26
0.0
 36
0.0
 17
0.0
 27
1.0
 37
0.0
 76
     0
330
23
  0
LAYOUT
  5
22
102
{ACAD_REACTORS
330
1A
102
}
330
1A
100
AcDbPlotSettings
  1

  2
none_device
  4
Letter_(8.50_x_11.00_Inches)
  6

 40
6.35
 41
6.35
 42
6.35000508
 43
6.35000508
 44
215.9
 45
279.4
 46
0.0
 47
0.0
 48
0.0
 49
0.0
140
0.0
141
0.0
142
1.0
143
1.0
 70
  1712
 72
     1
 73
     0
 74
     0
  7

 75
     0
 76
     0
 77
     5
 78
   300
147
1.0
148
0.0
149
0.0
100
AcDbLayout
  1
Model
 70
     1
 71
     0
 10
-6300.0
 20
-4455.0
 11
6300.0
 21
4455.0
 12
0.0
 22
0.0
 32
0.0
 14
-6300.0
 24
-4455.0
 34
0.0
 15
6300.0
 25
4455.0
 35
0.0
146
0.0
 13
0.0
 23
0.0
 33
0.0
 16
1.0
 26
0.0
 36
0.0
 17
0.0
 27
1.0
 37
0.0
 76
     0
330
1F
331
29
  0
MATERIAL
  5
45
102
{ACAD_REACTORS
330
43
102
}
330
43
100
AcDbMaterial
  1
ByBlock
 72
     1
 94
      127
  0
MATERIAL
  5
44
102
{ACAD_REACTORS
330
43
102
}
330
43
100
AcDbMaterial
  1
ByLayer
 72
     1
 94
      127
  0
MATERIAL
  5
46
102
{ACAD_REACTORS
330
43
102
}
330
43
100
AcDbMaterial
  1
Global
 72
     1
 94
      127
  0
MLEADERSTYLE
  5
6C
102
{ACAD_REACTORS
330
6B
102
}
330
6B
100
AcDbMLeaderStyle
179
     2
170
     2
171
     1
172
     0
 90
        2
 40
0.0
 41
0.0
173
     1
 91
-1056964608
340
14
 92
       -2
290
     1
 42
2.0
291
     1
 43
8.0
  3
Standard
341
0
 44
4.0
300

342
11
174
     1
178
     6
175
     1
176
     0
 93
-1056964608
 45
4.0
292
     0
297
     0
 46
4.0
343
0
 94
-1056964608
 47
1.0
 49
1.0
140
1.0
293
     1
141
0.0
294
     1
177
     0
142
1.0
295
     0
296
     0
143
3.75
271
     0
272
     9
273
     9
  0
MLINESTYLE
  5
18
102
{ACAD_REACTORS
330
17
102
}
330
17
100
AcDbMlineStyle
  2
Standard
 70
     0
  3

 62
   256
 51
90.0
 52
90.0
 71
     2
 49
0.5
 62
   256
  6
BYLAYER
 49
-0.5
 62
   256
  6
BYLAYER
  0
ACDBPLACEHOLDER
  5
F
102
{ACAD_REACTORS
330
E
102
}
330
E
  0
SCALE
  5
48
102
{ACAD_REACTORS
330
47
102
}
330
47
100
AcDbScale
 70
     0
300
1:1
140
1.0
141
1.0
290
     1
  0
SCALE
  5
49
102
{ACAD_REACTORS
330
47
102
}
330
47
100
AcDbScale
 70
     0
300
1:2
140
1.0
141
2.0
290
     0
  0
SCALE
  5
4A
102
{ACAD_REACTORS
330
47
102
}
330
47
100
AcDbScale
 70
     0
300
1:4
140
1.0
141
4.0
290
     0
  0
SCALE
  5
4B
102
{ACAD_REACTORS
330
47
102
}
330
47
100
AcDbScale
 70
     0
300
1:5
140
1.0
141
5.0
290
     0
  0
SCALE
  5
4C
102
{ACAD_REACTORS
330
47
102
}
330
47
100
AcDbScale
 70
     0
300
1:8
140
1.0
141
8.0
290
     0
  0
SCALE
  5
4D
102
{ACAD_REACTORS
330
47
102
}
330
47
100
AcDbScale
 70
     0
300
1:10
140
1.0
141
10.0
290
     0
  0
SCALE
  5
4E
102
{ACAD_REACTORS
330
47
102
}
330
47
100
AcDbScale
 70
     0
300
1:16
140
1.0
141
16.0
290
     0
  0
SCALE
  5
4F
102
{ACAD_REACTORS
330
47
102
}
330
47
100
AcDbScale
 70
     0
300
1:20
140
1.0
141
20.0
290
     0
  0
SCALE
  5
50
102
{ACAD_REACTORS
330
47
102
}
330
47
100
AcDbScale
 70
     0
300
1:30
140
1.0
141
30.0
290
     0
  0
SCALE
  5
51
102
{ACAD_REACTORS
330
47
102
}
330
47
100
AcDbScale
 70
     0
300
1:40
140
1.0
141
40.0
290
     0
  0
SCALE
  5
52
102
{ACAD_REACTORS
330
47
102
}
330
47
100
AcDbScale
 70
     0
300
1:50
140
1.0
141
50.0
290
     0
  0
SCALE
  5
53
102
{ACAD_REACTORS
330
47
102
}
330
47
100
AcDbScale
 70
     0
300
1:100
140
1.0
141
100.0
290
     0
  0
SCALE
  5
54
102
{ACAD_REACTORS
330
47
102
}
330
47
100
AcDbScale
 70
     0
300
2:1
140
2.0
141
1.0
290
     0
  0
SCALE
  5
55
102
{ACAD_REACTORS
330
47
102
}
330
47
100
AcDbScale
 70
     0
300
4:1
140
4.0
141
1.0
290
     0
  0
SCALE
  5
56
102
{ACAD_REACTORS
330
47
102
}
330
47
100
AcDbScale
 70
     0
300
8:1
140
8.0
141
1.0
290
     0
  0
SCALE
  5
57
102
{ACAD_REACTORS
330
47
102
}
330
47
100
AcDbScale
 70
     0
300
10:1
140
10.0
141
1.0
290
     0
  0
SCALE
  5
58
102
{ACAD_REACTORS
330
47
102
}
330
47
100
AcDbScale
 70
     0
300
100:1
140
100.0
141
1.0
290
     0
  0
SCALE
  5
59
102
{ACAD_REACTORS
330
47
102
}
330
47
100
AcDbScale
 70
     0
300
1/128" = 1'-0"
140
0.0078125
141
12.0
290
     0
  0
SCALE
  5
5A
102
{ACAD_REACTORS
330
47
102
}
330
47
100
AcDbScale
 70
     0
300
1/64" = 1'-0"
140
0.015625
141
12.0
290
     0
  0
SCALE
  5
5B
102
{ACAD_REACTORS
330
47
102
}
330
47
100
AcDbScale
 70
     0
300
1/32" = 1'-0"
140
0.03125
141
12.0
290
     0
  0
SCALE
  5
5C
102
{ACAD_REACTORS
330
47
102
}
330
47
100
AcDbScale
 70
     0
300
1/16" = 1'-0"
140
0.0625
141
12.0
290
     0
  0
SCALE
  5
5D
102
{ACAD_REACTORS
330
47
102
}
330
47
100
AcDbScale
 70
     0
300
3/32" = 1'-0"
140
0.09375
141
12.0
290
     0
  0
SCALE
  5
5E
102
{ACAD_REACTORS
330
47
102
}
330
47
100
AcDbScale
 70
     0
300
1/8" = 1'-0"
140
0.125
141
12.0
290
     0
  0
SCALE
  5
5F
102
{ACAD_REACTORS
330
47
102
}
330
47
100
AcDbScale
 70
     0
300
3/16" = 1'-0"
140
0.1875
141
12.0
290
     0
  0
SCALE
  5
60
102
{ACAD_REACTORS
330
47
102
}
330
47
100
AcDbScale
 70
     0
300
1/4" = 1'-0"
140
0.25
141
12.0
290
     0
  0
SCALE
  5
61
102
{ACAD_REACTORS
330
47
102
}
330
47
100
AcDbScale
 70
     0
300
3/8" = 1'-0"
140
0.375
141
12.0
290
     0
  0
SCALE
  5
62
102
{ACAD_REACTORS
330
47
102
}
330
47
100
AcDbScale
 70
     0
300
1/2" = 1'-0"
140
0.5
141
12.0
290
     0
  0
SCALE
  5
63
102
{ACAD_REACTORS
330
47
102
}
330
47
100
AcDbScale
 70
     0
300
3/4" = 1'-0"
140
0.75
141
12.0
290
     0
  0
SCALE
  5
64
102
{ACAD_REACTORS
330
47
102
}
330
47
100
AcDbScale
 70
     0
300
1" = 1'-0"
140
1.0
141
12.0
290
     0
  0
SCALE
  5
65
102
{ACAD_REACTORS
330
47
102
}
330
47
100
AcDbScale
 70
     0
300
1-1/2" = 1'-0"
140
1.5
141
12.0
290
     0
  0
SCALE
  5
66
102
{ACAD_REACTORS
330
47
102
}
330
47
100
AcDbScale
 70
     0
300
3" = 1'-0"
140
3.0
141
12.0
290
     0
  0
SCALE
  5
67
102
{ACAD_REACTORS
330
47
102
}
330
47
100
AcDbScale
 70
     0
300
6" = 1'-0"
140
6.0
141
12.0
290
     0
  0
SCALE
  5
68
102
{ACAD_REACTORS
330
47
102
}
330
47
100
AcDbScale
 70
     0
300
1'-0" = 1'-0"
140
12.0
141
12.0
290
     0
  0
TABLESTYLE
  5
6A
102
{ACAD_REACTORS
330
69
102
}
102
{ACAD_XDICTIONARY
360
3F3
102
}
330
69
100
AcDbTableStyle
  3
Standard
 70
     0
 71
     0
 40
0.06
 41
0.06
280
     0
281
     0
  7
Standard
140
4.5
170
     2
 62
     0
 63
   257
283
     0
 90
        4
 91
        0
  1

274
    -2
284
     1
 64
     0
275
    -2
285
     1
 65
     0
276
    -2
286
     1
 66
     0
277
    -2
287
     1
 67
     0
278
    -2
288
     1
 68
     0
279
    -2
289
     1
 69
     0
  7
Standard
140
6.0
170
     5
 62
     0
 63
   257
283
     0
 90
        4
 91
        0
  1

274
    -2
284
     1
 64
     0
275
    -2
285
     1
 65
     0
276
    -2
286
     1
 66
     0
277
    -2
287
     1
 67
     0
278
    -2
288
     1
 68
     0
279
    -2
289
     1
 69
     0
  7
Standard
140
4.5
170
     5
 62
     0
 63
   257
283
     0
 90
        4
 91
        0
  1

274
    -2
284
     1
 64
     0
275
    -2
285
     1
 65
     0
276
    -2
286
     1
 66
     0
277
    -2
287
     1
 67
     0
278
    -2
288
     1
 68
     0
279
    -2
289
     1
 69
     0
  0
VISUALSTYLE
  5
2F
102
{ACAD_REACTORS
330
2A
102
}
102
{ACAD_XDICTIONARY
360
3CB
102
}
330
2A
100
AcDbVisualStyle
  2
2dWireframe
 70
     4
177
     2
291
     0
 71
     0
176
     1
 72
     2
176
     1
 73
     0
176
     1
 90
        0
176
     1
 40
0.6
176
     1
 41
30.0
176
     1
 62
     5
 63
     7
421
 16777215
176
     1
 74
     1
176
     1
 91
        4
176
     1
 64
     7
176
     1
 65
   257
176
     1
 75
     1
176
     1
175
     1
176
     1
 42
1.0
176
     1
 92
        0
176
     1
 66
   257
176
     1
 43
1.0
176
     1
 76
     1
176
     1
 77
     6
176
     1
 78
     2
176
     1
 67
     7
176
     1
 79
     5
176
     1
170
     0
176
     1
171
     0
176
     1
290
     0
176
     1
 93
        1
176
     1
 44
0.0
176
     1
173
     0
176
     1
  0
VISUALSTYLE
  5
32
102
{ACAD_REACTORS
330
2A
102
}
102
{ACAD_XDICTIONARY
360
3D1
102
}
330
2A
100
AcDbVisualStyle
  2
Basic
 70
     7
177
     2
291
     1
 71
     1
176
     1
 72
     0
176
     1
 73
     1
176
     1
 90
        0
176
     1
 40
0.6
176
     1
 41
30.0
176
     1
 62
     5
 63
     7
421
 16777215
176
     1
 74
     0
176
     1
 91
        4
176
     1
 64
     7
176
     1
 65
   257
176
     1
 75
     1
176
     1
175
     1
176
     1
 42
1.0
176
     1
 92
        8
176
     1
 66
     7
176
     1
 43
1.0
176
     1
 76
     1
176
     1
 77
     6
176
     1
 78
     2
176
     1
 67
     7
176
     1
 79
     5
176
     1
170
     0
176
     1
171
     0
176
     1
290
     0
176
     1
 93
        1
176
     1
 44
0.0
176
     1
173
     0
176
     1
  0
VISUALSTYLE
  5
36
102
{ACAD_REACTORS
330
2A
102
}
102
{ACAD_XDICTIONARY
360
3D9
102
}
330
2A
100
AcDbVisualStyle
  2
Brighten
 70
    12
177
     2
291
     1
 71
     2
176
     1
 72
     2
176
     1
 73
     0
176
     1
 90
        0
176
     1
 40
0.6
176
     1
 41
30.0
176
     1
 62
     5
 63
     7
421
 16777215
176
     1
 74
     1
176
     1
 91
        4
176
     1
 64
     7
176
     1
 65
   257
176
     1
 75
     1
176
     1
175
     1
176
     1
 42
1.0
176
     1
 92
        8
176
     1
 66
     7
176
     1
 43
1.0
176
     1
 76
     1
176
     1
 77
     6
176
     1
 78
     2
176
     1
 67
     7
176
     1
 79
     5
176
     1
170
     0
176
     1
171
     0
176
     1
290
     0
176
     1
 93
        1
176
     1
 44
50.0
176
     1
173
     0
176
     1
  0
VISUALSTYLE
  5
3A
102
{ACAD_REACTORS
330
2A
102
}
102
{ACAD_XDICTIONARY
360
3E1
102
}
330
2A
100
AcDbVisualStyle
  2
ColorChange
 70
    16
177
     2
291
     1
 71
     2
176
     1
 72
     2
176
     1
 73
     3
176
     1
 90
        0
176
     1
 40
0.6
176
     1
 41
30.0
176
     1
 62
     5
 63
     8
421
  8421504
176
     1
 74
     1
176
     1
 91
        4
176
     1
 64
     7
176
     1
 65
   257
176
     1
 75
     1
176
     1
175
     1
176
     1
 42
1.0
176
     1
 92
        8
176
     1
 66
     8
424
  8421504
176
     1
 43
1.0
176
     1
 76
     1
176
     1
 77
     6
176
     1
 78
     2
176
     1
 67
     7
176
     1
 79
     5
176
     1
170
     0
176
     1
171
     0
176
     1
290
     0
176
     1
 93
        1
176
     1
 44
0.0
176
     1
173
     0
176
     1
  0
VISUALSTYLE
  5
34
102
{ACAD_REACTORS
330
2A
102
}
102
{ACAD_XDICTIONARY
360
3D5
102
}
330
2A
100
AcDbVisualStyle
  2
Conceptual
 70
     9
177
     2
291
     0
 71
     3
176
     1
 72
     2
176
     1
 73
     0
176
     1
 90
        0
176
     1
 40
0.6
176
     1
 41
30.0
176
     1
 62
     5
 63
     7
421
 16777215
176
     1
 74
     2
176
     1
 91
        2
176
     1
 64
     7
176
     1
 65
   257
176
     1
 75
     1
176
     1
175
     1
176
     1
 42
179.0
176
     1
 92
        8
176
     1
 66
     7
176
     1
 43
1.0
176
     1
 76
     1
176
     1
 77
     6
176
     1
 78
     2
176
     1
 67
     7
176
     1
 79
     3
176
     1
170
     0
176
     1
171
     0
176
     1
290
     0
176
     1
 93
        1
176
     1
 44
0.0
176
     1
173
     0
176
     1
  0
VISUALSTYLE
  5
35
102
{ACAD_REACTORS
330
2A
102
}
102
{ACAD_XDICTIONARY
360
3D7
102
}
330
2A
100
AcDbVisualStyle
  2
Dim
 70
    11
177
     2
291
     1
 71
     2
176
     1
 72
     2
176
     1
 73
     0
176
     1
 90
        0
176
     1
 40
0.6
176
     1
 41
30.0
176
     1
 62
     5
 63
     7
421
 16777215
176
     1
 74
     1
176
     1
 91
        4
176
     1
 64
     7
176
     1
 65
   257
176
     1
 75
     1
176
     1
175
     1
176
     1
 42
1.0
176
     1
 92
        8
176
     1
 66
     7
176
     1
 43
1.0
176
     1
 76
     1
176
     1
 77
     6
176
     1
 78
     2
176
     1
 67
     7
176
     1
 79
     5
176
     1
170
     0
176
     1
171
     0
176
     1
290
     0
176
     1
 93
        1
176
     1
 44
-50.0
176
     1
173
     0
176
     1
  0
VISUALSTYLE
  5
3D
102
{ACAD_REACTORS
330
2A
102
}
102
{ACAD_XDICTIONARY
360
3E7
102
}
330
2A
100
AcDbVisualStyle
  2
EdgeColorOff
 70
    22
177
     2
291
     1
 71
     2
176
     0
 72
     2
176
     0
 73
     0
176
     0
 90
        0
176
     0
 40
0.6
176
     0
 41
30.0
176
     0
 62
     5
 63
     7
421
 16777215
176
     0
 74
     1
176
     0
 91
        4
176
     0
 64
     7
176
     0
 65
   257
176
     0
 75
     1
176
     0
175
     1
176
     0
 42
1.0
176
     0
 92
        8
176
     2
 66
     7
176
     0
 43
1.0
176
     0
 76
     1
176
     0
 77
     6
176
     0
 78
     2
176
     0
 67
     7
176
     0
 79
     5
176
     0
170
     0
176
     0
171
     0
176
     0
290
     0
176
     0
 93
        1
176
     0
 44
0.0
176
     0
173
     0
176
     0
  0
VISUALSTYLE
  5
39
102
{ACAD_REACTORS
330
2A
102
}
102
{ACAD_XDICTIONARY
360
3DF
102
}
330
2A
100
AcDbVisualStyle
  2
Facepattern
 70
    15
177
     2
291
     1
 71
     2
176
     1
 72
     2
176
     1
 73
     0
176
     1
 90
        0
176
     1
 40
0.6
176
     1
 41
30.0
176
     1
 62
     5
 63
     7
421
 16777215
176
     1
 74
     1
176
     1
 91
        4
176
     1
 64
     7
176
     1
 65
   257
176
     1
 75
     1
176
     1
175
     1
176
     1
 42
1.0
176
     1
 92
        8
176
     1
 66
     7
176
     1
 43
1.0
176
     1
 76
     1
176
     1
 77
     6
176
     1
 78
     2
176
     1
 67
     7
176
     1
 79
     5
176
     1
170
     0
176
     1
171
     0
176
     1
290
     0
176
     1
 93
        1
176
     1
 44
0.0
176
     1
173
     0
176
     1
  0
VISUALSTYLE
  5
2B
102
{ACAD_REACTORS
330
2A
102
}
102
{ACAD_XDICTIONARY
360
3C3
102
}
330
2A
100
AcDbVisualStyle
  2
Flat
 70
     0
177
     2
291
     1
 71
     2
176
     1
 72
     1
176
     1
 73
     1
176
     1
 90
        2
176
     1
 40
0.6
176
     1
 41
30.0
176
     1
 62
     5
 63
     7
421
 16777215
176
     1
 74
     0
176
     1
 91
        0
176
     1
 64
     7
176
     1
 65
   257
176
     1
 75
     1
176
     1
175
     1
176
     1
 42
1.0
176
     1
 92
        8
176
     1
 66
     7
176
     1
 43
1.0
176
     1
 76
     1
176
     1
 77
     6
176
     1
 78
     2
176
     1
 67
     7
176
     1
 79
     5
176
     1
170
     0
176
     1
171
     0
176
     1
290
     0
176
     1
 93
       13
176
     1
 44
0.0
176
     1
173
     0
176
     1
  0
VISUALSTYLE
  5
2C
102
{ACAD_REACTORS
330
2A
102
}
102
{ACAD_XDICTIONARY
360
3C5
102
}
330
2A
100
AcDbVisualStyle
  2
FlatWithEdges
 70
     1
177
     2
291
     1
 71
     2
176
     1
 72
     1
176
     1
 73
     1
176
     1
 90
        2
176
     1
 40
0.6
176
     1
 41
30.0
176
     1
 62
     5
 63
     7
421
 16777215
176
     1
 74
     1
176
     1
 91
        0
176
     1
 64
     7
176
     1
 65
   257
176
     1
 75
     1
176
     1
175
     1
176
     1
 42
1.0
176
     1
 92
        0
176
     1
 66
   257
176
     1
 43
1.0
176
     1
 76
     1
176
     1
 77
     6
176
     1
 78
     2
176
     1
 67
     7
176
     1
 79
     5
176
     1
170
     0
176
     1
171
     0
176
     1
290
     0
176
     1
 93
       13
176
     1
 44
0.0
176
     1
173
     0
176
     1
  0
VISUALSTYLE
  5
2D
102
{ACAD_REACTORS
330
2A
102
}
102
{ACAD_XDICTIONARY
360
3C7
102
}
330
2A
100
AcDbVisualStyle
  2
Gouraud
 70
     2
177
     2
291
     1
 71
     2
176
     1
 72
     2
176
     1
 73
     1
176
     1
 90
        2
176
     1
 40
0.6
176
     1
 41
30.0
176
     1
 62
     5
 63
     7
421
 16777215
176
     1
 74
     0
176
     1
 91
        0
176
     1
 64
     7
176
     1
 65
   257
176
     1
 75
     1
176
     1
175
     1
176
     1
 42
1.0
176
     1
 92
        0
176
     1
 66
     7
176
     1
 43
1.0
176
     1
 76
     1
176
     1
 77
     6
176
     1
 78
     2
176
     1
 67
     7
176
     1
 79
     5
176
     1
170
     0
176
     1
171
     0
176
     1
290
     0
176
     1
 93
       13
176
     1
 44
0.0
176
     1
173
     0
176
     1
  0
VISUALSTYLE
  5
2E
102
{ACAD_REACTORS
330
2A
102
}
102
{ACAD_XDICTIONARY
360
3C9
102
}
330
2A
100
AcDbVisualStyle
  2
GouraudWithEdges
 70
     3
177
     2
291
     1
 71
     2
176
     1
 72
     2
176
     1
 73
     1
176
     1
 90
        2
176
     1
 40
0.6
176
     1
 41
30.0
176
     1
 62
     5
 63
     7
421
 16777215
176
     1
 74
     1
176
     1
 91
        0
176
     1
 64
     7
176
     1
 65
   257
176
     1
 75
     1
176
     1
175
     1
176
     1
 42
1.0
176
     1
 92
        0
176
     1
 66
   257
176
     1
 43
1.0
176
     1
 76
     1
176
     1
 77
     6
176
     1
 78
     2
176
     1
 67
     7
176
     1
 79
     5
176
     1
170
     0
176
     1
171
     0
176
     1
290
     0
176
     1
 93
       13
176
     1
 44
0.0
176
     1
173
     0
176
     1
  0
VISUALSTYLE
  5
31
102
{ACAD_REACTORS
330
2A
102
}
102
{ACAD_XDICTIONARY
360
3CF
102
}
330
2A
100
AcDbVisualStyle
  2
Hidden
 70
     6
177
     2
291
     0
 71
     1
176
     1
 72
     2
176
     1
 73
     2
176
     1
 90
        0
176
     1
 40
0.6
176
     1
 41
30.0
176
     1
 62
     5
 63
     7
421
 16777215
176
     1
 74
     2
176
     1
 91
        2
176
     1
 64
     7
176
     1
 65
   257
176
     1
 75
     2
176
     1
175
     1
176
     1
 42
40.0
176
     1
 92
        0
176
     1
 66
   257
176
     1
 43
1.0
176
     1
 76
     1
176
     1
 77
     6
176
     1
 78
     2
176
     1
 67
     7
176
     1
 79
     3
176
     1
170
     0
176
     1
171
     0
176
     1
290
     0
176
     1
 93
        1
176
     1
 44
0.0
176
     1
173
     0
176
     1
  0
VISUALSTYLE
  5
3B
102
{ACAD_REACTORS
330
2A
102
}
102
{ACAD_XDICTIONARY
360
3E3
102
}
330
2A
100
AcDbVisualStyle
  2
JitterOff
 70
    20
177
     2
291
     1
 71
     2
176
     0
 72
     2
176
     0
 73
     0
176
     0
 90
        0
176
     0
 40
0.6
176
     0
 41
30.0
176
     0
 62
     5
 63
     7
421
 16777215
176
     0
 74
     1
176
     0
 91
        4
176
     0
 64
     7
176
     0
 65
   257
176
     0
 75
     1
176
     0
175
     1
176
     0
 42
1.0
176
     0
 92
       10
176
     2
 66
     7
176
     0
 43
1.0
176
     0
 76
     1
176
     0
 77
     6
176
     0
 78
     2
176
     0
 67
     7
176
     0
 79
     5
176
     0
170
     0
176
     0
171
     0
176
     0
290
     0
176
     0
 93
        1
176
     0
 44
0.0
176
     0
173
     0
176
     0
  0
VISUALSTYLE
  5
38
102
{ACAD_REACTORS
330
2A
102
}
102
{ACAD_XDICTIONARY
360
3DD
102
}
330
2A
100
AcDbVisualStyle
  2
Linepattern
 70
    14
177
     2
291
     1
 71
     2
176
     1
 72
     2
176
     1
 73
     0
176
     1
 90
        0
176
     1
 40
0.6
176
     1
 41
30.0
176
     1
 62
     5
 63
     7
421
 16777215
176
     1
 74
     1
176
     1
 91
        4
176
     1
 64
     7
176
     1
 65
   257
176
     1
 75
     7
176
     1
175
     7
176
     1
 42
1.0
176
     1
 92
        8
176
     1
 66
     7
176
     1
 43
1.0
176
     1
 76
     1
176
     1
 77
     6
176
     1
 78
     2
176
     1
 67
     7
176
     1
 79
     5
176
     1
170
     0
176
     1
171
     0
176
     1
290
     0
176
     1
 93
        1
176
     1
 44
0.0
176
     1
173
     0
176
     1
  0
VISUALSTYLE
  5
3C
102
{ACAD_REACTORS
330
2A
102
}
102
{ACAD_XDICTIONARY
360
3E5
102
}
330
2A
100
AcDbVisualStyle
  2
OverhangOff
 70
    21
177
     2
291
     1
 71
     2
176
     0
 72
     2
176
     0
 73
     0
176
     0
 90
        0
176
     0
 40
0.6
176
     0
 41
30.0
176
     0
 62
     5
 63
     7
421
 16777215
176
     0
 74
     1
176
     0
 91
        4
176
     0
 64
     7
176
     0
 65
   257
176
     0
 75
     1
176
     0
175
     1
176
     0
 42
1.0
176
     0
 92
        9
176
     2
 66
     7
176
     0
 43
1.0
176
     0
 76
     1
176
     0
 77
     6
176
     0
 78
     2
176
     0
 67
     7
176
     0
 79
     5
176
     0
170
     0
176
     0
171
     0
176
     0
290
     0
176
     0
 93
        1
176
     0
 44
0.0
176
     0
173
     0
176
     0
  0
VISUALSTYLE
  5
33
102
{ACAD_REACTORS
330
2A
102
}
102
{ACAD_XDICTIONARY
360
3D3
102
}
330
2A
100
AcDbVisualStyle
  2
Realistic
 70
     8
177
     2
291
     0
 71
     2
176
     1
 72
     3
176
     1
 73
     0
176
     1
 90
        2
176
     1
 40
0.6
176
     1
 41
30.0
176
     1
 62
     5
 63
     7
421
 16777215
176
     1
 74
     0
176
     1
 91
        0
176
     1
 64
     7
176
     1
 65
   257
176
     1
 75
     1
176
     1
175
     1
176
     1
 42
1.0
176
     1
 92
        8
176
     1
 66
   257
176
     1
 43
1.0
176
     1
 76
     1
176
     1
 77
     6
176
     1
 78
     2
176
     1
 67
     7
176
     1
 79
     3
176
     1
170
     0
176
     1
171
     0
176
     1
290
     0
176
     1
 93
       13
176
     1
 44
0.0
176
     1
173
     0
176
     1
  0
VISUALSTYLE
  5
42
102
{ACAD_REACTORS
330
2A
102
}
102
{ACAD_XDICTIONARY
360
3F1
102
}
330
2A
100
AcDbVisualStyle
  2
Shaded
 70
    27
177
     2
291
     0
 71
     2
176
     1
 72
     2
176
     1
 73
     1
176
     1
 90
        2
176
     1
 40
0.6
176
     1
 41
30.0
176
     1
 62
     5
 63
     7
421
 16777215
176
     1
 74
     0
176
     1
 91
        4
176
     1
 64
     7
176
     1
 65
   257
176
     1
 75
     1
176
     1
175
     1
176
     1
 42
1.0
176
     1
 92
        8
176
     1
 66
   257
176
     1
 43
1.0
176
     1
 76
     1
176
     1
 77
     6
176
     1
 78
     2
176
     1
 67
     8
425
  7895160
176
     1
 79
     3
176
     1
170
     0
176
     1
171
     0
176
     1
290
     0
176
     1
 93
        5
176
     1
 44
0.0
176
     1
173
     0
176
     1
  0
VISUALSTYLE
  5
41
102
{ACAD_REACTORS
330
2A
102
}
102
{ACAD_XDICTIONARY
360
3EF
102
}
330
2A
100
AcDbVisualStyle
  2
Shaded with edges
 70
    26
177
     2
291
     0
 71
     2
176
     1
 72
     2
176
     1
 73
     1
176
     1
 90
        2
176
     1
 40
0.6
176
     1
 41
30.0
176
     1
 62
     5
 63
     7
421
 16777215
176
     1
 74
     1
176
     1
 91
       10
176
     1
 64
     7
176
     1
 65
   257
176
     1
 75
     2
176
     1
175
     1
176
     1
 42
1.0
176
     1
 92
        8
176
     1
 66
   257
176
     1
 43
1.0
176
     1
 76
     1
176
     1
 77
     6
176
     1
 78
     2
176
     1
 67
     7
176
     1
 79
     3
176
     1
170
     0
176
     1
171
     0
176
     1
290
     0
176
     1
 93
        5
176
     1
 44
0.0
176
     1
173
     0
176
     1
  0
VISUALSTYLE
  5
3E
102
{ACAD_REACTORS
330
2A
102
}
102
{ACAD_XDICTIONARY
360
3E9
102
}
330
2A
100
AcDbVisualStyle
  2
Shades of Gray
 70
    23
177
     2
291
     0
 71
     2
176
     1
 72
     2
176
     1
 73
     3
176
     1
 90
        0
176
     1
 40
0.6
176
     1
 41
30.0
176
     1
 62
     5
 63
     7
421
 16777215
176
     1
 74
     2
176
     1
 91
        2
176
     1
 64
     7
176
     1
 65
     7
176
     1
 75
     1
176
     1
175
     1
176
     1
 42
40.0
176
     1
 92
        8
176
     1
 66
     7
176
     1
 43
1.0
176
     1
 76
     1
176
     1
 77
     6
176
     1
 78
     2
176
     1
 67
     7
176
     1
 79
     3
176
     1
170
     0
176
     1
171
     0
176
     1
290
     0
176
     1
 93
        1
176
     1
 44
0.0
176
     1
173
     0
176
     1
  0
VISUALSTYLE
  5
3F
102
{ACAD_REACTORS
330
2A
102
}
102
{ACAD_XDICTIONARY
360
3EB
102
}
330
2A
100
AcDbVisualStyle
  2
Sketchy
 70
    24
177
     2
291
     0
 71
     1
176
     1
 72
     2
176
     1
 73
     2
176
     1
 90
        0
176
     1
 40
0.6
176
     1
 41
30.0
176
     1
 62
     5
 63
     7
421
 16777215
176
     1
 74
     2
176
     1
 91
        2
176
     1
 64
     7
176
     1
 65
     7
176
     1
 75
     1
176
     1
175
     1
176
     1
 42
40.0
176
     1
 92
       11
176
     1
 66
     7
176
     1
 43
1.0
176
     1
 76
     1
176
     1
 77
     6
176
     1
 78
     2
176
     1
 67
     7
176
     1
 79
     6
176
     1
170
     0
176
     1
171
     0
176
     1
290
     0
176
     1
 93
        1
176
     1
 44
0.0
176
     1
173
     0
176
     1
  0
VISUALSTYLE
  5
37
102
{ACAD_REACTORS
330
2A
102
}
102
{ACAD_XDICTIONARY
360
3DB
102
}
330
2A
100
AcDbVisualStyle
  2
Thicken
 70
    13
177
     2
291
     1
 71
     2
176
     1
 72
     2
176
     1
 73
     0
176
     1
 90
        0
176
     1
 40
0.6
176
     1
 41
30.0
176
     1
 62
     5
 63
     7
421
 16777215
176
     1
 74
     1
176
     1
 91
        4
176
     1
 64
     7
176
     1
 65
   257
176
     1
 75
     1
176
     1
175
     1
176
     1
 42
1.0
176
     1
 92
       12
176
     1
 66
     7
176
     1
 43
1.0
176
     1
 76
     1
176
     1
 77
     6
176
     1
 78
     2
176
     1
 67
     7
176
     1
 79
     5
176
     1
170
     0
176
     1
171
     0
176
     1
290
     0
176
     1
 93
        1
176
     1
 44
0.0
176
     1
173
     0
176
     1
  0
VISUALSTYLE
  5
30
102
{ACAD_REACTORS
330
2A
102
}
102
{ACAD_XDICTIONARY
360
3CD
102
}
330
2A
100
AcDbVisualStyle
  2
Wireframe
 70
     5
177
     2
291
     0
 71
     0
176
     1
 72
     2
176
     1
 73
     0
176
     1
 90
        0
176
     1
 40
0.6
176
     1
 41
30.0
176
     1
 62
     5
 63
     7
421
 16777215
176
     1
 74
     1
176
     1
 91
        4
176
     1
 64
     7
176
     1
 65
   257
176
     1
 75
     1
176
     1
175
     1
176
     1
 42
1.0
176
     1
 92
        0
176
     1
 66
   257
176
     1
 43
1.0
176
     1
 76
     1
176
     1
 77
     6
176
     1
 78
     2
176
     1
 67
     7
176
     1
 79
     3
176
     1
170
     0
176
     1
171
     0
176
     1
290
     0
176
     1
 93
        1
176
     1
 44
0.0
176
     1
173
     0
176
     1
  0
VISUALSTYLE
  5
40
102
{ACAD_REACTORS
330
2A
102
}
102
{ACAD_XDICTIONARY
360
3ED
102
}
330
2A
100
AcDbVisualStyle
  2
X-Ray
 70
    25
177
     2
291
     0
 71
     2
176
     1
 72
     2
176
     1
 73
     1
176
     1
 90
        1
176
     1
 40
0.5
176
     1
 41
30.0
176
     1
 62
     5
 63
     7
421
 16777215
176
     1
 74
     1
176
     1
 91
        0
176
     1
 64
     7
176
     1
 65
   257
176
     1
 75
     1
176
     1
175
     1
176
     1
 42
1.0
176
     1
 92
        8
176
     1
 66
     7
176
     1
 43
1.0
176
     1
 76
     1
176
     1
 77
     6
176
     1
 78
     2
176
     1
 67
     7
176
     1
 79
     3
176
     1
170
     0
176
     1
171
     0
176
     1
290
     0
176
     1
 93
       13
176
     1
 44
0.0
176
     1
173
     0
176
     1
  0
DICTIONARYVAR
  5
3C2
102
{ACAD_REACTORS
330
3C1
102
}
330
3C1
100
DictionaryVariables
280
     0
  1
1:1
  0
DICTIONARYVAR
  5
3FA
102
{ACAD_REACTORS
330
3C1
102
}
330
3C1
100
DictionaryVariables
280
     0
  1
3.500000
  0
DICTIONARYVAR
  5
3FB
102
{ACAD_REACTORS
330
3C1
102
}
330
3C1
100
DictionaryVariables
280
     0
  1
acadiso.lin
  0
DICTIONARYVAR
  5
3F7
102
{ACAD_REACTORS
330
3C1
102
}
330
3C1
100
DictionaryVariables
280
     0
  1
Standard
  0
DICTIONARYVAR
  5
3F6
102
{ACAD_REACTORS
330
3C1
102
}
330
3C1
100
DictionaryVariables
280
     0
  1
Standard
  0
DICTIONARY
  5
3F3
330
6A
100
AcDbDictionary
280
     1
281
     1
  3
ACAD_ROUNDTRIP_2008_TABLESTYLE_CELLSTYLEMAP
360
3F4
  0
DICTIONARY
  5
3CB
330
2F
100
AcDbDictionary
280
     1
281
     1
  3
ACAD_XREC_ROUNDTRIP
360
3CC
  0
DICTIONARY
  5
3D1
330
32
100
AcDbDictionary
280
     1
281
     1
  3
ACAD_XREC_ROUNDTRIP
360
3D2
  0
DICTIONARY
  5
3D9
330
36
100
AcDbDictionary
280
     1
281
     1
  3
ACAD_XREC_ROUNDTRIP
360
3DA
  0
DICTIONARY
  5
3E1
330
3A
100
AcDbDictionary
280
     1
281
     1
  3
ACAD_XREC_ROUNDTRIP
360
3E2
  0
DICTIONARY
  5
3D5
330
34
100
AcDbDictionary
280
     1
281
     1
  3
ACAD_XREC_ROUNDTRIP
360
3D6
  0
DICTIONARY
  5
3D7
330
35
100
AcDbDictionary
280
     1
281
     1
  3
ACAD_XREC_ROUNDTRIP
360
3D8
  0
DICTIONARY
  5
3E7
330
3D
100
AcDbDictionary
280
     1
281
     1
  3
ACAD_XREC_ROUNDTRIP
360
3E8
  0
DICTIONARY
  5
3DF
330
39
100
AcDbDictionary
280
     1
281
     1
  3
ACAD_XREC_ROUNDTRIP
360
3E0
  0
DICTIONARY
  5
3C3
330
2B
100
AcDbDictionary
280
     1
281
     1
  3
ACAD_XREC_ROUNDTRIP
360
3C4
  0
DICTIONARY
  5
3C5
330
2C
100
AcDbDictionary
280
     1
281
     1
  3
ACAD_XREC_ROUNDTRIP
360
3C6
  0
DICTIONARY
  5
3C7
330
2D
100
AcDbDictionary
280
     1
281
     1
  3
ACAD_XREC_ROUNDTRIP
360
3C8
  0
DICTIONARY
  5
3C9
330
2E
100
AcDbDictionary
280
     1
281
     1
  3
ACAD_XREC_ROUNDTRIP
360
3CA
  0
DICTIONARY
  5
3CF
330
31
100
AcDbDictionary
280
     1
281
     1
  3
ACAD_XREC_ROUNDTRIP
360
3D0
  0
DICTIONARY
  5
3E3
330
3B
100
AcDbDictionary
280
     1
281
     1
  3
ACAD_XREC_ROUNDTRIP
360
3E4
  0
DICTIONARY
  5
3DD
330
38
100
AcDbDictionary
280
     1
281
     1
  3
ACAD_XREC_ROUNDTRIP
360
3DE
  0
DICTIONARY
  5
3E5
330
3C
100
AcDbDictionary
280
     1
281
     1
  3
ACAD_XREC_ROUNDTRIP
360
3E6
  0
DICTIONARY
  5
3D3
330
33
100
AcDbDictionary
280
     1
281
     1
  3
ACAD_XREC_ROUNDTRIP
360
3D4
  0
DICTIONARY
  5
3F1
330
42
100
AcDbDictionary
280
     1
281
     1
  3
ACAD_XREC_ROUNDTRIP
360
3F2
  0
DICTIONARY
  5
3EF
330
41
100
AcDbDictionary
280
     1
281
     1
  3
ACAD_XREC_ROUNDTRIP
360
3F0
  0
DICTIONARY
  5
3E9
330
3E
100
AcDbDictionary
280
     1
281
     1
  3
ACAD_XREC_ROUNDTRIP
360
3EA
  0
DICTIONARY
  5
3EB
330
3F
100
AcDbDictionary
280
     1
281
     1
  3
ACAD_XREC_ROUNDTRIP
360
3EC
  0
DICTIONARY
  5
3DB
330
37
100
AcDbDictionary
280
     1
281
     1
  3
ACAD_XREC_ROUNDTRIP
360
3DC
  0
DICTIONARY
  5
3CD
330
30
100
AcDbDictionary
280
     1
281
     1
  3
ACAD_XREC_ROUNDTRIP
360
3CE
  0
DICTIONARY
  5
3ED
330
40
100
AcDbDictionary
280
     1
281
     1
  3
ACAD_XREC_ROUNDTRIP
360
3EE
  0
CELLSTYLEMAP
  5
3F4
102
{ACAD_REACTORS
330
3F3
102
}
330
3F3
100
AcDbCellStyleMap
 90
        3
300
CELLSTYLE
  1
TABLEFORMAT_BEGIN
 90
        5
170
     1
 91
        0
 92
    32768
 62
   257
 93
        1
300
CONTENTFORMAT
  1
CONTENTFORMAT_BEGIN
 90
        0
 91
        0
 92
        4
 93
        0
300

 40
0.0
140
1.0
 94
        5
 62
     0
340
11
144
6.0
309
CONTENTFORMAT_END
171
     1
301
MARGIN
  1
CELLMARGIN_BEGIN
 40
1.5
 40
1.5
 40
1.5
 40
1.5
 40
1.5
 40
1.5
309
CELLMARGIN_END
 94
        6
 95
        1
302
GRIDFORMAT
  1
GRIDFORMAT_BEGIN
 90
        0
 91
        1
 62
     0
 92
       -2
340
14
 93
        0
 40
0.045
309
GRIDFORMAT_END
 95
        2
302
GRIDFORMAT
  1
GRIDFORMAT_BEGIN
 90
        0
 91
        1
 62
     0
 92
       -2
340
14
 93
        0
 40
0.045
309
GRIDFORMAT_END
 95
        4
302
GRIDFORMAT
  1
GRIDFORMAT_BEGIN
 90
        0
 91
        1
 62
     0
 92
       -2
340
14
 93
        0
 40
0.045
309
GRIDFORMAT_END
 95
        8
302
GRIDFORMAT
  1
GRIDFORMAT_BEGIN
 90
        0
 91
        1
 62
     0
 92
       -2
340
14
 93
        0
 40
0.045
309
GRIDFORMAT_END
 95
       16
302
GRIDFORMAT
  1
GRIDFORMAT_BEGIN
 90
        0
 91
        1
 62
     0
 92
       -2
340
14
 93
        0
 40
0.045
309
GRIDFORMAT_END
 95
       32
302
GRIDFORMAT
  1
GRIDFORMAT_BEGIN
 90
        0
 91
        1
 62
     0
 92
       -2
340
14
 93
        0
 40
0.045
309
GRIDFORMAT_END
309
TABLEFORMAT_END
  1
CELLSTYLE_BEGIN
 90
        1
 91
        1
300
_TITLE
309
CELLSTYLE_END
300
CELLSTYLE
  1
TABLEFORMAT_BEGIN
 90
        5
170
     1
 91
        0
 92
        0
 62
   257
 93
        1
300
CONTENTFORMAT
  1
CONTENTFORMAT_BEGIN
 90
        0
 91
        0
 92
        4
 93
        0
300

 40
0.0
140
1.0
 94
        5
 62
     0
340
11
144
4.5
309
CONTENTFORMAT_END
171
     1
301
MARGIN
  1
CELLMARGIN_BEGIN
 40
1.5
 40
1.5
 40
1.5
 40
1.5
 40
1.5
 40
1.5
309
CELLMARGIN_END
 94
        6
 95
        1
302
GRIDFORMAT
  1
GRIDFORMAT_BEGIN
 90
        0
 91
        1
 62
     0
 92
       -2
340
14
 93
        0
 40
0.045
309
GRIDFORMAT_END
 95
        2
302
GRIDFORMAT
  1
GRIDFORMAT_BEGIN
 90
        0
 91
        1
 62
     0
 92
       -2
340
14
 93
        0
 40
0.045
309
GRIDFORMAT_END
 95
        4
302
GRIDFORMAT
  1
GRIDFORMAT_BEGIN
 90
        0
 91
        1
 62
     0
 92
       -2
340
14
 93
        0
 40
0.045
309
GRIDFORMAT_END
 95
        8
302
GRIDFORMAT
  1
GRIDFORMAT_BEGIN
 90
        0
 91
        1
 62
     0
 92
       -2
340
14
 93
        0
 40
0.045
309
GRIDFORMAT_END
 95
       16
302
GRIDFORMAT
  1
GRIDFORMAT_BEGIN
 90
        0
 91
        1
 62
     0
 92
       -2
340
14
 93
        0
 40
0.045
309
GRIDFORMAT_END
 95
       32
302
GRIDFORMAT
  1
GRIDFORMAT_BEGIN
 90
        0
 91
        1
 62
     0
 92
       -2
340
14
 93
        0
 40
0.045
309
GRIDFORMAT_END
309
TABLEFORMAT_END
  1
CELLSTYLE_BEGIN
 90
        2
 91
        1
300
_HEADER
309
CELLSTYLE_END
300
CELLSTYLE
  1
TABLEFORMAT_BEGIN
 90
        5
170
     1
 91
        0
 92
        0
 62
   257
 93
        1
300
CONTENTFORMAT
  1
CONTENTFORMAT_BEGIN
 90
        0
 91
        0
 92
        4
 93
        0
300

 40
0.0
140
1.0
 94
        2
 62
     0
340
11
144
4.5
309
CONTENTFORMAT_END
171
     1
301
MARGIN
  1
CELLMARGIN_BEGIN
 40
1.5
 40
1.5
 40
1.5
 40
1.5
 40
1.5
 40
1.5
309
CELLMARGIN_END
 94
        6
 95
        1
302
GRIDFORMAT
  1
GRIDFORMAT_BEGIN
 90
        0
 91
        1
 62
     0
 92
       -2
340
14
 93
        0
 40
0.045
309
GRIDFORMAT_END
 95
        2
302
GRIDFORMAT
  1
GRIDFORMAT_BEGIN
 90
        0
 91
        1
 62
     0
 92
       -2
340
14
 93
        0
 40
0.045
309
GRIDFORMAT_END
 95
        4
302
GRIDFORMAT
  1
GRIDFORMAT_BEGIN
 90
        0
 91
        1
 62
     0
 92
       -2
340
14
 93
        0
 40
0.045
309
GRIDFORMAT_END
 95
        8
302
GRIDFORMAT
  1
GRIDFORMAT_BEGIN
 90
        0
 91
        1
 62
     0
 92
       -2
340
14
 93
        0
 40
0.045
309
GRIDFORMAT_END
 95
       16
302
GRIDFORMAT
  1
GRIDFORMAT_BEGIN
 90
        0
 91
        1
 62
     0
 92
       -2
340
14
 93
        0
 40
0.045
309
GRIDFORMAT_END
 95
       32
302
GRIDFORMAT
  1
GRIDFORMAT_BEGIN
 90
        0
 91
        1
 62
     0
 92
       -2
340
14
 93
        0
 40
0.045
309
GRIDFORMAT_END
309
TABLEFORMAT_END
  1
CELLSTYLE_BEGIN
 90
        3
 91
        2
300
_DATA
309
CELLSTYLE_END
  0
XRECORD
  5
3CC
102
{ACAD_REACTORS
330
3CB
102
}
330
3CB
100
AcDbXrecord
280
     1
102
RTVSPost2010Prop28
280
     1
102
RTVSPost2010PropOp28
 70
     1
102
RTVSPost2010Prop29
280
     1
102
RTVSPost2010PropOp29
 70
     1
102
RTVSPost2010Prop30
280
     0
102
RTVSPost2010PropOp30
 70
     1
102
RTVSPost2010Prop31
280
     0
102
RTVSPost2010PropOp31
 70
     1
102
RTVSPost2010Prop32
280
     0
102
RTVSPost2010PropOp32
 70
     1
102
RTVSPost2010Prop33
280
     0
102
RTVSPost2010PropOp33
 70
     1
102
RTVSPost2010Prop34
280
     0
102
RTVSPost2010PropOp34
 70
     1
102
RTVSPost2010Prop35
280
     0
102
RTVSPost2010PropOp35
 70
     1
102
RTVSPost2010Prop36
280
     0
102
RTVSPost2010PropOp36
 70
     1
102
RTVSPost2010Prop37
 90
       50
102
RTVSPost2010PropOp37
 70
     1
102
RTVSPost2010Prop38
140
0.0
102
RTVSPost2010PropOp38
 70
     1
102
RTVSPost2010Prop39
140
1.0
102
RTVSPost2010PropOp39
 70
     1
102
RTVSPost2010Prop40
 90
        0
102
RTVSPost2010PropOp40
 70
     1
102
RTVSPost2010Prop41ColorIndex
 90
       18
102
RTVSPost2010Prop41ColorRGB
 90
        0
102
RTVSPost2010PropOp41
 70
     1
102
RTVSPost2010Prop42
 90
       50
102
RTVSPost2010PropOp42
 70
     1
102
RTVSPost2010Prop43
 90
        3
102
RTVSPost2010PropOp43
 70
     1
102
RTVSPost2010Prop44ColorIndex
 90
        5
102
RTVSPost2010Prop44ColorRGB
 90
      255
102
RTVSPost2010PropOp44
 70
     1
102
RTVSPost2010Prop45
280
     0
102
RTVSPost2010PropOp45
 70
     1
102
RTVSPost2010Prop46
 90
       50
102
RTVSPost2010PropOp46
 70
     1
102
RTVSPost2010Prop47
 90
       50
102
RTVSPost2010PropOp47
 70
     1
102
RTVSPost2010Prop48
 90
       50
102
RTVSPost2010PropOp48
 70
     1
102
RTVSPost2010Prop49
280
     0
102
RTVSPost2010PropOp49
 70
     1
102
RTVSPost2010Prop50
 90
       50
102
RTVSPost2010PropOp50
 70
     1
102
RTVSPost2010Prop51ColorIndex
 90
      256
102
RTVSPost2010Prop51ColorRGB
 90
-16777216
102
RTVSPost2010PropOp51
 70
     0
102
RTVSPost2010Prop52
140
1.0
102
RTVSPost2010PropOp52
 70
     0
102
RTVSPost2010Prop53
 90
        2
102
RTVSPost2010PropOp53
 70
     1
102
RTVSPost2010Prop54
  1
strokes_ogs.tif
102
RTVSPost2010PropOp54
 70
     1
102
RTVSPost2010Prop55
280
     0
102
RTVSPost2010PropOp55
 70
     1
102
RTVSPost2010Prop56
140
1.0
102
RTVSPost2010PropOp56
 70
     1
102
RTVSPost2010Prop57
140
1.0
102
RTVSPost2010PropOp57
 70
     1
  0
XRECORD
  5
3D2
102
{ACAD_REACTORS
330
3D1
102
}
330
3D1
100
AcDbXrecord
280
     1
102
RTVSPost2010Prop28
280
     0
102
RTVSPost2010PropOp28
 70
     1
102
RTVSPost2010Prop29
280
     1
102
RTVSPost2010PropOp29
 70
     1
102
RTVSPost2010Prop30
280
     1
102
RTVSPost2010PropOp30
 70
     1
102
RTVSPost2010Prop31
280
     0
102
RTVSPost2010PropOp31
 70
     1
102
RTVSPost2010Prop32
280
     0
102
RTVSPost2010PropOp32
 70
     1
102
RTVSPost2010Prop33
280
     0
102
RTVSPost2010PropOp33
 70
     1
102
RTVSPost2010Prop34
280
     0
102
RTVSPost2010PropOp34
 70
     1
102
RTVSPost2010Prop35
280
     0
102
RTVSPost2010PropOp35
 70
     1
102
RTVSPost2010Prop36
280
     0
102
RTVSPost2010PropOp36
 70
     1
102
RTVSPost2010Prop37
 90
       50
102
RTVSPost2010PropOp37
 70
     1
102
RTVSPost2010Prop38
140
0.0
102
RTVSPost2010PropOp38
 70
     1
102
RTVSPost2010Prop39
140
1.0
102
RTVSPost2010PropOp39
 70
     1
102
RTVSPost2010Prop40
 90
        0
102
RTVSPost2010PropOp40
 70
     1
102
RTVSPost2010Prop41ColorIndex
 90
       18
102
RTVSPost2010Prop41ColorRGB
 90
        0
102
RTVSPost2010PropOp41
 70
     1
102
RTVSPost2010Prop42
 90
       50
102
RTVSPost2010PropOp42
 70
     1
102
RTVSPost2010Prop43
 90
        3
102
RTVSPost2010PropOp43
 70
     1
102
RTVSPost2010Prop44ColorIndex
 90
        5
102
RTVSPost2010Prop44ColorRGB
 90
      255
102
RTVSPost2010PropOp44
 70
     1
102
RTVSPost2010Prop45
280
     0
102
RTVSPost2010PropOp45
 70
     1
102
RTVSPost2010Prop46
 90
       50
102
RTVSPost2010PropOp46
 70
     1
102
RTVSPost2010Prop47
 90
       50
102
RTVSPost2010PropOp47
 70
     1
102
RTVSPost2010Prop48
 90
       50
102
RTVSPost2010PropOp48
 70
     1
102
RTVSPost2010Prop49
280
     0
102
RTVSPost2010PropOp49
 70
     1
102
RTVSPost2010Prop50
 90
       50
102
RTVSPost2010PropOp50
 70
     1
102
RTVSPost2010Prop51ColorIndex
 90
      256
102
RTVSPost2010Prop51ColorRGB
 90
-16777216
102
RTVSPost2010PropOp51
 70
     0
102
RTVSPost2010Prop52
140
1.0
102
RTVSPost2010PropOp52
 70
     0
102
RTVSPost2010Prop53
 90
        2
102
RTVSPost2010PropOp53
 70
     1
102
RTVSPost2010Prop54
  1
strokes_ogs.tif
102
RTVSPost2010PropOp54
 70
     1
102
RTVSPost2010Prop55
280
     0
102
RTVSPost2010PropOp55
 70
     1
102
RTVSPost2010Prop56
140
1.0
102
RTVSPost2010PropOp56
 70
     1
102
RTVSPost2010Prop57
140
1.0
102
RTVSPost2010PropOp57
 70
     1
  0
XRECORD
  5
3DA
102
{ACAD_REACTORS
330
3D9
102
}
330
3D9
100
AcDbXrecord
280
     1
102
RTVSPost2010Prop28
280
     0
102
RTVSPost2010PropOp28
 70
     1
102
RTVSPost2010Prop29
280
     1
102
RTVSPost2010PropOp29
 70
     1
102
RTVSPost2010Prop30
280
     1
102
RTVSPost2010PropOp30
 70
     1
102
RTVSPost2010Prop31
280
     0
102
RTVSPost2010PropOp31
 70
     1
102
RTVSPost2010Prop32
280
     0
102
RTVSPost2010PropOp32
 70
     1
102
RTVSPost2010Prop33
280
     0
102
RTVSPost2010PropOp33
 70
     1
102
RTVSPost2010Prop34
280
     0
102
RTVSPost2010PropOp34
 70
     1
102
RTVSPost2010Prop35
280
     0
102
RTVSPost2010PropOp35
 70
     1
102
RTVSPost2010Prop36
280
     0
102
RTVSPost2010PropOp36
 70
     1
102
RTVSPost2010Prop37
 90
       50
102
RTVSPost2010PropOp37
 70
     1
102
RTVSPost2010Prop38
140
0.0
102
RTVSPost2010PropOp38
 70
     1
102
RTVSPost2010Prop39
140
1.0
102
RTVSPost2010PropOp39
 70
     1
102
RTVSPost2010Prop40
 90
        0
102
RTVSPost2010PropOp40
 70
     1
102
RTVSPost2010Prop41ColorIndex
 90
       18
102
RTVSPost2010Prop41ColorRGB
 90
        0
102
RTVSPost2010PropOp41
 70
     1
102
RTVSPost2010Prop42
 90
       50
102
RTVSPost2010PropOp42
 70
     1
102
RTVSPost2010Prop43
 90
        3
102
RTVSPost2010PropOp43
 70
     1
102
RTVSPost2010Prop44ColorIndex
 90
        5
102
RTVSPost2010Prop44ColorRGB
 90
      255
102
RTVSPost2010PropOp44
 70
     1
102
RTVSPost2010Prop45
280
     0
102
RTVSPost2010PropOp45
 70
     1
102
RTVSPost2010Prop46
 90
       50
102
RTVSPost2010PropOp46
 70
     1
102
RTVSPost2010Prop47
 90
       50
102
RTVSPost2010PropOp47
 70
     1
102
RTVSPost2010Prop48
 90
       50
102
RTVSPost2010PropOp48
 70
     1
102
RTVSPost2010Prop49
280
     0
102
RTVSPost2010PropOp49
 70
     1
102
RTVSPost2010Prop50
 90
       50
102
RTVSPost2010PropOp50
 70
     1
102
RTVSPost2010Prop51ColorIndex
 90
      256
102
RTVSPost2010Prop51ColorRGB
 90
-16777216
102
RTVSPost2010PropOp51
 70
     0
102
RTVSPost2010Prop52
140
1.0
102
RTVSPost2010PropOp52
 70
     0
102
RTVSPost2010Prop53
 90
        2
102
RTVSPost2010PropOp53
 70
     1
102
RTVSPost2010Prop54
  1
strokes_ogs.tif
102
RTVSPost2010PropOp54
 70
     1
102
RTVSPost2010Prop55
280
     0
102
RTVSPost2010PropOp55
 70
     1
102
RTVSPost2010Prop56
140
1.0
102
RTVSPost2010PropOp56
 70
     1
102
RTVSPost2010Prop57
140
1.0
102
RTVSPost2010PropOp57
 70
     1
  0
XRECORD
  5
3E2
102
{ACAD_REACTORS
330
3E1
102
}
330
3E1
100
AcDbXrecord
280
     1
102
RTVSPost2010Prop28
280
     0
102
RTVSPost2010PropOp28
 70
     1
102
RTVSPost2010Prop29
280
     1
102
RTVSPost2010PropOp29
 70
     1
102
RTVSPost2010Prop30
280
     1
102
RTVSPost2010PropOp30
 70
     1
102
RTVSPost2010Prop31
280
     0
102
RTVSPost2010PropOp31
 70
     1
102
RTVSPost2010Prop32
280
     0
102
RTVSPost2010PropOp32
 70
     1
102
RTVSPost2010Prop33
280
     0
102
RTVSPost2010PropOp33
 70
     1
102
RTVSPost2010Prop34
280
     0
102
RTVSPost2010PropOp34
 70
     1
102
RTVSPost2010Prop35
280
     0
102
RTVSPost2010PropOp35
 70
     1
102
RTVSPost2010Prop36
280
     0
102
RTVSPost2010PropOp36
 70
     1
102
RTVSPost2010Prop37
 90
       50
102
RTVSPost2010PropOp37
 70
     1
102
RTVSPost2010Prop38
140
0.0
102
RTVSPost2010PropOp38
 70
     1
102
RTVSPost2010Prop39
140
1.0
102
RTVSPost2010PropOp39
 70
     1
102
RTVSPost2010Prop40
 90
        0
102
RTVSPost2010PropOp40
 70
     1
102
RTVSPost2010Prop41ColorIndex
 90
       18
102
RTVSPost2010Prop41ColorRGB
 90
        0
102
RTVSPost2010PropOp41
 70
     1
102
RTVSPost2010Prop42
 90
       50
102
RTVSPost2010PropOp42
 70
     1
102
RTVSPost2010Prop43
 90
        3
102
RTVSPost2010PropOp43
 70
     1
102
RTVSPost2010Prop44ColorIndex
 90
        5
102
RTVSPost2010Prop44ColorRGB
 90
      255
102
RTVSPost2010PropOp44
 70
     1
102
RTVSPost2010Prop45
280
     0
102
RTVSPost2010PropOp45
 70
     1
102
RTVSPost2010Prop46
 90
       50
102
RTVSPost2010PropOp46
 70
     1
102
RTVSPost2010Prop47
 90
       50
102
RTVSPost2010PropOp47
 70
     1
102
RTVSPost2010Prop48
 90
       50
102
RTVSPost2010PropOp48
 70
     1
102
RTVSPost2010Prop49
280
     0
102
RTVSPost2010PropOp49
 70
     1
102
RTVSPost2010Prop50
 90
       50
102
RTVSPost2010PropOp50
 70
     1
102
RTVSPost2010Prop51ColorIndex
 90
      256
102
RTVSPost2010Prop51ColorRGB
 90
-16777216
102
RTVSPost2010PropOp51
 70
     0
102
RTVSPost2010Prop52
140
1.0
102
RTVSPost2010PropOp52
 70
     0
102
RTVSPost2010Prop53
 90
        2
102
RTVSPost2010PropOp53
 70
     1
102
RTVSPost2010Prop54
  1
strokes_ogs.tif
102
RTVSPost2010PropOp54
 70
     1
102
RTVSPost2010Prop55
280
     0
102
RTVSPost2010PropOp55
 70
     1
102
RTVSPost2010Prop56
140
1.0
102
RTVSPost2010PropOp56
 70
     1
102
RTVSPost2010Prop57
140
1.0
102
RTVSPost2010PropOp57
 70
     1
  0
XRECORD
  5
3D6
102
{ACAD_REACTORS
330
3D5
102
}
330
3D5
100
AcDbXrecord
280
     1
102
RTVSPost2010Prop28
280
     0
102
RTVSPost2010PropOp28
 70
     1
102
RTVSPost2010Prop29
280
     1
102
RTVSPost2010PropOp29
 70
     1
102
RTVSPost2010Prop30
280
     1
102
RTVSPost2010PropOp30
 70
     1
102
RTVSPost2010Prop31
280
     0
102
RTVSPost2010PropOp31
 70
     1
102
RTVSPost2010Prop32
280
     0
102
RTVSPost2010PropOp32
 70
     1
102
RTVSPost2010Prop33
280
     0
102
RTVSPost2010PropOp33
 70
     1
102
RTVSPost2010Prop34
280
     0
102
RTVSPost2010PropOp34
 70
     1
102
RTVSPost2010Prop35
280
     0
102
RTVSPost2010PropOp35
 70
     1
102
RTVSPost2010Prop36
280
     0
102
RTVSPost2010PropOp36
 70
     1
102
RTVSPost2010Prop37
 90
       50
102
RTVSPost2010PropOp37
 70
     1
102
RTVSPost2010Prop38
140
0.0
102
RTVSPost2010PropOp38
 70
     1
102
RTVSPost2010Prop39
140
1.0
102
RTVSPost2010PropOp39
 70
     1
102
RTVSPost2010Prop40
 90
        0
102
RTVSPost2010PropOp40
 70
     1
102
RTVSPost2010Prop41ColorIndex
 90
       18
102
RTVSPost2010Prop41ColorRGB
 90
        0
102
RTVSPost2010PropOp41
 70
     1
102
RTVSPost2010Prop42
 90
       50
102
RTVSPost2010PropOp42
 70
     1
102
RTVSPost2010Prop43
 90
        3
102
RTVSPost2010PropOp43
 70
     1
102
RTVSPost2010Prop44ColorIndex
 90
        5
102
RTVSPost2010Prop44ColorRGB
 90
      255
102
RTVSPost2010PropOp44
 70
     1
102
RTVSPost2010Prop45
280
     0
102
RTVSPost2010PropOp45
 70
     1
102
RTVSPost2010Prop46
 90
       50
102
RTVSPost2010PropOp46
 70
     1
102
RTVSPost2010Prop47
 90
       50
102
RTVSPost2010PropOp47
 70
     1
102
RTVSPost2010Prop48
 90
       50
102
RTVSPost2010PropOp48
 70
     1
102
RTVSPost2010Prop49
280
     0
102
RTVSPost2010PropOp49
 70
     1
102
RTVSPost2010Prop50
 90
       50
102
RTVSPost2010PropOp50
 70
     1
102
RTVSPost2010Prop51ColorIndex
 90
      256
102
RTVSPost2010Prop51ColorRGB
 90
-16777216
102
RTVSPost2010PropOp51
 70
     0
102
RTVSPost2010Prop52
140
1.0
102
RTVSPost2010PropOp52
 70
     0
102
RTVSPost2010Prop53
 90
        2
102
RTVSPost2010PropOp53
 70
     1
102
RTVSPost2010Prop54
  1
strokes_ogs.tif
102
RTVSPost2010PropOp54
 70
     1
102
RTVSPost2010Prop55
280
     0
102
RTVSPost2010PropOp55
 70
     1
102
RTVSPost2010Prop56
140
1.0
102
RTVSPost2010PropOp56
 70
     1
102
RTVSPost2010Prop57
140
1.0
102
RTVSPost2010PropOp57
 70
     1
  0
XRECORD
  5
3D8
102
{ACAD_REACTORS
330
3D7
102
}
330
3D7
100
AcDbXrecord
280
     1
102
RTVSPost2010Prop28
280
     0
102
RTVSPost2010PropOp28
 70
     1
102
RTVSPost2010Prop29
280
     1
102
RTVSPost2010PropOp29
 70
     1
102
RTVSPost2010Prop30
280
     1
102
RTVSPost2010PropOp30
 70
     1
102
RTVSPost2010Prop31
280
     0
102
RTVSPost2010PropOp31
 70
     1
102
RTVSPost2010Prop32
280
     0
102
RTVSPost2010PropOp32
 70
     1
102
RTVSPost2010Prop33
280
     0
102
RTVSPost2010PropOp33
 70
     1
102
RTVSPost2010Prop34
280
     0
102
RTVSPost2010PropOp34
 70
     1
102
RTVSPost2010Prop35
280
     0
102
RTVSPost2010PropOp35
 70
     1
102
RTVSPost2010Prop36
280
     0
102
RTVSPost2010PropOp36
 70
     1
102
RTVSPost2010Prop37
 90
       50
102
RTVSPost2010PropOp37
 70
     1
102
RTVSPost2010Prop38
140
0.0
102
RTVSPost2010PropOp38
 70
     1
102
RTVSPost2010Prop39
140
1.0
102
RTVSPost2010PropOp39
 70
     1
102
RTVSPost2010Prop40
 90
        0
102
RTVSPost2010PropOp40
 70
     1
102
RTVSPost2010Prop41ColorIndex
 90
       18
102
RTVSPost2010Prop41ColorRGB
 90
        0
102
RTVSPost2010PropOp41
 70
     1
102
RTVSPost2010Prop42
 90
       50
102
RTVSPost2010PropOp42
 70
     1
102
RTVSPost2010Prop43
 90
        3
102
RTVSPost2010PropOp43
 70
     1
102
RTVSPost2010Prop44ColorIndex
 90
        5
102
RTVSPost2010Prop44ColorRGB
 90
      255
102
RTVSPost2010PropOp44
 70
     1
102
RTVSPost2010Prop45
280
     0
102
RTVSPost2010PropOp45
 70
     1
102
RTVSPost2010Prop46
 90
       50
102
RTVSPost2010PropOp46
 70
     1
102
RTVSPost2010Prop47
 90
       50
102
RTVSPost2010PropOp47
 70
     1
102
RTVSPost2010Prop48
 90
       50
102
RTVSPost2010PropOp48
 70
     1
102
RTVSPost2010Prop49
280
     0
102
RTVSPost2010PropOp49
 70
     1
102
RTVSPost2010Prop50
 90
       50
102
RTVSPost2010PropOp50
 70
     1
102
RTVSPost2010Prop51ColorIndex
 90
      256
102
RTVSPost2010Prop51ColorRGB
 90
-16777216
102
RTVSPost2010PropOp51
 70
     0
102
RTVSPost2010Prop52
140
1.0
102
RTVSPost2010PropOp52
 70
     0
102
RTVSPost2010Prop53
 90
        2
102
RTVSPost2010PropOp53
 70
     1
102
RTVSPost2010Prop54
  1
strokes_ogs.tif
102
RTVSPost2010PropOp54
 70
     1
102
RTVSPost2010Prop55
280
     0
102
RTVSPost2010PropOp55
 70
     1
102
RTVSPost2010Prop56
140
1.0
102
RTVSPost2010PropOp56
 70
     1
102
RTVSPost2010Prop57
140
1.0
102
RTVSPost2010PropOp57
 70
     1
  0
XRECORD
  5
3E8
102
{ACAD_REACTORS
330
3E7
102
}
330
3E7
100
AcDbXrecord
280
     1
102
RTVSPost2010Prop28
280
     0
102
RTVSPost2010PropOp28
 70
     0
102
RTVSPost2010Prop29
280
     1
102
RTVSPost2010PropOp29
 70
     0
102
RTVSPost2010Prop30
280
     1
102
RTVSPost2010PropOp30
 70
     0
102
RTVSPost2010Prop31
280
     0
102
RTVSPost2010PropOp31
 70
     0
102
RTVSPost2010Prop32
280
     0
102
RTVSPost2010PropOp32
 70
     0
102
RTVSPost2010Prop33
280
     0
102
RTVSPost2010PropOp33
 70
     0
102
RTVSPost2010Prop34
280
     0
102
RTVSPost2010PropOp34
 70
     0
102
RTVSPost2010Prop35
280
     0
102
RTVSPost2010PropOp35
 70
     0
102
RTVSPost2010Prop36
280
     0
102
RTVSPost2010PropOp36
 70
     0
102
RTVSPost2010Prop37
 90
       50
102
RTVSPost2010PropOp37
 70
     0
102
RTVSPost2010Prop38
140
0.0
102
RTVSPost2010PropOp38
 70
     0
102
RTVSPost2010Prop39
140
1.0
102
RTVSPost2010PropOp39
 70
     0
102
RTVSPost2010Prop40
 90
        0
102
RTVSPost2010PropOp40
 70
     0
102
RTVSPost2010Prop41ColorIndex
 90
       18
102
RTVSPost2010Prop41ColorRGB
 90
        0
102
RTVSPost2010PropOp41
 70
     0
102
RTVSPost2010Prop42
 90
       50
102
RTVSPost2010PropOp42
 70
     0
102
RTVSPost2010Prop43
 90
        3
102
RTVSPost2010PropOp43
 70
     0
102
RTVSPost2010Prop44ColorIndex
 90
        5
102
RTVSPost2010Prop44ColorRGB
 90
      255
102
RTVSPost2010PropOp44
 70
     0
102
RTVSPost2010Prop45
280
     0
102
RTVSPost2010PropOp45
 70
     0
102
RTVSPost2010Prop46
 90
       50
102
RTVSPost2010PropOp46
 70
     0
102
RTVSPost2010Prop47
 90
       50
102
RTVSPost2010PropOp47
 70
     0
102
RTVSPost2010Prop48
 90
       50
102
RTVSPost2010PropOp48
 70
     0
102
RTVSPost2010Prop49
280
     0
102
RTVSPost2010PropOp49
 70
     0
102
RTVSPost2010Prop50
 90
       50
102
RTVSPost2010PropOp50
 70
     0
102
RTVSPost2010Prop51ColorIndex
 90
      256
102
RTVSPost2010Prop51ColorRGB
 90
-16777216
102
RTVSPost2010PropOp51
 70
     0
102
RTVSPost2010Prop52
140
1.0
102
RTVSPost2010PropOp52
 70
     0
102
RTVSPost2010Prop53
 90
        2
102
RTVSPost2010PropOp53
 70
     0
102
RTVSPost2010Prop54
  1
strokes_ogs.tif
102
RTVSPost2010PropOp54
 70
     0
102
RTVSPost2010Prop55
280
     0
102
RTVSPost2010PropOp55
 70
     0
102
RTVSPost2010Prop56
140
1.0
102
RTVSPost2010PropOp56
 70
     0
102
RTVSPost2010Prop57
140
1.0
102
RTVSPost2010PropOp57
 70
     0
  0
XRECORD
  5
3E0
102
{ACAD_REACTORS
330
3DF
102
}
330
3DF
100
AcDbXrecord
280
     1
102
RTVSPost2010Prop28
280
     0
102
RTVSPost2010PropOp28
 70
     1
102
RTVSPost2010Prop29
280
     1
102
RTVSPost2010PropOp29
 70
     1
102
RTVSPost2010Prop30
280
     1
102
RTVSPost2010PropOp30
 70
     1
102
RTVSPost2010Prop31
280
     0
102
RTVSPost2010PropOp31
 70
     1
102
RTVSPost2010Prop32
280
     0
102
RTVSPost2010PropOp32
 70
     1
102
RTVSPost2010Prop33
280
     0
102
RTVSPost2010PropOp33
 70
     1
102
RTVSPost2010Prop34
280
     0
102
RTVSPost2010PropOp34
 70
     1
102
RTVSPost2010Prop35
280
     0
102
RTVSPost2010PropOp35
 70
     1
102
RTVSPost2010Prop36
280
     0
102
RTVSPost2010PropOp36
 70
     1
102
RTVSPost2010Prop37
 90
       50
102
RTVSPost2010PropOp37
 70
     1
102
RTVSPost2010Prop38
140
0.0
102
RTVSPost2010PropOp38
 70
     1
102
RTVSPost2010Prop39
140
1.0
102
RTVSPost2010PropOp39
 70
     1
102
RTVSPost2010Prop40
 90
        0
102
RTVSPost2010PropOp40
 70
     1
102
RTVSPost2010Prop41ColorIndex
 90
       18
102
RTVSPost2010Prop41ColorRGB
 90
        0
102
RTVSPost2010PropOp41
 70
     1
102
RTVSPost2010Prop42
 90
       50
102
RTVSPost2010PropOp42
 70
     1
102
RTVSPost2010Prop43
 90
        3
102
RTVSPost2010PropOp43
 70
     1
102
RTVSPost2010Prop44ColorIndex
 90
        5
102
RTVSPost2010Prop44ColorRGB
 90
      255
102
RTVSPost2010PropOp44
 70
     1
102
RTVSPost2010Prop45
280
     0
102
RTVSPost2010PropOp45
 70
     1
102
RTVSPost2010Prop46
 90
       50
102
RTVSPost2010PropOp46
 70
     1
102
RTVSPost2010Prop47
 90
       50
102
RTVSPost2010PropOp47
 70
     1
102
RTVSPost2010Prop48
 90
       50
102
RTVSPost2010PropOp48
 70
     1
102
RTVSPost2010Prop49
280
     0
102
RTVSPost2010PropOp49
 70
     1
102
RTVSPost2010Prop50
 90
       50
102
RTVSPost2010PropOp50
 70
     1
102
RTVSPost2010Prop51ColorIndex
 90
      256
102
RTVSPost2010Prop51ColorRGB
 90
-16777216
102
RTVSPost2010PropOp51
 70
     0
102
RTVSPost2010Prop52
140
1.0
102
RTVSPost2010PropOp52
 70
     0
102
RTVSPost2010Prop53
 90
        2
102
RTVSPost2010PropOp53
 70
     1
102
RTVSPost2010Prop54
  1
strokes_ogs.tif
102
RTVSPost2010PropOp54
 70
     1
102
RTVSPost2010Prop55
280
     0
102
RTVSPost2010PropOp55
 70
     1
102
RTVSPost2010Prop56
140
1.0
102
RTVSPost2010PropOp56
 70
     1
102
RTVSPost2010Prop57
140
1.0
102
RTVSPost2010PropOp57
 70
     1
  0
XRECORD
  5
3C4
102
{ACAD_REACTORS
330
3C3
102
}
330
3C3
100
AcDbXrecord
280
     1
102
RTVSPost2010Prop28
280
     0
102
RTVSPost2010PropOp28
 70
     1
102
RTVSPost2010Prop29
280
     1
102
RTVSPost2010PropOp29
 70
     1
102
RTVSPost2010Prop30
280
     1
102
RTVSPost2010PropOp30
 70
     1
102
RTVSPost2010Prop31
280
     0
102
RTVSPost2010PropOp31
 70
     1
102
RTVSPost2010Prop32
280
     0
102
RTVSPost2010PropOp32
 70
     1
102
RTVSPost2010Prop33
280
     0
102
RTVSPost2010PropOp33
 70
     1
102
RTVSPost2010Prop34
280
     0
102
RTVSPost2010PropOp34
 70
     1
102
RTVSPost2010Prop35
280
     0
102
RTVSPost2010PropOp35
 70
     1
102
RTVSPost2010Prop36
280
     0
102
RTVSPost2010PropOp36
 70
     1
102
RTVSPost2010Prop37
 90
       50
102
RTVSPost2010PropOp37
 70
     1
102
RTVSPost2010Prop38
140
0.0
102
RTVSPost2010PropOp38
 70
     1
102
RTVSPost2010Prop39
140
1.0
102
RTVSPost2010PropOp39
 70
     1
102
RTVSPost2010Prop40
 90
        0
102
RTVSPost2010PropOp40
 70
     1
102
RTVSPost2010Prop41ColorIndex
 90
       18
102
RTVSPost2010Prop41ColorRGB
 90
        0
102
RTVSPost2010PropOp41
 70
     1
102
RTVSPost2010Prop42
 90
       50
102
RTVSPost2010PropOp42
 70
     1
102
RTVSPost2010Prop43
 90
        3
102
RTVSPost2010PropOp43
 70
     1
102
RTVSPost2010Prop44ColorIndex
 90
        5
102
RTVSPost2010Prop44ColorRGB
 90
      255
102
RTVSPost2010PropOp44
 70
     1
102
RTVSPost2010Prop45
280
     0
102
RTVSPost2010PropOp45
 70
     1
102
RTVSPost2010Prop46
 90
       50
102
RTVSPost2010PropOp46
 70
     1
102
RTVSPost2010Prop47
 90
       50
102
RTVSPost2010PropOp47
 70
     1
102
RTVSPost2010Prop48
 90
       50
102
RTVSPost2010PropOp48
 70
     1
102
RTVSPost2010Prop49
280
     0
102
RTVSPost2010PropOp49
 70
     1
102
RTVSPost2010Prop50
 90
       50
102
RTVSPost2010PropOp50
 70
     1
102
RTVSPost2010Prop51ColorIndex
 90
      256
102
RTVSPost2010Prop51ColorRGB
 90
-16777216
102
RTVSPost2010PropOp51
 70
     0
102
RTVSPost2010Prop52
140
1.0
102
RTVSPost2010PropOp52
 70
     0
102
RTVSPost2010Prop53
 90
        2
102
RTVSPost2010PropOp53
 70
     1
102
RTVSPost2010Prop54
  1
strokes_ogs.tif
102
RTVSPost2010PropOp54
 70
     1
102
RTVSPost2010Prop55
280
     0
102
RTVSPost2010PropOp55
 70
     1
102
RTVSPost2010Prop56
140
1.0
102
RTVSPost2010PropOp56
 70
     1
102
RTVSPost2010Prop57
140
1.0
102
RTVSPost2010PropOp57
 70
     1
  0
XRECORD
  5
3C6
102
{ACAD_REACTORS
330
3C5
102
}
330
3C5
100
AcDbXrecord
280
     1
102
RTVSPost2010Prop28
280
     0
102
RTVSPost2010PropOp28
 70
     1
102
RTVSPost2010Prop29
280
     1
102
RTVSPost2010PropOp29
 70
     1
102
RTVSPost2010Prop30
280
     1
102
RTVSPost2010PropOp30
 70
     1
102
RTVSPost2010Prop31
280
     0
102
RTVSPost2010PropOp31
 70
     1
102
RTVSPost2010Prop32
280
     0
102
RTVSPost2010PropOp32
 70
     1
102
RTVSPost2010Prop33
280
     0
102
RTVSPost2010PropOp33
 70
     1
102
RTVSPost2010Prop34
280
     0
102
RTVSPost2010PropOp34
 70
     1
102
RTVSPost2010Prop35
280
     0
102
RTVSPost2010PropOp35
 70
     1
102
RTVSPost2010Prop36
280
     0
102
RTVSPost2010PropOp36
 70
     1
102
RTVSPost2010Prop37
 90
       50
102
RTVSPost2010PropOp37
 70
     1
102
RTVSPost2010Prop38
140
0.0
102
RTVSPost2010PropOp38
 70
     1
102
RTVSPost2010Prop39
140
1.0
102
RTVSPost2010PropOp39
 70
     1
102
RTVSPost2010Prop40
 90
        0
102
RTVSPost2010PropOp40
 70
     1
102
RTVSPost2010Prop41ColorIndex
 90
       18
102
RTVSPost2010Prop41ColorRGB
 90
        0
102
RTVSPost2010PropOp41
 70
     1
102
RTVSPost2010Prop42
 90
       50
102
RTVSPost2010PropOp42
 70
     1
102
RTVSPost2010Prop43
 90
        3
102
RTVSPost2010PropOp43
 70
     1
102
RTVSPost2010Prop44ColorIndex
 90
        5
102
RTVSPost2010Prop44ColorRGB
 90
      255
102
RTVSPost2010PropOp44
 70
     1
102
RTVSPost2010Prop45
280
     0
102
RTVSPost2010PropOp45
 70
     1
102
RTVSPost2010Prop46
 90
       50
102
RTVSPost2010PropOp46
 70
     1
102
RTVSPost2010Prop47
 90
       50
102
RTVSPost2010PropOp47
 70
     1
102
RTVSPost2010Prop48
 90
       50
102
RTVSPost2010PropOp48
 70
     1
102
RTVSPost2010Prop49
280
     0
102
RTVSPost2010PropOp49
 70
     1
102
RTVSPost2010Prop50
 90
       50
102
RTVSPost2010PropOp50
 70
     1
102
RTVSPost2010Prop51ColorIndex
 90
      256
102
RTVSPost2010Prop51ColorRGB
 90
-16777216
102
RTVSPost2010PropOp51
 70
     0
102
RTVSPost2010Prop52
140
1.0
102
RTVSPost2010PropOp52
 70
     0
102
RTVSPost2010Prop53
 90
        2
102
RTVSPost2010PropOp53
 70
     1
102
RTVSPost2010Prop54
  1
strokes_ogs.tif
102
RTVSPost2010PropOp54
 70
     1
102
RTVSPost2010Prop55
280
     0
102
RTVSPost2010PropOp55
 70
     1
102
RTVSPost2010Prop56
140
1.0
102
RTVSPost2010PropOp56
 70
     1
102
RTVSPost2010Prop57
140
1.0
102
RTVSPost2010PropOp57
 70
     1
  0
XRECORD
  5
3C8
102
{ACAD_REACTORS
330
3C7
102
}
330
3C7
100
AcDbXrecord
280
     1
102
RTVSPost2010Prop28
280
     0
102
RTVSPost2010PropOp28
 70
     1
102
RTVSPost2010Prop29
280
     1
102
RTVSPost2010PropOp29
 70
     1
102
RTVSPost2010Prop30
280
     1
102
RTVSPost2010PropOp30
 70
     1
102
RTVSPost2010Prop31
280
     0
102
RTVSPost2010PropOp31
 70
     1
102
RTVSPost2010Prop32
280
     0
102
RTVSPost2010PropOp32
 70
     1
102
RTVSPost2010Prop33
280
     0
102
RTVSPost2010PropOp33
 70
     1
102
RTVSPost2010Prop34
280
     0
102
RTVSPost2010PropOp34
 70
     1
102
RTVSPost2010Prop35
280
     0
102
RTVSPost2010PropOp35
 70
     1
102
RTVSPost2010Prop36
280
     0
102
RTVSPost2010PropOp36
 70
     1
102
RTVSPost2010Prop37
 90
       50
102
RTVSPost2010PropOp37
 70
     1
102
RTVSPost2010Prop38
140
0.0
102
RTVSPost2010PropOp38
 70
     1
102
RTVSPost2010Prop39
140
1.0
102
RTVSPost2010PropOp39
 70
     1
102
RTVSPost2010Prop40
 90
        0
102
RTVSPost2010PropOp40
 70
     1
102
RTVSPost2010Prop41ColorIndex
 90
       18
102
RTVSPost2010Prop41ColorRGB
 90
        0
102
RTVSPost2010PropOp41
 70
     1
102
RTVSPost2010Prop42
 90
       50
102
RTVSPost2010PropOp42
 70
     1
102
RTVSPost2010Prop43
 90
        3
102
RTVSPost2010PropOp43
 70
     1
102
RTVSPost2010Prop44ColorIndex
 90
        5
102
RTVSPost2010Prop44ColorRGB
 90
      255
102
RTVSPost2010PropOp44
 70
     1
102
RTVSPost2010Prop45
280
     0
102
RTVSPost2010PropOp45
 70
     1
102
RTVSPost2010Prop46
 90
       50
102
RTVSPost2010PropOp46
 70
     1
102
RTVSPost2010Prop47
 90
       50
102
RTVSPost2010PropOp47
 70
     1
102
RTVSPost2010Prop48
 90
       50
102
RTVSPost2010PropOp48
 70
     1
102
RTVSPost2010Prop49
280
     0
102
RTVSPost2010PropOp49
 70
     1
102
RTVSPost2010Prop50
 90
       50
102
RTVSPost2010PropOp50
 70
     1
102
RTVSPost2010Prop51ColorIndex
 90
      256
102
RTVSPost2010Prop51ColorRGB
 90
-16777216
102
RTVSPost2010PropOp51
 70
     0
102
RTVSPost2010Prop52
140
1.0
102
RTVSPost2010PropOp52
 70
     0
102
RTVSPost2010Prop53
 90
        2
102
RTVSPost2010PropOp53
 70
     1
102
RTVSPost2010Prop54
  1
strokes_ogs.tif
102
RTVSPost2010PropOp54
 70
     1
102
RTVSPost2010Prop55
280
     0
102
RTVSPost2010PropOp55
 70
     1
102
RTVSPost2010Prop56
140
1.0
102
RTVSPost2010PropOp56
 70
     1
102
RTVSPost2010Prop57
140
1.0
102
RTVSPost2010PropOp57
 70
     1
  0
XRECORD
  5
3CA
102
{ACAD_REACTORS
330
3C9
102
}
330
3C9
100
AcDbXrecord
280
     1
102
RTVSPost2010Prop28
280
     0
102
RTVSPost2010PropOp28
 70
     1
102
RTVSPost2010Prop29
280
     1
102
RTVSPost2010PropOp29
 70
     1
102
RTVSPost2010Prop30
280
     1
102
RTVSPost2010PropOp30
 70
     1
102
RTVSPost2010Prop31
280
     0
102
RTVSPost2010PropOp31
 70
     1
102
RTVSPost2010Prop32
280
     0
102
RTVSPost2010PropOp32
 70
     1
102
RTVSPost2010Prop33
280
     0
102
RTVSPost2010PropOp33
 70
     1
102
RTVSPost2010Prop34
280
     0
102
RTVSPost2010PropOp34
 70
     1
102
RTVSPost2010Prop35
280
     0
102
RTVSPost2010PropOp35
 70
     1
102
RTVSPost2010Prop36
280
     0
102
RTVSPost2010PropOp36
 70
     1
102
RTVSPost2010Prop37
 90
       50
102
RTVSPost2010PropOp37
 70
     1
102
RTVSPost2010Prop38
140
0.0
102
RTVSPost2010PropOp38
 70
     1
102
RTVSPost2010Prop39
140
1.0
102
RTVSPost2010PropOp39
 70
     1
102
RTVSPost2010Prop40
 90
        0
102
RTVSPost2010PropOp40
 70
     1
102
RTVSPost2010Prop41ColorIndex
 90
       18
102
RTVSPost2010Prop41ColorRGB
 90
        0
102
RTVSPost2010PropOp41
 70
     1
102
RTVSPost2010Prop42
 90
       50
102
RTVSPost2010PropOp42
 70
     1
102
RTVSPost2010Prop43
 90
        3
102
RTVSPost2010PropOp43
 70
     1
102
RTVSPost2010Prop44ColorIndex
 90
        5
102
RTVSPost2010Prop44ColorRGB
 90
      255
102
RTVSPost2010PropOp44
 70
     1
102
RTVSPost2010Prop45
280
     0
102
RTVSPost2010PropOp45
 70
     1
102
RTVSPost2010Prop46
 90
       50
102
RTVSPost2010PropOp46
 70
     1
102
RTVSPost2010Prop47
 90
       50
102
RTVSPost2010PropOp47
 70
     1
102
RTVSPost2010Prop48
 90
       50
102
RTVSPost2010PropOp48
 70
     1
102
RTVSPost2010Prop49
280
     0
102
RTVSPost2010PropOp49
 70
     1
102
RTVSPost2010Prop50
 90
       50
102
RTVSPost2010PropOp50
 70
     1
102
RTVSPost2010Prop51ColorIndex
 90
      256
102
RTVSPost2010Prop51ColorRGB
 90
-16777216
102
RTVSPost2010PropOp51
 70
     0
102
RTVSPost2010Prop52
140
1.0
102
RTVSPost2010PropOp52
 70
     0
102
RTVSPost2010Prop53
 90
        2
102
RTVSPost2010PropOp53
 70
     1
102
RTVSPost2010Prop54
  1
strokes_ogs.tif
102
RTVSPost2010PropOp54
 70
     1
102
RTVSPost2010Prop55
280
     0
102
RTVSPost2010PropOp55
 70
     1
102
RTVSPost2010Prop56
140
1.0
102
RTVSPost2010PropOp56
 70
     1
102
RTVSPost2010Prop57
140
1.0
102
RTVSPost2010PropOp57
 70
     1
  0
XRECORD
  5
3D0
102
{ACAD_REACTORS
330
3CF
102
}
330
3CF
100
AcDbXrecord
280
     1
102
RTVSPost2010Prop28
280
     0
102
RTVSPost2010PropOp28
 70
     1
102
RTVSPost2010Prop29
280
     1
102
RTVSPost2010PropOp29
 70
     1
102
RTVSPost2010Prop30
280
     1
102
RTVSPost2010PropOp30
 70
     1
102
RTVSPost2010Prop31
280
     0
102
RTVSPost2010PropOp31
 70
     1
102
RTVSPost2010Prop32
280
     0
102
RTVSPost2010PropOp32
 70
     1
102
RTVSPost2010Prop33
280
     0
102
RTVSPost2010PropOp33
 70
     1
102
RTVSPost2010Prop34
280
     0
102
RTVSPost2010PropOp34
 70
     1
102
RTVSPost2010Prop35
280
     0
102
RTVSPost2010PropOp35
 70
     1
102
RTVSPost2010Prop36
280
     0
102
RTVSPost2010PropOp36
 70
     1
102
RTVSPost2010Prop37
 90
       50
102
RTVSPost2010PropOp37
 70
     1
102
RTVSPost2010Prop38
140
0.0
102
RTVSPost2010PropOp38
 70
     1
102
RTVSPost2010Prop39
140
1.0
102
RTVSPost2010PropOp39
 70
     1
102
RTVSPost2010Prop40
 90
        0
102
RTVSPost2010PropOp40
 70
     1
102
RTVSPost2010Prop41ColorIndex
 90
       18
102
RTVSPost2010Prop41ColorRGB
 90
        0
102
RTVSPost2010PropOp41
 70
     1
102
RTVSPost2010Prop42
 90
       50
102
RTVSPost2010PropOp42
 70
     1
102
RTVSPost2010Prop43
 90
        3
102
RTVSPost2010PropOp43
 70
     1
102
RTVSPost2010Prop44ColorIndex
 90
        5
102
RTVSPost2010Prop44ColorRGB
 90
      255
102
RTVSPost2010PropOp44
 70
     1
102
RTVSPost2010Prop45
280
     0
102
RTVSPost2010PropOp45
 70
     1
102
RTVSPost2010Prop46
 90
       50
102
RTVSPost2010PropOp46
 70
     1
102
RTVSPost2010Prop47
 90
       50
102
RTVSPost2010PropOp47
 70
     1
102
RTVSPost2010Prop48
 90
       50
102
RTVSPost2010PropOp48
 70
     1
102
RTVSPost2010Prop49
280
     0
102
RTVSPost2010PropOp49
 70
     1
102
RTVSPost2010Prop50
 90
       50
102
RTVSPost2010PropOp50
 70
     1
102
RTVSPost2010Prop51ColorIndex
 90
      256
102
RTVSPost2010Prop51ColorRGB
 90
-16777216
102
RTVSPost2010PropOp51
 70
     0
102
RTVSPost2010Prop52
140
1.0
102
RTVSPost2010PropOp52
 70
     0
102
RTVSPost2010Prop53
 90
        2
102
RTVSPost2010PropOp53
 70
     1
102
RTVSPost2010Prop54
  1
strokes_ogs.tif
102
RTVSPost2010PropOp54
 70
     1
102
RTVSPost2010Prop55
280
     0
102
RTVSPost2010PropOp55
 70
     1
102
RTVSPost2010Prop56
140
1.0
102
RTVSPost2010PropOp56
 70
     1
102
RTVSPost2010Prop57
140
1.0
102
RTVSPost2010PropOp57
 70
     1
  0
XRECORD
  5
3E4
102
{ACAD_REACTORS
330
3E3
102
}
330
3E3
100
AcDbXrecord
280
     1
102
RTVSPost2010Prop28
280
     0
102
RTVSPost2010PropOp28
 70
     0
102
RTVSPost2010Prop29
280
     1
102
RTVSPost2010PropOp29
 70
     0
102
RTVSPost2010Prop30
280
     1
102
RTVSPost2010PropOp30
 70
     0
102
RTVSPost2010Prop31
280
     0
102
RTVSPost2010PropOp31
 70
     0
102
RTVSPost2010Prop32
280
     0
102
RTVSPost2010PropOp32
 70
     0
102
RTVSPost2010Prop33
280
     0
102
RTVSPost2010PropOp33
 70
     0
102
RTVSPost2010Prop34
280
     0
102
RTVSPost2010PropOp34
 70
     0
102
RTVSPost2010Prop35
280
     0
102
RTVSPost2010PropOp35
 70
     0
102
RTVSPost2010Prop36
280
     0
102
RTVSPost2010PropOp36
 70
     0
102
RTVSPost2010Prop37
 90
       50
102
RTVSPost2010PropOp37
 70
     0
102
RTVSPost2010Prop38
140
0.0
102
RTVSPost2010PropOp38
 70
     0
102
RTVSPost2010Prop39
140
1.0
102
RTVSPost2010PropOp39
 70
     0
102
RTVSPost2010Prop40
 90
        0
102
RTVSPost2010PropOp40
 70
     0
102
RTVSPost2010Prop41ColorIndex
 90
       18
102
RTVSPost2010Prop41ColorRGB
 90
        0
102
RTVSPost2010PropOp41
 70
     0
102
RTVSPost2010Prop42
 90
       50
102
RTVSPost2010PropOp42
 70
     0
102
RTVSPost2010Prop43
 90
        3
102
RTVSPost2010PropOp43
 70
     0
102
RTVSPost2010Prop44ColorIndex
 90
        5
102
RTVSPost2010Prop44ColorRGB
 90
      255
102
RTVSPost2010PropOp44
 70
     0
102
RTVSPost2010Prop45
280
     0
102
RTVSPost2010PropOp45
 70
     0
102
RTVSPost2010Prop46
 90
       50
102
RTVSPost2010PropOp46
 70
     0
102
RTVSPost2010Prop47
 90
       50
102
RTVSPost2010PropOp47
 70
     0
102
RTVSPost2010Prop48
 90
       50
102
RTVSPost2010PropOp48
 70
     0
102
RTVSPost2010Prop49
280
     0
102
RTVSPost2010PropOp49
 70
     0
102
RTVSPost2010Prop50
 90
       50
102
RTVSPost2010PropOp50
 70
     0
102
RTVSPost2010Prop51ColorIndex
 90
      256
102
RTVSPost2010Prop51ColorRGB
 90
-16777216
102
RTVSPost2010PropOp51
 70
     0
102
RTVSPost2010Prop52
140
1.0
102
RTVSPost2010PropOp52
 70
     0
102
RTVSPost2010Prop53
 90
        2
102
RTVSPost2010PropOp53
 70
     0
102
RTVSPost2010Prop54
  1
strokes_ogs.tif
102
RTVSPost2010PropOp54
 70
     0
102
RTVSPost2010Prop55
280
     0
102
RTVSPost2010PropOp55
 70
     0
102
RTVSPost2010Prop56
140
1.0
102
RTVSPost2010PropOp56
 70
     0
102
RTVSPost2010Prop57
140
1.0
102
RTVSPost2010PropOp57
 70
     0
  0
XRECORD
  5
3DE
102
{ACAD_REACTORS
330
3DD
102
}
330
3DD
100
AcDbXrecord
280
     1
102
RTVSPost2010Prop28
280
     0
102
RTVSPost2010PropOp28
 70
     1
102
RTVSPost2010Prop29
280
     1
102
RTVSPost2010PropOp29
 70
     1
102
RTVSPost2010Prop30
280
     1
102
RTVSPost2010PropOp30
 70
     1
102
RTVSPost2010Prop31
280
     0
102
RTVSPost2010PropOp31
 70
     1
102
RTVSPost2010Prop32
280
     0
102
RTVSPost2010PropOp32
 70
     1
102
RTVSPost2010Prop33
280
     0
102
RTVSPost2010PropOp33
 70
     1
102
RTVSPost2010Prop34
280
     0
102
RTVSPost2010PropOp34
 70
     1
102
RTVSPost2010Prop35
280
     0
102
RTVSPost2010PropOp35
 70
     1
102
RTVSPost2010Prop36
280
     0
102
RTVSPost2010PropOp36
 70
     1
102
RTVSPost2010Prop37
 90
       50
102
RTVSPost2010PropOp37
 70
     1
102
RTVSPost2010Prop38
140
0.0
102
RTVSPost2010PropOp38
 70
     1
102
RTVSPost2010Prop39
140
1.0
102
RTVSPost2010PropOp39
 70
     1
102
RTVSPost2010Prop40
 90
        0
102
RTVSPost2010PropOp40
 70
     1
102
RTVSPost2010Prop41ColorIndex
 90
       18
102
RTVSPost2010Prop41ColorRGB
 90
        0
102
RTVSPost2010PropOp41
 70
     1
102
RTVSPost2010Prop42
 90
       50
102
RTVSPost2010PropOp42
 70
     1
102
RTVSPost2010Prop43
 90
        3
102
RTVSPost2010PropOp43
 70
     1
102
RTVSPost2010Prop44ColorIndex
 90
        5
102
RTVSPost2010Prop44ColorRGB
 90
      255
102
RTVSPost2010PropOp44
 70
     1
102
RTVSPost2010Prop45
280
     0
102
RTVSPost2010PropOp45
 70
     1
102
RTVSPost2010Prop46
 90
       50
102
RTVSPost2010PropOp46
 70
     1
102
RTVSPost2010Prop47
 90
       50
102
RTVSPost2010PropOp47
 70
     1
102
RTVSPost2010Prop48
 90
       50
102
RTVSPost2010PropOp48
 70
     1
102
RTVSPost2010Prop49
280
     0
102
RTVSPost2010PropOp49
 70
     1
102
RTVSPost2010Prop50
 90
       50
102
RTVSPost2010PropOp50
 70
     1
102
RTVSPost2010Prop51ColorIndex
 90
      256
102
RTVSPost2010Prop51ColorRGB
 90
-16777216
102
RTVSPost2010PropOp51
 70
     0
102
RTVSPost2010Prop52
140
1.0
102
RTVSPost2010PropOp52
 70
     0
102
RTVSPost2010Prop53
 90
        2
102
RTVSPost2010PropOp53
 70
     1
102
RTVSPost2010Prop54
  1
strokes_ogs.tif
102
RTVSPost2010PropOp54
 70
     1
102
RTVSPost2010Prop55
280
     0
102
RTVSPost2010PropOp55
 70
     1
102
RTVSPost2010Prop56
140
1.0
102
RTVSPost2010PropOp56
 70
     1
102
RTVSPost2010Prop57
140
1.0
102
RTVSPost2010PropOp57
 70
     1
  0
XRECORD
  5
3E6
102
{ACAD_REACTORS
330
3E5
102
}
330
3E5
100
AcDbXrecord
280
     1
102
RTVSPost2010Prop28
280
     0
102
RTVSPost2010PropOp28
 70
     0
102
RTVSPost2010Prop29
280
     1
102
RTVSPost2010PropOp29
 70
     0
102
RTVSPost2010Prop30
280
     1
102
RTVSPost2010PropOp30
 70
     0
102
RTVSPost2010Prop31
280
     0
102
RTVSPost2010PropOp31
 70
     0
102
RTVSPost2010Prop32
280
     0
102
RTVSPost2010PropOp32
 70
     0
102
RTVSPost2010Prop33
280
     0
102
RTVSPost2010PropOp33
 70
     0
102
RTVSPost2010Prop34
280
     0
102
RTVSPost2010PropOp34
 70
     0
102
RTVSPost2010Prop35
280
     0
102
RTVSPost2010PropOp35
 70
     0
102
RTVSPost2010Prop36
280
     0
102
RTVSPost2010PropOp36
 70
     0
102
RTVSPost2010Prop37
 90
       50
102
RTVSPost2010PropOp37
 70
     0
102
RTVSPost2010Prop38
140
0.0
102
RTVSPost2010PropOp38
 70
     0
102
RTVSPost2010Prop39
140
1.0
102
RTVSPost2010PropOp39
 70
     0
102
RTVSPost2010Prop40
 90
        0
102
RTVSPost2010PropOp40
 70
     0
102
RTVSPost2010Prop41ColorIndex
 90
       18
102
RTVSPost2010Prop41ColorRGB
 90
        0
102
RTVSPost2010PropOp41
 70
     0
102
RTVSPost2010Prop42
 90
       50
102
RTVSPost2010PropOp42
 70
     0
102
RTVSPost2010Prop43
 90
        3
102
RTVSPost2010PropOp43
 70
     0
102
RTVSPost2010Prop44ColorIndex
 90
        5
102
RTVSPost2010Prop44ColorRGB
 90
      255
102
RTVSPost2010PropOp44
 70
     0
102
RTVSPost2010Prop45
280
     0
102
RTVSPost2010PropOp45
 70
     0
102
RTVSPost2010Prop46
 90
       50
102
RTVSPost2010PropOp46
 70
     0
102
RTVSPost2010Prop47
 90
       50
102
RTVSPost2010PropOp47
 70
     0
102
RTVSPost2010Prop48
 90
       50
102
RTVSPost2010PropOp48
 70
     0
102
RTVSPost2010Prop49
280
     0
102
RTVSPost2010PropOp49
 70
     0
102
RTVSPost2010Prop50
 90
       50
102
RTVSPost2010PropOp50
 70
     0
102
RTVSPost2010Prop51ColorIndex
 90
      256
102
RTVSPost2010Prop51ColorRGB
 90
-16777216
102
RTVSPost2010PropOp51
 70
     0
102
RTVSPost2010Prop52
140
1.0
102
RTVSPost2010PropOp52
 70
     0
102
RTVSPost2010Prop53
 90
        2
102
RTVSPost2010PropOp53
 70
     0
102
RTVSPost2010Prop54
  1
strokes_ogs.tif
102
RTVSPost2010PropOp54
 70
     0
102
RTVSPost2010Prop55
280
     0
102
RTVSPost2010PropOp55
 70
     0
102
RTVSPost2010Prop56
140
1.0
102
RTVSPost2010PropOp56
 70
     0
102
RTVSPost2010Prop57
140
1.0
102
RTVSPost2010PropOp57
 70
     0
  0
XRECORD
  5
3D4
102
{ACAD_REACTORS
330
3D3
102
}
330
3D3
100
AcDbXrecord
280
     1
102
RTVSPost2010Prop28
280
     0
102
RTVSPost2010PropOp28
 70
     1
102
RTVSPost2010Prop29
280
     1
102
RTVSPost2010PropOp29
 70
     1
102
RTVSPost2010Prop30
280
     1
102
RTVSPost2010PropOp30
 70
     1
102
RTVSPost2010Prop31
280
     0
102
RTVSPost2010PropOp31
 70
     1
102
RTVSPost2010Prop32
280
     0
102
RTVSPost2010PropOp32
 70
     1
102
RTVSPost2010Prop33
280
     0
102
RTVSPost2010PropOp33
 70
     1
102
RTVSPost2010Prop34
280
     0
102
RTVSPost2010PropOp34
 70
     1
102
RTVSPost2010Prop35
280
     0
102
RTVSPost2010PropOp35
 70
     1
102
RTVSPost2010Prop36
280
     0
102
RTVSPost2010PropOp36
 70
     1
102
RTVSPost2010Prop37
 90
       50
102
RTVSPost2010PropOp37
 70
     1
102
RTVSPost2010Prop38
140
0.0
102
RTVSPost2010PropOp38
 70
     1
102
RTVSPost2010Prop39
140
1.0
102
RTVSPost2010PropOp39
 70
     1
102
RTVSPost2010Prop40
 90
        0
102
RTVSPost2010PropOp40
 70
     1
102
RTVSPost2010Prop41ColorIndex
 90
       18
102
RTVSPost2010Prop41ColorRGB
 90
        0
102
RTVSPost2010PropOp41
 70
     1
102
RTVSPost2010Prop42
 90
       50
102
RTVSPost2010PropOp42
 70
     1
102
RTVSPost2010Prop43
 90
        3
102
RTVSPost2010PropOp43
 70
     1
102
RTVSPost2010Prop44ColorIndex
 90
        5
102
RTVSPost2010Prop44ColorRGB
 90
      255
102
RTVSPost2010PropOp44
 70
     1
102
RTVSPost2010Prop45
280
     0
102
RTVSPost2010PropOp45
 70
     1
102
RTVSPost2010Prop46
 90
       50
102
RTVSPost2010PropOp46
 70
     1
102
RTVSPost2010Prop47
 90
       50
102
RTVSPost2010PropOp47
 70
     1
102
RTVSPost2010Prop48
 90
       50
102
RTVSPost2010PropOp48
 70
     1
102
RTVSPost2010Prop49
280
     0
102
RTVSPost2010PropOp49
 70
     1
102
RTVSPost2010Prop50
 90
       50
102
RTVSPost2010PropOp50
 70
     1
102
RTVSPost2010Prop51ColorIndex
 90
      256
102
RTVSPost2010Prop51ColorRGB
 90
-16777216
102
RTVSPost2010PropOp51
 70
     0
102
RTVSPost2010Prop52
140
1.0
102
RTVSPost2010PropOp52
 70
     0
102
RTVSPost2010Prop53
 90
        2
102
RTVSPost2010PropOp53
 70
     1
102
RTVSPost2010Prop54
  1
strokes_ogs.tif
102
RTVSPost2010PropOp54
 70
     1
102
RTVSPost2010Prop55
280
     0
102
RTVSPost2010PropOp55
 70
     1
102
RTVSPost2010Prop56
140
1.0
102
RTVSPost2010PropOp56
 70
     1
102
RTVSPost2010Prop57
140
1.0
102
RTVSPost2010PropOp57
 70
     1
  0
XRECORD
  5
3F2
102
{ACAD_REACTORS
330
3F1
102
}
330
3F1
100
AcDbXrecord
280
     1
102
RTVSPost2010Prop28
280
     0
102
RTVSPost2010PropOp28
 70
     1
102
RTVSPost2010Prop29
280
     1
102
RTVSPost2010PropOp29
 70
     1
102
RTVSPost2010Prop30
280
     1
102
RTVSPost2010PropOp30
 70
     1
102
RTVSPost2010Prop31
280
     0
102
RTVSPost2010PropOp31
 70
     1
102
RTVSPost2010Prop32
280
     0
102
RTVSPost2010PropOp32
 70
     1
102
RTVSPost2010Prop33
280
     0
102
RTVSPost2010PropOp33
 70
     1
102
RTVSPost2010Prop34
280
     0
102
RTVSPost2010PropOp34
 70
     1
102
RTVSPost2010Prop35
280
     0
102
RTVSPost2010PropOp35
 70
     1
102
RTVSPost2010Prop36
280
     0
102
RTVSPost2010PropOp36
 70
     1
102
RTVSPost2010Prop37
 90
       50
102
RTVSPost2010PropOp37
 70
     1
102
RTVSPost2010Prop38
140
0.0
102
RTVSPost2010PropOp38
 70
     1
102
RTVSPost2010Prop39
140
1.0
102
RTVSPost2010PropOp39
 70
     1
102
RTVSPost2010Prop40
 90
        0
102
RTVSPost2010PropOp40
 70
     1
102
RTVSPost2010Prop41ColorIndex
 90
       18
102
RTVSPost2010Prop41ColorRGB
 90
        0
102
RTVSPost2010PropOp41
 70
     1
102
RTVSPost2010Prop42
 90
       50
102
RTVSPost2010PropOp42
 70
     1
102
RTVSPost2010Prop43
 90
        3
102
RTVSPost2010PropOp43
 70
     1
102
RTVSPost2010Prop44ColorIndex
 90
        5
102
RTVSPost2010Prop44ColorRGB
 90
      255
102
RTVSPost2010PropOp44
 70
     1
102
RTVSPost2010Prop45
280
     0
102
RTVSPost2010PropOp45
 70
     1
102
RTVSPost2010Prop46
 90
       50
102
RTVSPost2010PropOp46
 70
     1
102
RTVSPost2010Prop47
 90
       50
102
RTVSPost2010PropOp47
 70
     1
102
RTVSPost2010Prop48
 90
       50
102
RTVSPost2010PropOp48
 70
     1
102
RTVSPost2010Prop49
280
     0
102
RTVSPost2010PropOp49
 70
     1
102
RTVSPost2010Prop50
 90
       50
102
RTVSPost2010PropOp50
 70
     1
102
RTVSPost2010Prop51ColorIndex
 90
      256
102
RTVSPost2010Prop51ColorRGB
 90
-16777216
102
RTVSPost2010PropOp51
 70
     0
102
RTVSPost2010Prop52
140
1.0
102
RTVSPost2010PropOp52
 70
     0
102
RTVSPost2010Prop53
 90
        2
102
RTVSPost2010PropOp53
 70
     1
102
RTVSPost2010Prop54
  1
strokes_ogs.tif
102
RTVSPost2010PropOp54
 70
     1
102
RTVSPost2010Prop55
280
     0
102
RTVSPost2010PropOp55
 70
     1
102
RTVSPost2010Prop56
140
1.0
102
RTVSPost2010PropOp56
 70
     1
102
RTVSPost2010Prop57
140
1.0
102
RTVSPost2010PropOp57
 70
     1
  0
XRECORD
  5
3F0
102
{ACAD_REACTORS
330
3EF
102
}
330
3EF
100
AcDbXrecord
280
     1
102
RTVSPost2010Prop28
280
     0
102
RTVSPost2010PropOp28
 70
     1
102
RTVSPost2010Prop29
280
     1
102
RTVSPost2010PropOp29
 70
     1
102
RTVSPost2010Prop30
280
     1
102
RTVSPost2010PropOp30
 70
     1
102
RTVSPost2010Prop31
280
     0
102
RTVSPost2010PropOp31
 70
     1
102
RTVSPost2010Prop32
280
     0
102
RTVSPost2010PropOp32
 70
     1
102
RTVSPost2010Prop33
280
     0
102
RTVSPost2010PropOp33
 70
     1
102
RTVSPost2010Prop34
280
     0
102
RTVSPost2010PropOp34
 70
     1
102
RTVSPost2010Prop35
280
     0
102
RTVSPost2010PropOp35
 70
     1
102
RTVSPost2010Prop36
280
     0
102
RTVSPost2010PropOp36
 70
     1
102
RTVSPost2010Prop37
 90
       50
102
RTVSPost2010PropOp37
 70
     1
102
RTVSPost2010Prop38
140
0.0
102
RTVSPost2010PropOp38
 70
     1
102
RTVSPost2010Prop39
140
1.0
102
RTVSPost2010PropOp39
 70
     1
102
RTVSPost2010Prop40
 90
        0
102
RTVSPost2010PropOp40
 70
     1
102
RTVSPost2010Prop41ColorIndex
 90
       18
102
RTVSPost2010Prop41ColorRGB
 90
        0
102
RTVSPost2010PropOp41
 70
     1
102
RTVSPost2010Prop42
 90
       50
102
RTVSPost2010PropOp42
 70
     1
102
RTVSPost2010Prop43
 90
        3
102
RTVSPost2010PropOp43
 70
     1
102
RTVSPost2010Prop44ColorIndex
 90
        5
102
RTVSPost2010Prop44ColorRGB
 90
      255
102
RTVSPost2010PropOp44
 70
     1
102
RTVSPost2010Prop45
280
     0
102
RTVSPost2010PropOp45
 70
     1
102
RTVSPost2010Prop46
 90
       50
102
RTVSPost2010PropOp46
 70
     1
102
RTVSPost2010Prop47
 90
       50
102
RTVSPost2010PropOp47
 70
     1
102
RTVSPost2010Prop48
 90
       50
102
RTVSPost2010PropOp48
 70
     1
102
RTVSPost2010Prop49
280
     0
102
RTVSPost2010PropOp49
 70
     1
102
RTVSPost2010Prop50
 90
       50
102
RTVSPost2010PropOp50
 70
     1
102
RTVSPost2010Prop51ColorIndex
 90
      256
102
RTVSPost2010Prop51ColorRGB
 90
-16777216
102
RTVSPost2010PropOp51
 70
     0
102
RTVSPost2010Prop52
140
1.0
102
RTVSPost2010PropOp52
 70
     0
102
RTVSPost2010Prop53
 90
        2
102
RTVSPost2010PropOp53
 70
     1
102
RTVSPost2010Prop54
  1
strokes_ogs.tif
102
RTVSPost2010PropOp54
 70
     1
102
RTVSPost2010Prop55
280
     0
102
RTVSPost2010PropOp55
 70
     1
102
RTVSPost2010Prop56
140
1.0
102
RTVSPost2010PropOp56
 70
     1
102
RTVSPost2010Prop57
140
1.0
102
RTVSPost2010PropOp57
 70
     1
  0
XRECORD
  5
3EA
102
{ACAD_REACTORS
330
3E9
102
}
330
3E9
100
AcDbXrecord
280
     1
102
RTVSPost2010Prop28
280
     0
102
RTVSPost2010PropOp28
 70
     1
102
RTVSPost2010Prop29
280
     1
102
RTVSPost2010PropOp29
 70
     1
102
RTVSPost2010Prop30
280
     1
102
RTVSPost2010PropOp30
 70
     1
102
RTVSPost2010Prop31
280
     0
102
RTVSPost2010PropOp31
 70
     1
102
RTVSPost2010Prop32
280
     0
102
RTVSPost2010PropOp32
 70
     1
102
RTVSPost2010Prop33
280
     0
102
RTVSPost2010PropOp33
 70
     1
102
RTVSPost2010Prop34
280
     0
102
RTVSPost2010PropOp34
 70
     1
102
RTVSPost2010Prop35
280
     0
102
RTVSPost2010PropOp35
 70
     1
102
RTVSPost2010Prop36
280
     0
102
RTVSPost2010PropOp36
 70
     1
102
RTVSPost2010Prop37
 90
       50
102
RTVSPost2010PropOp37
 70
     1
102
RTVSPost2010Prop38
140
0.0
102
RTVSPost2010PropOp38
 70
     1
102
RTVSPost2010Prop39
140
1.0
102
RTVSPost2010PropOp39
 70
     1
102
RTVSPost2010Prop40
 90
        0
102
RTVSPost2010PropOp40
 70
     1
102
RTVSPost2010Prop41ColorIndex
 90
       18
102
RTVSPost2010Prop41ColorRGB
 90
        0
102
RTVSPost2010PropOp41
 70
     1
102
RTVSPost2010Prop42
 90
       50
102
RTVSPost2010PropOp42
 70
     1
102
RTVSPost2010Prop43
 90
        3
102
RTVSPost2010PropOp43
 70
     1
102
RTVSPost2010Prop44ColorIndex
 90
        5
102
RTVSPost2010Prop44ColorRGB
 90
      255
102
RTVSPost2010PropOp44
 70
     1
102
RTVSPost2010Prop45
280
     0
102
RTVSPost2010PropOp45
 70
     1
102
RTVSPost2010Prop46
 90
       50
102
RTVSPost2010PropOp46
 70
     1
102
RTVSPost2010Prop47
 90
       50
102
RTVSPost2010PropOp47
 70
     1
102
RTVSPost2010Prop48
 90
       50
102
RTVSPost2010PropOp48
 70
     1
102
RTVSPost2010Prop49
280
     0
102
RTVSPost2010PropOp49
 70
     1
102
RTVSPost2010Prop50
 90
       50
102
RTVSPost2010PropOp50
 70
     1
102
RTVSPost2010Prop51ColorIndex
 90
      256
102
RTVSPost2010Prop51ColorRGB
 90
-16777216
102
RTVSPost2010PropOp51
 70
     0
102
RTVSPost2010Prop52
140
1.0
102
RTVSPost2010PropOp52
 70
     0
102
RTVSPost2010Prop53
 90
        2
102
RTVSPost2010PropOp53
 70
     1
102
RTVSPost2010Prop54
  1
strokes_ogs.tif
102
RTVSPost2010PropOp54
 70
     1
102
RTVSPost2010Prop55
280
     0
102
RTVSPost2010PropOp55
 70
     1
102
RTVSPost2010Prop56
140
1.0
102
RTVSPost2010PropOp56
 70
     1
102
RTVSPost2010Prop57
140
1.0
102
RTVSPost2010PropOp57
 70
     1
  0
XRECORD
  5
3EC
102
{ACAD_REACTORS
330
3EB
102
}
330
3EB
100
AcDbXrecord
280
     1
102
RTVSPost2010Prop28
280
     0
102
RTVSPost2010PropOp28
 70
     1
102
RTVSPost2010Prop29
280
     1
102
RTVSPost2010PropOp29
 70
     1
102
RTVSPost2010Prop30
280
     1
102
RTVSPost2010PropOp30
 70
     1
102
RTVSPost2010Prop31
280
     0
102
RTVSPost2010PropOp31
 70
     1
102
RTVSPost2010Prop32
280
     0
102
RTVSPost2010PropOp32
 70
     1
102
RTVSPost2010Prop33
280
     0
102
RTVSPost2010PropOp33
 70
     1
102
RTVSPost2010Prop34
280
     0
102
RTVSPost2010PropOp34
 70
     1
102
RTVSPost2010Prop35
280
     0
102
RTVSPost2010PropOp35
 70
     1
102
RTVSPost2010Prop36
280
     0
102
RTVSPost2010PropOp36
 70
     1
102
RTVSPost2010Prop37
 90
       50
102
RTVSPost2010PropOp37
 70
     1
102
RTVSPost2010Prop38
140
0.0
102
RTVSPost2010PropOp38
 70
     1
102
RTVSPost2010Prop39
140
1.0
102
RTVSPost2010PropOp39
 70
     1
102
RTVSPost2010Prop40
 90
        0
102
RTVSPost2010PropOp40
 70
     1
102
RTVSPost2010Prop41ColorIndex
 90
       18
102
RTVSPost2010Prop41ColorRGB
 90
        0
102
RTVSPost2010PropOp41
 70
     1
102
RTVSPost2010Prop42
 90
       50
102
RTVSPost2010PropOp42
 70
     1
102
RTVSPost2010Prop43
 90
        3
102
RTVSPost2010PropOp43
 70
     1
102
RTVSPost2010Prop44ColorIndex
 90
        5
102
RTVSPost2010Prop44ColorRGB
 90
      255
102
RTVSPost2010PropOp44
 70
     1
102
RTVSPost2010Prop45
280
     0
102
RTVSPost2010PropOp45
 70
     1
102
RTVSPost2010Prop46
 90
       50
102
RTVSPost2010PropOp46
 70
     1
102
RTVSPost2010Prop47
 90
       50
102
RTVSPost2010PropOp47
 70
     1
102
RTVSPost2010Prop48
 90
       50
102
RTVSPost2010PropOp48
 70
     1
102
RTVSPost2010Prop49
280
     0
102
RTVSPost2010PropOp49
 70
     1
102
RTVSPost2010Prop50
 90
       50
102
RTVSPost2010PropOp50
 70
     1
102
RTVSPost2010Prop51ColorIndex
 90
      256
102
RTVSPost2010Prop51ColorRGB
 90
-16777216
102
RTVSPost2010PropOp51
 70
     0
102
RTVSPost2010Prop52
140
1.0
102
RTVSPost2010PropOp52
 70
     0
102
RTVSPost2010Prop53
 90
        2
102
RTVSPost2010PropOp53
 70
     1
102
RTVSPost2010Prop54
  1
strokes_ogs.tif
102
RTVSPost2010PropOp54
 70
     1
102
RTVSPost2010Prop55
280
     0
102
RTVSPost2010PropOp55
 70
     1
102
RTVSPost2010Prop56
140
1.0
102
RTVSPost2010PropOp56
 70
     1
102
RTVSPost2010Prop57
140
1.0
102
RTVSPost2010PropOp57
 70
     1
  0
XRECORD
  5
3DC
102
{ACAD_REACTORS
330
3DB
102
}
330
3DB
100
AcDbXrecord
280
     1
102
RTVSPost2010Prop28
280
     0
102
RTVSPost2010PropOp28
 70
     1
102
RTVSPost2010Prop29
280
     1
102
RTVSPost2010PropOp29
 70
     1
102
RTVSPost2010Prop30
280
     1
102
RTVSPost2010PropOp30
 70
     1
102
RTVSPost2010Prop31
280
     0
102
RTVSPost2010PropOp31
 70
     1
102
RTVSPost2010Prop32
280
     0
102
RTVSPost2010PropOp32
 70
     1
102
RTVSPost2010Prop33
280
     0
102
RTVSPost2010PropOp33
 70
     1
102
RTVSPost2010Prop34
280
     0
102
RTVSPost2010PropOp34
 70
     1
102
RTVSPost2010Prop35
280
     0
102
RTVSPost2010PropOp35
 70
     1
102
RTVSPost2010Prop36
280
     0
102
RTVSPost2010PropOp36
 70
     1
102
RTVSPost2010Prop37
 90
       50
102
RTVSPost2010PropOp37
 70
     1
102
RTVSPost2010Prop38
140
0.0
102
RTVSPost2010PropOp38
 70
     1
102
RTVSPost2010Prop39
140
1.0
102
RTVSPost2010PropOp39
 70
     1
102
RTVSPost2010Prop40
 90
        0
102
RTVSPost2010PropOp40
 70
     1
102
RTVSPost2010Prop41ColorIndex
 90
       18
102
RTVSPost2010Prop41ColorRGB
 90
        0
102
RTVSPost2010PropOp41
 70
     1
102
RTVSPost2010Prop42
 90
       50
102
RTVSPost2010PropOp42
 70
     1
102
RTVSPost2010Prop43
 90
        3
102
RTVSPost2010PropOp43
 70
     1
102
RTVSPost2010Prop44ColorIndex
 90
        5
102
RTVSPost2010Prop44ColorRGB
 90
      255
102
RTVSPost2010PropOp44
 70
     1
102
RTVSPost2010Prop45
280
     0
102
RTVSPost2010PropOp45
 70
     1
102
RTVSPost2010Prop46
 90
       50
102
RTVSPost2010PropOp46
 70
     1
102
RTVSPost2010Prop47
 90
       50
102
RTVSPost2010PropOp47
 70
     1
102
RTVSPost2010Prop48
 90
       50
102
RTVSPost2010PropOp48
 70
     1
102
RTVSPost2010Prop49
280
     0
102
RTVSPost2010PropOp49
 70
     1
102
RTVSPost2010Prop50
 90
       50
102
RTVSPost2010PropOp50
 70
     1
102
RTVSPost2010Prop51ColorIndex
 90
      256
102
RTVSPost2010Prop51ColorRGB
 90
-16777216
102
RTVSPost2010PropOp51
 70
     0
102
RTVSPost2010Prop52
140
1.0
102
RTVSPost2010PropOp52
 70
     0
102
RTVSPost2010Prop53
 90
        2
102
RTVSPost2010PropOp53
 70
     1
102
RTVSPost2010Prop54
  1
strokes_ogs.tif
102
RTVSPost2010PropOp54
 70
     1
102
RTVSPost2010Prop55
280
     0
102
RTVSPost2010PropOp55
 70
     1
102
RTVSPost2010Prop56
140
1.0
102
RTVSPost2010PropOp56
 70
     1
102
RTVSPost2010Prop57
140
1.0
102
RTVSPost2010PropOp57
 70
     1
  0
XRECORD
  5
3CE
102
{ACAD_REACTORS
330
3CD
102
}
330
3CD
100
AcDbXrecord
280
     1
102
RTVSPost2010Prop28
280
     0
102
RTVSPost2010PropOp28
 70
     1
102
RTVSPost2010Prop29
280
     1
102
RTVSPost2010PropOp29
 70
     1
102
RTVSPost2010Prop30
280
     1
102
RTVSPost2010PropOp30
 70
     1
102
RTVSPost2010Prop31
280
     0
102
RTVSPost2010PropOp31
 70
     1
102
RTVSPost2010Prop32
280
     0
102
RTVSPost2010PropOp32
 70
     1
102
RTVSPost2010Prop33
280
     0
102
RTVSPost2010PropOp33
 70
     1
102
RTVSPost2010Prop34
280
     0
102
RTVSPost2010PropOp34
 70
     1
102
RTVSPost2010Prop35
280
     0
102
RTVSPost2010PropOp35
 70
     1
102
RTVSPost2010Prop36
280
     0
102
RTVSPost2010PropOp36
 70
     1
102
RTVSPost2010Prop37
 90
       50
102
RTVSPost2010PropOp37
 70
     1
102
RTVSPost2010Prop38
140
0.0
102
RTVSPost2010PropOp38
 70
     1
102
RTVSPost2010Prop39
140
1.0
102
RTVSPost2010PropOp39
 70
     1
102
RTVSPost2010Prop40
 90
        0
102
RTVSPost2010PropOp40
 70
     1
102
RTVSPost2010Prop41ColorIndex
 90
       18
102
RTVSPost2010Prop41ColorRGB
 90
        0
102
RTVSPost2010PropOp41
 70
     1
102
RTVSPost2010Prop42
 90
       50
102
RTVSPost2010PropOp42
 70
     1
102
RTVSPost2010Prop43
 90
        3
102
RTVSPost2010PropOp43
 70
     1
102
RTVSPost2010Prop44ColorIndex
 90
        5
102
RTVSPost2010Prop44ColorRGB
 90
      255
102
RTVSPost2010PropOp44
 70
     1
102
RTVSPost2010Prop45
280
     0
102
RTVSPost2010PropOp45
 70
     1
102
RTVSPost2010Prop46
 90
       50
102
RTVSPost2010PropOp46
 70
     1
102
RTVSPost2010Prop47
 90
       50
102
RTVSPost2010PropOp47
 70
     1
102
RTVSPost2010Prop48
 90
       50
102
RTVSPost2010PropOp48
 70
     1
102
RTVSPost2010Prop49
280
     0
102
RTVSPost2010PropOp49
 70
     1
102
RTVSPost2010Prop50
 90
       50
102
RTVSPost2010PropOp50
 70
     1
102
RTVSPost2010Prop51ColorIndex
 90
      256
102
RTVSPost2010Prop51ColorRGB
 90
-16777216
102
RTVSPost2010PropOp51
 70
     0
102
RTVSPost2010Prop52
140
1.0
102
RTVSPost2010PropOp52
 70
     0
102
RTVSPost2010Prop53
 90
        2
102
RTVSPost2010PropOp53
 70
     1
102
RTVSPost2010Prop54
  1
strokes_ogs.tif
102
RTVSPost2010PropOp54
 70
     1
102
RTVSPost2010Prop55
280
     0
102
RTVSPost2010PropOp55
 70
     1
102
RTVSPost2010Prop56
140
1.0
102
RTVSPost2010PropOp56
 70
     1
102
RTVSPost2010Prop57
140
1.0
102
RTVSPost2010PropOp57
 70
     1
  0
XRECORD
  5
3EE
102
{ACAD_REACTORS
330
3ED
102
}
330
3ED
100
AcDbXrecord
280
     1
102
RTVSPost2010Prop28
280
     0
102
RTVSPost2010PropOp28
 70
     1
102
RTVSPost2010Prop29
280
     1
102
RTVSPost2010PropOp29
 70
     1
102
RTVSPost2010Prop30
280
     1
102
RTVSPost2010PropOp30
 70
     1
102
RTVSPost2010Prop31
280
     0
102
RTVSPost2010PropOp31
 70
     1
102
RTVSPost2010Prop32
280
     0
102
RTVSPost2010PropOp32
 70
     1
102
RTVSPost2010Prop33
280
     0
102
RTVSPost2010PropOp33
 70
     1
102
RTVSPost2010Prop34
280
     0
102
RTVSPost2010PropOp34
 70
     1
102
RTVSPost2010Prop35
280
     0
102
RTVSPost2010PropOp35
 70
     1
102
RTVSPost2010Prop36
280
     0
102
RTVSPost2010PropOp36
 70
     1
102
RTVSPost2010Prop37
 90
       50
102
RTVSPost2010PropOp37
 70
     1
102
RTVSPost2010Prop38
140
0.0
102
RTVSPost2010PropOp38
 70
     1
102
RTVSPost2010Prop39
140
1.0
102
RTVSPost2010PropOp39
 70
     1
102
RTVSPost2010Prop40
 90
        0
102
RTVSPost2010PropOp40
 70
     1
102
RTVSPost2010Prop41ColorIndex
 90
       18
102
RTVSPost2010Prop41ColorRGB
 90
        0
102
RTVSPost2010PropOp41
 70
     1
102
RTVSPost2010Prop42
 90
       50
102
RTVSPost2010PropOp42
 70
     1
102
RTVSPost2010Prop43
 90
        3
102
RTVSPost2010PropOp43
 70
     1
102
RTVSPost2010Prop44ColorIndex
 90
        5
102
RTVSPost2010Prop44ColorRGB
 90
      255
102
RTVSPost2010PropOp44
 70
     1
102
RTVSPost2010Prop45
280
     0
102
RTVSPost2010PropOp45
 70
     1
102
RTVSPost2010Prop46
 90
       50
102
RTVSPost2010PropOp46
 70
     1
102
RTVSPost2010Prop47
 90
       50
102
RTVSPost2010PropOp47
 70
     1
102
RTVSPost2010Prop48
 90
       50
102
RTVSPost2010PropOp48
 70
     1
102
RTVSPost2010Prop49
280
     0
102
RTVSPost2010PropOp49
 70
     1
102
RTVSPost2010Prop50
 90
       50
102
RTVSPost2010PropOp50
 70
     1
102
RTVSPost2010Prop51ColorIndex
 90
      256
102
RTVSPost2010Prop51ColorRGB
 90
-16777216
102
RTVSPost2010PropOp51
 70
     0
102
RTVSPost2010Prop52
140
1.0
102
RTVSPost2010PropOp52
 70
     0
102
RTVSPost2010Prop53
 90
        2
102
RTVSPost2010PropOp53
 70
     1
102
RTVSPost2010Prop54
  1
strokes_ogs.tif
102
RTVSPost2010PropOp54
 70
     1
102
RTVSPost2010Prop55
280
     0
102
RTVSPost2010PropOp55
 70
     1
102
RTVSPost2010Prop56
140
1.0
102
RTVSPost2010PropOp56
 70
     1
102
RTVSPost2010Prop57
140
1.0
102
RTVSPost2010PropOp57
 70
     1
  0
ENDSEC
  0
EOF
