  0
SECTION
  2
HEADER
  9
$ACADVER
  1
AC1024
  9
$ACADMAINTVER
 70
     6
  9
$DWGCODEPAGE
  3
ANSI_932
  9
$INSBASE
 10
0.0
 20
0.0
 30
0.0
  9
$EXTMIN
 10
-6300.0
 20
-4455.0
 30
0.0
  9
$EXTMAX
 10
6300.0
 20
4455.0
 30
0.0
  9
$LIMMIN
 10
-6300.0
 20
-4455.0
  9
$LIMMAX
 10
6300.0
 20
4455.0
  9
$ORTHOMODE
 70
     0
  9
$REGENMODE
 70
     1
  9
$FILLMODE
 70
     1
  9
$QTEXTMODE
 70
     0
  9
$MIRRTEXT
 70
     1
  9
$LTSCALE
 40
30.0
  9
$ATTMODE
 70
     1
  9
$TEXTSIZE
 40
2.5
  9
$TRACEWID
 40
1.0
  9
$TEXTSTYLE
  7
Standard
  9
$CLAYER
  8
0
  9
$CELTYPE
  6
ByLayer
  9
$CECOLOR
 62
   256
  9
$CELTSCALE
 40
1.0
  9
$DISPSILH
 70
     0
  9
$DIMSCALE
 40
1.0
  9
$DIMASZ
 40
2.5
  9
$DIMEXO
 40
0.625
  9
$DIMDLI
 40
3.75
  9
$DIMRND
 40
0.0
  9
$DIMDLE
 40
0.0
  9
$DIMEXE
 40
1.25
  9
$DIMTP
 40
0.0
  9
$DIMTM
 40
0.0
  9
$DIMTXT
 40
2.5
  9
$DIMCEN
 40
2.5
  9
$DIMTSZ
 40
0.0
  9
$DIMTOL
 70
     0
  9
$DIMLIM
 70
     0
  9
$DIMTIH
 70
     0
  9
$DIMTOH
 70
     0
  9
$DIMSE1
 70
     0
  9
$DIMSE2
 70
     0
  9
$DIMTAD
 70
     1
  9
$DIMZIN
 70
     8
  9
$DIMBLK
  1

  9
$DIMASO
 70
     1
  9
$DIMSHO
 70
     1
  9
$DIMPOST
  1

  9
$DIMAPOST
  1

  9
$DIMALT
 70
     0
  9
$DIMALTD
 70
     3
  9
$DIMALTF
 40
0.03937007874016
  9
$DIMLFAC
 40
1.0
  9
$DIMTOFL
 70
     1
  9
$DIMTVP
 40
0.0
  9
$DIMTIX
 70
     0
  9
$DIMSOXD
 70
     0
  9
$DIMSAH
 70
     0
  9
$DIMBLK1
  1

  9
$DIMBLK2
  1

  9
$DIMSTYLE
  2
ISO-25
  9
$DIMCLRD
 70
     0
  9
$DIMCLRE
 70
     0
  9
$DIMCLRT
 70
     0
  9
$DIMTFAC
 40
1.0
  9
$DIMGAP
 40
0.625
  9
$DIMJUST
 70
     0
  9
$DIMSD1
 70
     0
  9
$DIMSD2
 70
     0
  9
$DIMTOLJ
 70
     0
  9
$DIMTZIN
 70
     8
  9
$DIMALTZ
 70
     0
  9
$DIMALTTZ
 70
     0
  9
$DIMUPT
 70
     0
  9
$DIMDEC
 70
     2
  9
$DIMTDEC
 70
     2
  9
$DIMALTU
 70
     2
  9
$DIMALTTD
 70
     3
  9
$DIMTXSTY
  7
Standard
  9
$DIMAUNIT
 70
     0
  9
$DIMADEC
 70
     0
  9
$DIMALTRND
 40
0.0
  9
$DIMAZIN
 70
     0
  9
$DIMDSEP
 70
    44
  9
$DIMATFIT
 70
     3
  9
$DIMFRAC
 70
     0
  9
$DIMLDRBLK
  1

  9
$DIMLUNIT
 70
     2
  9
$DIMLWD
 70
    -2
  9
$DIMLWE
 70
    -2
  9
$DIMTMOVE
 70
     0
  9
$DIMFXL
 40
1.0
  9
$DIMFXLON
 70
     0
  9
$DIMJOGANG
 40
0.7853981633974483
  9
$DIMTFILL
 70
     0
  9
$DIMTFILLCLR
 70
     0
  9
$DIMARCSYM
 70
     0
  9
$DIMLTYPE
  6

  9
$DIMLTEX1
  6

  9
$DIMLTEX2
  6

  9
$DIMTXTDIRECTION
 70
     0
  9
$LUNITS
 70
     2
  9
$LUPREC
 70
     4
  9
$SKETCHINC
 40
1.0
  9
$FILLETRAD
 40
10.0
  9
$AUNITS
 70
     0
  9
$AUPREC
 70
     0
  9
$MENU
  1
.
  9
$ELEVATION
 40
0.0
  9
$PELEVATION
 40
0.0
  9
$THICKNESS
 40
0.0
  9
$LIMCHECK
 70
     0
  9
$CHAMFERA
 40
0.0
  9
$CHAMFERB
 40
0.0
  9
$CHAMFERC
 40
0.0
  9
$CHAMFERD
 40
0.0
  9
$SKPOLY
 70
     0
  9
$TDCREATE
 40
2458494.396600278
  9
$TDUCREATE
 40
2458494.021600278
  9
$TDUPDATE
 40
2458494.396600637
  9
$TDUUPDATE
 40
2458494.021600637
  9
$TDINDWG
 40
0.0000000116
  9
$TDUSRTIMER
 40
0.0000000116
  9
$USRTIMER
 70
     1
  9
$ANGBASE
 50
0.0
  9
$ANGDIR
 70
     0
  9
$PDMODE
 70
     0
  9
$PDSIZE
 40
0.0
  9
$PLINEWID
 40
0.0
  9
$SPLFRAME
 70
     0
  9
$SPLINETYPE
 70
     6
  9
$SPLINESEGS
 70
     8
  9
$HANDSEED
  5
451
  9
$SURFTAB1
 70
     6
  9
$SURFTAB2
 70
     6
  9
$SURFTYPE
 70
     6
  9
$SURFU
 70
     6
  9
$SURFV
 70
     6
  9
$UCSBASE
  2

  9
$UCSNAME
  2

  9
$UCSORG
 10
0.0
 20
0.0
 30
0.0
  9
$UCSXDIR
 10
1.0
 20
0.0
 30
0.0
  9
$UCSYDIR
 10
0.0
 20
1.0
 30
0.0
  9
$UCSORTHOREF
  2

  9
$UCSORTHOVIEW
 70
     0
  9
$UCSORGTOP
 10
0.0
 20
0.0
 30
0.0
  9
$UCSORGBOTTOM
 10
0.0
 20
0.0
 30
0.0
  9
$UCSORGLEFT
 10
0.0
 20
0.0
 30
0.0
  9
$UCSORGRIGHT
 10
0.0
 20
0.0
 30
0.0
  9
$UCSORGFRONT
 10
0.0
 20
0.0
 30
0.0
  9
$UCSORGBACK
 10
0.0
 20
0.0
 30
0.0
  9
$PUCSBASE
  2

  9
$PUCSNAME
  2

  9
$PUCSORG
 10
0.0
 20
0.0
 30
0.0
  9
$PUCSXDIR
 10
1.0
 20
0.0
 30
0.0
  9
$PUCSYDIR
 10
0.0
 20
1.0
 30
0.0
  9
$PUCSORTHOREF
  2

  9
$PUCSORTHOVIEW
 70
     0
  9
$PUCSORGTOP
 10
0.0
 20
0.0
 30
0.0
  9
$PUCSORGBOTTOM
 10
0.0
 20
0.0
 30
0.0
  9
$PUCSORGLEFT
 10
0.0
 20
0.0
 30
0.0
  9
$PUCSORGRIGHT
 10
0.0
 20
0.0
 30
0.0
  9
$PUCSORGFRONT
 10
0.0
 20
0.0
 30
0.0
  9
$PUCSORGBACK
 10
0.0
 20
0.0
 30
0.0
  9
$USERI1
 70
     0
  9
$USERI2
 70
     0
  9
$USERI3
 70
     0
  9
$USERI4
 70
     0
  9
$USERI5
 70
     0
  9
$USERR1
 40
0.0
  9
$USERR2
 40
0.0
  9
$USERR3
 40
0.0
  9
$USERR4
 40
0.0
  9
$USERR5
 40
0.0
  9
$WORLDVIEW
 70
     1
  9
$SHADEDGE
 70
     3
  9
$SHADEDIF
 70
    70
  9
$TILEMODE
 70
     1
  9
$MAXACTVP
 70
    64
  9
$PINSBASE
 10
0.0
 20
0.0
 30
0.0
  9
$PLIMCHECK
 70
     0
  9
$PEXTMIN
 10
1.000000000000000E+20
 20
1.000000000000000E+20
 30
1.000000000000000E+20
  9
$PEXTMAX
 10
-1.000000000000000E+20
 20
-1.000000000000000E+20
 30
-1.000000000000000E+20
  9
$PLIMMIN
 10
0.0
 20
0.0
  9
$PLIMMAX
 10
420.0
 20
297.0
  9
$UNITMODE
 70
     0
  9
$VISRETAIN
 70
     1
  9
$PLINEGEN
 70
     0
  9
$PSLTSCALE
 70
     1
  9
$TREEDEPTH
 70
  3020
  9
$CMLSTYLE
  2
Standard
  9
$CMLJUST
 70
     0
  9
$CMLSCALE
 40
20.0
  9
$PROXYGRAPHICS
 70
     1
  9
$MEASUREMENT
 70
     1
  9
$CELWEIGHT
370
    -1
  9
$ENDCAPS
280
     0
  9
$JOINSTYLE
280
     0
  9
$LWDISPLAY
290
     0
  9
$INSUNITS
 70
     4
  9
$HYPERLINKBASE
  1

  9
$STYLESHEET
  1

  9
$XEDIT
290
     1
  9
$CEPSNTYPE
380
     0
  9
$PSTYLEMODE
290
     1
  9
$FINGERPRINTGUID
  2
{CC89AA60-DD98-4784-ABBD-790CA665384D}
  9
$VERSIONGUID
  2
{FAEB1C32-E019-11D5-929B-00C0DF256EC4}
  9
$EXTNAMES
290
     1
  9
$PSVPSCALE
 40
0.0
  9
$OLESTARTUP
290
     0
  9
$SORTENTS
280
   127
  9
$INDEXCTL
280
     0
  9
$HIDETEXT
280
     1
  9
$XCLIPFRAME
280
     2
  9
$HALOGAP
280
     0
  9
$OBSCOLOR
 70
   257
  9
$OBSLTYPE
280
     0
  9
$INTERSECTIONDISPLAY
280
     0
  9
$INTERSECTIONCOLOR
 70
   257
  9
$DIMASSOC
280
     2
  9
$PROJECTNAME
  1

  9
$CAMERADISPLAY
290
     0
  9
$LENSLENGTH
 40
50.0
  9
$CAMERAHEIGHT
 40
0.0
  9
$STEPSPERSEC
 40
2.0
  9
$STEPSIZE
 40
6.0
  9
$3DDWFPREC
 40
2.0
  9
$PSOLWIDTH
 40
5.0
  9
$PSOLHEIGHT
 40
80.0
  9
$LOFTANG1
 40
1.570796326794897
  9
$LOFTANG2
 40
1.570796326794897
  9
$LOFTMAG1
 40
0.0
  9
$LOFTMAG2
 40
0.0
  9
$LOFTPARAM
 70
     7
  9
$LOFTNORMALS
280
     1
  9
$LATITUDE
 40
37.795
  9
$LONGITUDE
 40
-122.394
  9
$NORTHDIRECTION
 40
0.0
  9
$TIMEZONE
 70
 -8000
  9
$LIGHTGLYPHDISPLAY
280
     1
  9
$TILEMODELIGHTSYNCH
280
     1
  9
$CMATERIAL
347
44
  9
$SOLIDHIST
280
     0
  9
$SHOWHIST
280
     1
  9
$DWFFRAME
280
     2
  9
$DGNFRAME
280
     2
  9
$REALWORLDSCALE
290
     1
  9
$INTERFERECOLOR
 62
   256
  9
$CSHADOW
280
     0
  9
$SHADOWPLANELOCATION
 40
0.0
  0
ENDSEC
  0
SECTION
  2
CLASSES
  0
CLASS
  1
ACDBDICTIONARYWDFLT
  2
AcDbDictionaryWithDefault
  3
ObjectDBX Classes
 90
        0
 91
        4
280
     0
281
     0
  0
CLASS
  1
VISUALSTYLE
  2
AcDbVisualStyle
  3
ObjectDBX Classes
 90
     4095
 91
        4
280
     0
281
     0
  0
CLASS
  1
MATERIAL
  2
AcDbMaterial
  3
ObjectDBX Classes
 90
     1153
 91
        4
280
     0
281
     0
  0
CLASS
  1
SCALE
  2
AcDbScale
  3
ObjectDBX Classes
 90
     1153
 91
        4
280
     0
281
     0
  0
CLASS
  1
TABLESTYLE
  2
AcDbTableStyle
  3
ObjectDBX Classes
 90
     4095
 91
        4
280
     0
281
     0
  0
CLASS
  1
MLEADERSTYLE
  2
AcDbMLeaderStyle
  3
ACDB_MLEADERSTYLE_CLASS
 90
     4095
 91
        4
280
     0
281
     0
  0
CLASS
  1
SUN
  2
AcDbSun
  3
SCENEOE
 90
     1153
 91
        4
280
     0
281
     0
  0
CLASS
  1
DICTIONARYVAR
  2
AcDbDictionaryVar
  3
ObjectDBX Classes
 90
        0
 91
        4
280
     0
281
     0
  0
CLASS
  1
CELLSTYLEMAP
  2
AcDbCellStyleMap
  3
ObjectDBX Classes
 90
     1152
 91
        4
280
     0
281
     0
  0
ENDSEC
  0
SECTION
  2
TABLES
  0
TABLE
  2
VPORT
  5
8
330
0
100
AcDbSymbolTable
 70
     1
  0
VPORT
  5
29
330
8
100
AcDbSymbolTableRecord
100
AcDbViewportTableRecord
  2
*Active
 70
     0
 10
0.0
 20
0.0
 11
1.0
 21
1.0
 12
0.0
 22
0.0
 13
0.0
 23
0.0
 14
10.0
 24
10.0
 15
10.0
 25
10.0
 16
0.0
 26
0.0
 36
1.0
 17
0.0
 27
0.0
 37
0.0
 40
9801.0
 41
1.414141414141414
 42
50.0
 43
0.0
 44
0.0
 50
0.0
 51
0.0
 71
     0
 72
 10000
 73
     1
 74
     3
 75
     0
 76
     0
 77
     0
 78
     0
281
     0
 65
     1
110
0.0
120
0.0
130
0.0
111
1.0
121
0.0
131
0.0
112
0.0
122
1.0
132
0.0
 79
     0
146
0.0
348
2F
 60
     3
 61
     5
292
     1
282
     1
141
0.0
142
0.0
 63
   250
361
6D
  0
ENDTAB
  0
TABLE
  2
LTYPE
  5
5
330
0
100
AcDbSymbolTable
 70
     5
  0
LTYPE
  5
14
330
5
100
AcDbSymbolTableRecord
100
AcDbLinetypeTableRecord
  2
ByBlock
 70
     0
  3

 72
    65
 73
     0
 40
0.0
  0
LTYPE
  5
15
330
5
100
AcDbSymbolTableRecord
100
AcDbLinetypeTableRecord
  2
ByLayer
 70
     0
  3

 72
    65
 73
     0
 40
0.0
  0
LTYPE
  5
16
330
5
100
AcDbSymbolTableRecord
100
AcDbLinetypeTableRecord
  2
Continuous
 70
     0
  3
Solid line
 72
    65
 73
     0
 40
0.0
  0
LTYPE
  5
70
330
5
100
AcDbSymbolTableRecord
100
AcDbLinetypeTableRecord
  2
JWW_HOJO
 70
     0
  3
  -   -   -   -   -   -   -   - 
 72
    65
 73
     2
 40
1.693333333333333
 49
-1.27
 74
     0
 49
0.4233333333333333
 74
     0
  0
LTYPE
  5
71
330
5
100
AcDbSymbolTableRecord
100
AcDbLinetypeTableRecord
  2
JWW_CENTER1
 70
     0
  3
-----  --  ----------  --  -----
 72
    65
 73
     4
 40
6.773333333333333
 49
4.233333333333333
 74
     0
 49
-0.8466666666666667
 74
     0
 49
0.8466666666666667
 74
     0
 49
-0.8466666666666667
 74
     0
  0
LTYPE
  5
72
330
5
100
AcDbSymbolTableRecord
100
AcDbLinetypeTableRecord
  2
JWW_DASHED2
 70
     0
  3
--    ----    ----    ----    --
 72
    65
 73
     2
 40
3.386666666666667
 49
1.693333333333333
 74
     0
 49
-1.693333333333333
 74
     0
  0
LTYPE
  5
73
330
5
100
AcDbSymbolTableRecord
100
AcDbLinetypeTableRecord
  2
JWW_DASHED1
 70
     0
  3
-  --  --  --  --  --  --  --  -
 72
    65
 73
     2
 40
1.693333333333333
 49
0.8466666666666667
 74
     0
 49
-0.8466666666666667
 74
     0
  0
ENDTAB
  0
TABLE
  2
LAYER
  5
2
330
0
100
AcDbSymbolTable
 70
    16
  0
LAYER
  5
10
330
2
100
AcDbSymbolTableRecord
100
AcDbLayerTableRecord
  2
0
 70
     0
 62
     7
  6
Continuous
370
    -3
390
F
347
46
  0
LAYER
  5
74
330
2
100
AcDbSymbolTableRecord
100
AcDbLayerTableRecord
  2
F-0_補助線
 70
     0
 62
     7
  6
Continuous
370
    -3
390
F
347
46
  0
LAYER
  5
75
330
2
100
AcDbSymbolTableRecord
100
AcDbLayerTableRecord
  2
F-1_枠
 70
     0
 62
     7
  6
Continuous
370
    -3
390
F
347
46
  0
LAYER
  5
76
330
2
100
AcDbSymbolTableRecord
100
AcDbLayerTableRecord
  2
F-A_文字
 70
     0
 62
     7
  6
Continuous
370
    -3
390
F
347
46
  0
LAYER
  5
77
330
2
100
AcDbSymbolTableRecord
100
AcDbLayerTableRecord
  2
0-A_文字
 70
     0
 62
     7
  6
Continuous
370
    -3
390
F
347
46
  0
LAYER
  5
78
330
2
100
AcDbSymbolTableRecord
100
AcDbLayerTableRecord
  2
0-6_扉
 70
     0
 62
     7
  6
Continuous
370
    -3
390
F
347
46
  0
LAYER
  5
79
330
2
100
AcDbSymbolTableRecord
100
AcDbLayerTableRecord
  2
0-C_ハッチ
 70
     0
 62
     7
  6
Continuous
370
    -3
390
F
347
46
  0
LAYER
  5
7A
330
2
100
AcDbSymbolTableRecord
100
AcDbLayerTableRecord
  2
0-4_枠
 70
     0
 62
     7
  6
Continuous
370
    -3
390
F
347
46
  0
LAYER
  5
7B
330
2
100
AcDbSymbolTableRecord
100
AcDbLayerTableRecord
  2
0-1_通り芯
 70
     0
 62
     7
  6
Continuous
370
    -3
390
F
347
46
  0
LAYER
  5
7C
330
2
100
AcDbSymbolTableRecord
100
AcDbLayerTableRecord
  2
0-3_仕上げ
 70
     0
 62
     7
  6
Continuous
370
    -3
390
F
347
46
  0
LAYER
  5
7D
330
2
100
AcDbSymbolTableRecord
100
AcDbLayerTableRecord
  2
0-7_金物
 70
     0
 62
     7
  6
Continuous
370
    -3
390
F
347
46
  0
LAYER
  5
7E
330
2
100
AcDbSymbolTableRecord
100
AcDbLayerTableRecord
  2
0-8_戸当
 70
     0
 62
     7
  6
Continuous
370
    -3
390
F
347
46
  0
LAYER
  5
7F
330
2
100
AcDbSymbolTableRecord
100
AcDbLayerTableRecord
  2
0-B_寸法
 70
     0
 62
     7
  6
Continuous
370
    -3
390
F
347
46
  0
LAYER
  5
80
330
2
100
AcDbSymbolTableRecord
100
AcDbLayerTableRecord
  2
0-0_補助線
 70
     0
 62
     7
  6
Continuous
370
    -3
390
F
347
46
  0
LAYER
  5
81
330
2
100
AcDbSymbolTableRecord
100
AcDbLayerTableRecord
  2
1-B_寸法
 70
     0
 62
     7
  6
Continuous
370
    -3
390
F
347
46
  0
LAYER
  5
82
330
2
100
AcDbSymbolTableRecord
100
AcDbLayerTableRecord
  2
1-4_枠
 70
     0
 62
     7
  6
Continuous
370
    -3
390
F
347
46
  0
ENDTAB
  0
TABLE
  2
STYLE
  5
3
330
0
100
AcDbSymbolTable
 70
     3
  0
STYLE
  5
11
330
3
100
AcDbSymbolTableRecord
100
AcDbTextStyleTableRecord
  2
Standard
 70
     0
 40
0.0
 41
1.0
 50
0.0
 71
     0
 42
2.5
  3
txt
  4

  0
STYLE
  5
6E
330
3
100
AcDbSymbolTableRecord
100
AcDbTextStyleTableRecord
  2
HGP明朝B
 70
     0
 40
1.0
 41
1.0
 50
0.0
 71
     0
 42
2.5
  3

  4

1001
ACAD
1000
HGPMinchoB
1071
    32786
  0
STYLE
  5
6F
330
3
100
AcDbSymbolTableRecord
100
AcDbTextStyleTableRecord
  2
ＭＳ ゴシック
 70
     0
 40
1.0
 41
1.0
 50
0.0
 71
     0
 42
2.5
  3

  4

1001
ACAD
1000
MS Gothic
1071
    32817
  0
ENDTAB
  0
TABLE
  2
VIEW
  5
6
330
0
100
AcDbSymbolTable
 70
     0
  0
ENDTAB
  0
TABLE
  2
UCS
  5
7
330
0
100
AcDbSymbolTable
 70
     0
  0
ENDTAB
  0
TABLE
  2
APPID
  5
9
330
0
100
AcDbSymbolTable
 70
     1
  0
APPID
  5
12
330
9
100
AcDbSymbolTableRecord
100
AcDbRegAppTableRecord
  2
ACAD
 70
     0
  0
ENDTAB
  0
TABLE
  2
DIMSTYLE
  5
A
330
0
100
AcDbSymbolTable
 70
     1
100
AcDbDimStyleTable
  0
DIMSTYLE
105
27
330
A
100
AcDbSymbolTableRecord
100
AcDbDimStyleTableRecord
  2
ISO-25
 70
     0
 41
2.5
 42
0.625
 43
3.75
 44
1.25
 73
     0
 74
     0
 77
     1
 78
     8
140
2.5
141
2.5
143
0.03937007874016
147
0.625
171
     3
172
     1
178
     0
271
     2
272
     2
274
     3
278
    44
283
     0
284
     8
340
11
  0
ENDTAB
  0
TABLE
  2
BLOCK_RECORD
  5
1
330
0
100
AcDbSymbolTable
 70
     1
  0
BLOCK_RECORD
  5
1F
330
1
100
AcDbSymbolTableRecord
100
AcDbBlockTableRecord
  2
*Model_Space
340
22
 70
     0
280
     1
281
     0
  0
BLOCK_RECORD
  5
1B
330
1
100
AcDbSymbolTableRecord
100
AcDbBlockTableRecord
  2
*Paper_Space
340
1E
 70
     0
280
     1
281
     0
  0
BLOCK_RECORD
  5
23
330
1
100
AcDbSymbolTableRecord
100
AcDbBlockTableRecord
  2
*Paper_Space0
340
26
 70
     0
280
     1
281
     0
  0
ENDTAB
  0
ENDSEC
  0
SECTION
  2
BLOCKS
  0
BLOCK
  5
20
330
1F
100
AcDbEntity
  8
0
100
AcDbBlockBegin
  2
*Model_Space
 70
     0
 10
0.0
 20
0.0
 30
0.0
  3
*Model_Space
  1

  0
ENDBLK
  5
21
330
1F
100
AcDbEntity
  8
0
100
AcDbBlockEnd
  0
BLOCK
  5
1C
330
1B
100
AcDbEntity
 67
     1
  8
0
100
AcDbBlockBegin
  2
*Paper_Space
 70
     0
 10
0.0
 20
0.0
 30
0.0
  3
*Paper_Space
  1

  0
ENDBLK
  5
1D
330
1B
100
AcDbEntity
 67
     1
  8
0
100
AcDbBlockEnd
  0
BLOCK
  5
24
330
23
100
AcDbEntity
  8
0
100
AcDbBlockBegin
  2
*Paper_Space0
 70
     0
 10
0.0
 20
0.0
 30
0.0
  3
*Paper_Space0
  1

  0
ENDBLK
  5
25
330
23
100
AcDbEntity
  8
0
100
AcDbBlockEnd
  0
ENDSEC
  0
SECTION
  2
ENTITIES
  0
LINE
  5
83
330
1F
100
AcDbEntity
  8
F-0_補助線
  6
JWW_HOJO
 62
   120
370
     5
100
AcDbLine
 10
-6140.081333436773
 20
-4455.0
 30
0.0
 11
-6140.081333436773
 21
4424.999604096284
 31
0.0
  0
LINE
  5
84
330
1F
100
AcDbEntity
  8
F-0_補助線
  6
JWW_HOJO
 62
   120
370
     5
100
AcDbLine
 10
-6140.081333436773
 20
4424.999604096284
 30
0.0
 11
6159.917676803936
 21
4424.999604096284
 31
0.0
  0
LINE
  5
85
330
1F
100
AcDbEntity
  8
F-0_補助線
  6
JWW_HOJO
 62
   120
370
     5
100
AcDbLine
 10
6159.917676803936
 20
4424.999604096284
 30
0.0
 11
6159.917676803936
 21
-4455.0
 31
0.0
  0
LINE
  5
86
330
1F
100
AcDbEntity
  8
F-0_補助線
  6
JWW_HOJO
 62
   120
370
     5
100
AcDbLine
 10
6159.917676803936
 20
-4455.0
 30
0.0
 11
-6140.081333436773
 21
-4455.0
 31
0.0
  0
LINE
  5
87
330
1F
100
AcDbEntity
  8
F-0_補助線
  6
JWW_HOJO
 62
     7
370
     9
100
AcDbLine
 10
1009.918254163523
 20
-3795.000003092998
 30
0.0
 11
1009.918254163523
 21
-4195.000008247994
 31
0.0
  0
LINE
  5
88
330
1F
100
AcDbEntity
  8
F-0_補助線
  6
JWW_HOJO
 62
     7
370
     9
100
AcDbLine
 10
509.9185840832865
 20
-3795.000003092998
 30
0.0
 11
509.9185840832865
 21
-4195.000008247994
 31
0.0
  0
LINE
  5
89
330
1F
100
AcDbEntity
  8
F-1_枠
  6
Continuous
 62
   200
370
    20
100
AcDbLine
 10
5859.917429364114
 20
4174.999769056166
 30
0.0
 11
5859.917429364114
 21
-4205.000164959882
 31
0.0
  0
LINE
  5
8A
330
1F
100
AcDbEntity
  8
F-1_枠
  6
Continuous
 62
   200
370
    20
100
AcDbLine
 10
-5840.081317971782
 20
4174.999769056166
 30
0.0
 11
-5840.081317971782
 21
-4205.000164959882
 31
0.0
  0
LINE
  5
8B
330
1F
100
AcDbEntity
  8
F-1_枠
  6
Continuous
 62
   200
370
    20
100
AcDbLine
 10
5859.917429364114
 20
-4205.000002577498
 30
0.0
 11
-5840.081085996952
 21
-4205.000002577498
 31
0.0
  0
LINE
  5
8C
330
1F
100
AcDbEntity
  8
F-1_枠
  6
Continuous
 62
   200
370
    20
100
AcDbLine
 10
-5830.081323642279
 20
4174.999769056166
 30
0.0
 11
-5830.081323642279
 21
-4205.000164959882
 31
0.0
  0
LINE
  5
8D
330
1F
100
AcDbEntity
  8
F-1_枠
  6
Continuous
 62
   200
370
    20
100
AcDbLine
 10
-5835.081309208291
 20
4174.999769056166
 30
0.0
 11
-5835.081309208291
 21
-4205.000164959882
 31
0.0
  0
LINE
  5
8E
330
1F
100
AcDbEntity
  8
F-1_枠
  6
Continuous
 62
   200
370
    20
100
AcDbLine
 10
5854.917165428304
 20
4174.999769056166
 30
0.0
 11
5854.917165428304
 21
-4205.000164959882
 31
0.0
  0
LINE
  5
8F
330
1F
100
AcDbEntity
  8
F-1_枠
  6
Continuous
 62
   200
370
    20
100
AcDbLine
 10
5849.917643811961
 20
4174.999769056166
 30
0.0
 11
5849.917643811961
 21
-4205.000164959882
 31
0.0
  0
LINE
  5
90
330
1F
100
AcDbEntity
  8
F-1_枠
  6
Continuous
 62
   200
370
    20
100
AcDbLine
 10
5859.917429364114
 20
-4199.999993814004
 30
0.0
 11
-5840.081085996952
 21
-4199.999993814004
 31
0.0
  0
LINE
  5
91
330
1F
100
AcDbEntity
  8
F-1_枠
  6
Continuous
 62
   200
370
    20
100
AcDbLine
 10
5859.917429364114
 20
-4195.000008247994
 30
0.0
 11
-5840.081085996952
 21
-4195.000008247994
 31
0.0
  0
LINE
  5
92
330
1F
100
AcDbEntity
  8
F-1_枠
  6
Continuous
 62
   200
370
    20
100
AcDbLine
 10
4349.917891251784
 20
-3795.000003092998
 30
0.0
 11
4349.917891251784
 21
-4195.000008247994
 31
0.0
  0
LINE
  5
93
330
1F
100
AcDbEntity
  8
F-1_枠
  6
Continuous
 62
   200
370
    20
100
AcDbLine
 10
2849.917396372139
 20
-3795.000003092998
 30
0.0
 11
2849.917396372139
 21
-4195.000008247994
 31
0.0
  0
LINE
  5
94
330
1F
100
AcDbEntity
  8
F-1_枠
  6
Continuous
 62
   200
370
    20
100
AcDbLine
 10
9.918542843316231
 20
-3795.000003092998
 30
0.0
 11
9.918542843316231
 21
-4195.000008247994
 31
0.0
  0
LINE
  5
95
330
1F
100
AcDbEntity
  8
F-1_枠
  6
Continuous
 62
   200
370
    20
100
AcDbLine
 10
9.918542843316231
 20
-3994.999936078046
 30
0.0
 11
5849.917643811961
 21
-3995.005364289155
 31
0.0
  0
LINE
  5
96
330
1F
100
AcDbEntity
  8
F-1_枠
  6
Continuous
 62
   200
370
    20
100
AcDbLine
 10
-5840.081085996952
 20
4174.999769056166
 30
0.0
 11
5859.917429364114
 21
4174.999769056166
 31
0.0
  0
LINE
  5
97
330
1F
100
AcDbEntity
  8
F-1_枠
  6
Continuous
 62
   200
370
    20
100
AcDbLine
 10
-5840.081085996952
 20
4164.999983504013
 30
0.0
 11
5859.917429364114
 21
4164.999983504013
 31
0.0
  0
LINE
  5
98
330
1F
100
AcDbEntity
  8
F-1_枠
  6
Continuous
 62
   200
370
    20
100
AcDbLine
 10
-5840.081085996952
 20
4169.999505120355
 30
0.0
 11
5859.917429364114
 21
4169.999505120355
 31
0.0
  0
LINE
  5
99
330
1F
100
AcDbEntity
  8
F-0_補助線
  6
JWW_HOJO
 62
     7
370
     9
100
AcDbLine
 10
-5830.081323642279
 20
-3994.99993607839
 30
0.0
 11
9.918542843316231
 21
-3994.99993607839
 31
0.0
  0
LINE
  5
9A
330
1F
100
AcDbEntity
  8
F-0_補助線
  6
JWW_HOJO
 62
     7
370
     9
100
AcDbLine
 10
-5830.081323642279
 20
-3904.99993607839
 30
0.0
 11
9.918542843316231
 21
-3904.99993607839
 31
0.0
  0
LINE
  5
9B
330
1F
100
AcDbEntity
  8
F-0_補助線
  6
JWW_HOJO
 62
     7
370
     9
100
AcDbLine
 10
-5830.081323642279
 20
-4084.99993607839
 30
0.0
 11
9.918542843316231
 21
-4084.99993607839
 31
0.0
  0
LINE
  5
9C
330
1F
100
AcDbEntity
  8
F-0_補助線
  6
JWW_HOJO
 62
     7
370
     9
100
AcDbLine
 10
9.918408067688347
 20
-4139.999739777983
 30
0.0
 11
5849.917509036332
 21
-4140.005167989091
 31
0.0
  0
LINE
  5
9D
330
1F
100
AcDbEntity
  8
F-0_補助線
  6
JWW_HOJO
 62
     7
370
     9
100
AcDbLine
 10
9.918491721639953
 20
-4049.999739778022
 30
0.0
 11
5849.917592690284
 21
-4050.005167989131
 31
0.0
  0
LINE
  5
9E
330
1F
100
AcDbEntity
  8
F-0_補助線
  6
JWW_HOJO
 62
     7
370
     9
100
AcDbLine
 10
9.918593965360003
 20
-3939.99973721807
 30
0.0
 11
5849.917694934004
 21
-3940.005165429179
 31
0.0
  0
LINE
  5
9F
330
1F
100
AcDbEntity
  8
F-0_補助線
  6
JWW_HOJO
 62
     7
370
     9
100
AcDbLine
 10
9.918677619311609
 20
-3849.999737218109
 30
0.0
 11
5849.917778587956
 21
-3850.005165429218
 31
0.0
  0
LINE
  5
A0
330
1F
100
AcDbEntity
  8
F-0_補助線
  6
JWW_HOJO
 62
     7
370
     9
100
AcDbLine
 10
2939.917396372139
 20
-3795.000003092998
 30
0.0
 11
2939.917396372139
 21
-4195.000008247994
 31
0.0
  0
LINE
  5
A1
330
1F
100
AcDbEntity
  8
F-0_補助線
  6
JWW_HOJO
 62
     7
370
     9
100
AcDbLine
 10
99.91854284331623
 20
-3795.000003092998
 30
0.0
 11
99.91854284331623
 21
-4195.000008247994
 31
0.0
  0
LINE
  5
A2
330
1F
100
AcDbEntity
  8
F-0_補助線
  6
JWW_HOJO
 62
     7
370
     9
100
AcDbLine
 10
4439.917891251784
 20
-3795.000003092998
 30
0.0
 11
4439.917891251784
 21
-4195.000008247994
 31
0.0
  0
LINE
  5
A3
330
1F
100
AcDbEntity
  8
F-1_枠
  6
Continuous
 62
   200
370
    20
100
AcDbLine
 10
5859.917429364114
 20
-3795.000003092998
 30
0.0
 11
-5840.081085996952
 21
-3795.000003092998
 31
0.0
  0
LINE
  5
A4
330
1F
100
AcDbEntity
  8
F-1_枠
  6
Continuous
 62
   200
370
    20
100
AcDbLine
 10
5859.917429364114
 20
-3790.000017526987
 30
0.0
 11
-5840.081085996952
 21
-3790.000017526987
 31
0.0
  0
LINE
  5
A5
330
1F
100
AcDbEntity
  8
F-0_補助線
  6
JWW_HOJO
 62
     7
370
     9
100
AcDbLine
 10
-5087.628710189611
 20
-3795.000003092999
 30
0.0
 11
-5087.628710189611
 21
-4205.000164959882
 31
0.0
  0
LINE
  5
A6
330
1F
100
AcDbEntity
  8
F-0_補助線
  6
JWW_HOJO
 62
     7
370
     9
100
AcDbLine
 10
-50.08145715668377
 20
-3795.000003092998
 30
0.0
 11
-50.08145715668377
 21
-4195.000008247994
 31
0.0
  0
TEXT
  5
A7
330
1F
100
AcDbEntity
  8
F-0_補助線
  6
Continuous
 62
     7
370
     0
100
AcDbText
 10
509.9185840832865
 20
-3928.097291872503
 30
0.0
 40
66.06
  1
ＳＯＦＴＡＲＴ
 41
1.077453515576899
  7
HGP明朝B
100
AcDbText
  0
TEXT
  5
A8
330
1F
100
AcDbEntity
  8
F-0_補助線
  6
Continuous
 62
     7
370
     0
100
AcDbText
 10
1110.209427605311
 20
-3928.097291872503
 30
0.0
 40
68.58
  1
建具納まり図
 41
1.138888888888889
  7
ＭＳ ゴシック
100
AcDbText
  0
TEXT
  5
A9
330
1F
100
AcDbEntity
  8
F-A_文字
  6
Continuous
 62
     7
370
     0
100
AcDbText
 10
99.91854284331623
 20
-3871.539820871936
 30
0.0
 40
45.72
  1
図面名
  7
ＭＳ ゴシック
100
AcDbText
  0
TEXT
  5
AA
330
1F
100
AcDbEntity
  8
F-A_文字
  6
Continuous
 62
     7
370
     0
100
AcDbText
 10
2939.917396372139
 20
-3871.542460617774
 30
0.0
 40
45.72
  1
ＳＣＡＬＥ
  7
ＭＳ ゴシック
100
AcDbText
  0
TEXT
  5
AB
330
1F
100
AcDbEntity
  8
F-A_文字
  6
Continuous
 62
     7
370
     0
100
AcDbText
 10
4439.917891251784
 20
-3871.543854850754
 30
0.0
 40
45.72
  1
ＤＡＴＥ
  7
ＭＳ ゴシック
100
AcDbText
  0
TEXT
  5
AC
330
1F
100
AcDbEntity
  8
F-A_文字
  6
Continuous
 62
     7
370
     0
100
AcDbText
 10
2939.917396372139
 20
-4071.54246317786
 30
0.0
 40
45.72
  1
ＦＩＬＥ
  7
ＭＳ ゴシック
100
AcDbText
  0
TEXT
  5
AD
330
1F
100
AcDbEntity
  8
F-A_文字
  6
Continuous
 62
     7
370
     0
100
AcDbText
 10
4439.917891251784
 20
-4071.543857410839
 30
0.0
 40
45.72
  1
ＮＯ．
  7
ＭＳ ゴシック
100
AcDbText
  0
TEXT
  5
AE
330
1F
100
AcDbEntity
  8
F-A_文字
  6
Continuous
 62
     7
370
     0
100
AcDbText
 10
1394.917396372138
 20
-4080.540669266148
 30
0.0
 40
45.72
  1
株式
  7
ＭＳ ゴシック
100
AcDbText
  0
TEXT
  5
AF
330
1F
100
AcDbEntity
  8
F-A_文字
  6
Continuous
 62
     7
370
     0
100
AcDbText
 10
1604.917396372138
 20
-4138.082379523928
 30
0.0
 40
91.44
  1
ウッドワン・・・
 41
1.109375
  7
ＭＳ ゴシック
100
AcDbText
  0
TEXT
  5
B0
330
1F
100
AcDbEntity
  8
F-A_文字
  6
Continuous
 62
     7
370
     0
100
AcDbText
 10
1394.917396372138
 20
-4152.540669266186
 30
0.0
 40
45.72
  1
会社
  7
ＭＳ ゴシック
100
AcDbText
  0
TEXT
  5
B1
330
1F
100
AcDbEntity
  8
F-A_文字
  6
Continuous
 62
     7
370
     0
100
AcDbText
 10
5768.321977672939
 20
-4291.441419020919
 30
0.0
 40
68.58
  1
）
  7
ＭＳ ゴシック
100
AcDbText
  0
TEXT
  5
B2
330
1F
100
AcDbEntity
  8
F-A_文字
  6
Continuous
 62
     7
370
     0
100
AcDbText
 10
5350.114617405298
 20
-4292.835443869856
 30
0.0
 40
68.58
  1
,
  7
ＭＳ ゴシック
100
AcDbText
  0
TEXT
  5
B3
330
1F
100
AcDbEntity
  8
F-A_文字
  6
Continuous
 62
     7
370
     0
100
AcDbText
 10
5083.855928478601
 20
-4294.229467288283
 30
0.0
 40
68.58
  1
$y
 41
1.083333333333333
  7
ＭＳ ゴシック
100
AcDbText
  0
TEXT
  5
B4
330
1F
100
AcDbEntity
  8
F-A_文字
  6
Continuous
 62
     7
370
     0
100
AcDbText
 10
5238.592649517422
 20
-4294.229467288283
 30
0.0
 40
68.58
  1
$m
 41
1.083333333333333
  7
ＭＳ ゴシック
100
AcDbText
  0
TEXT
  5
B5
330
1F
100
AcDbEntity
  8
F-A_文字
  6
Continuous
 62
     7
370
     0
100
AcDbText
 10
5393.32938200033
 20
-4294.229467288283
 30
0.0
 40
68.58
  1
$d
 41
1.083333333333333
  7
ＭＳ ゴシック
100
AcDbText
  0
TEXT
  5
B6
330
1F
100
AcDbEntity
  8
F-A_文字
  6
Continuous
 62
     7
370
     0
100
AcDbText
 10
5548.066114483239
 20
-4294.229467288283
 30
0.0
 40
68.58
  1
印刷
 41
1.083333333333333
  7
ＭＳ ゴシック
100
AcDbText
  0
TEXT
  5
B7
330
1F
100
AcDbEntity
  8
F-A_文字
  6
Continuous
 62
     7
370
     0
100
AcDbText
 10
4943.952040816226
 20
-4295.623493567732
 30
0.0
 40
68.58
  1
（
  7
ＭＳ ゴシック
100
AcDbText
  0
TEXT
  5
B8
330
1F
100
AcDbEntity
  8
F-A_文字
  6
Continuous
 62
     7
370
     0
100
AcDbText
 10
5191.195810375571
 20
-4295.623493567732
 30
0.0
 40
68.58
  1
,
  7
ＭＳ ゴシック
100
AcDbText
  0
TEXT
  5
B9
330
1F
100
AcDbEntity
  8
F-A_文字
  6
Continuous
 62
     7
370
     9
100
AcDbText
 10
5096.167700144058
 20
-4127.314512699985
 30
0.0
 40
68.58
  1
01
 41
1.083333333333333
  7
ＭＳ ゴシック
100
AcDbText
  0
TEXT
  5
BA
330
1F
100
AcDbEntity
  8
F-A_文字
  6
Continuous
 62
     7
370
     0
100
AcDbText
 10
3569.917643811961
 20
-3927.313115907308
 30
0.0
 40
68.58
  1
1/5
 41
1.111111111111111
  7
ＭＳ ゴシック
100
AcDbText
  0
TEXT
  5
BB
330
1F
100
AcDbEntity
  8
F-A_文字
  6
Continuous
 62
     7
370
     0
100
AcDbText
 10
4938.667793092893
 20
-3919.814510139965
 30
0.0
 40
68.58
  1
18.08.01
 41
1.145833333333333
  7
ＭＳ ゴシック
100
AcDbText
  0
LINE
  5
BC
330
1F
100
AcDbEntity
  8
0-A_文字
  6
Continuous
 62
    92
370
    13
100
AcDbLine
 10
-5659.999495325861
 20
3730.000181455871
 30
0.0
 11
-5659.999495325861
 21
4000.000181455871
 31
0.0
  0
LINE
  5
BD
330
1F
100
AcDbEntity
  8
0-A_文字
  6
Continuous
 62
    92
370
    13
100
AcDbLine
 10
-5659.999495325861
 20
4000.000181455871
 30
0.0
 11
-2660.377981798576
 21
4000.000181455871
 31
0.0
  0
LINE
  5
BE
330
1F
100
AcDbEntity
  8
0-A_文字
  6
Continuous
 62
    92
370
    13
100
AcDbLine
 10
-2660.377981798576
 20
3730.000181455871
 30
0.0
 11
-2660.377981798576
 21
4000.000181455871
 31
0.0
  0
LINE
  5
BF
330
1F
100
AcDbEntity
  8
0-A_文字
  6
Continuous
 62
    92
370
    13
100
AcDbLine
 10
-5659.999495325861
 20
3730.000181455871
 30
0.0
 11
-2660.377981798576
 21
3730.000181455871
 31
0.0
  0
LINE
  5
C0
330
1F
100
AcDbEntity
  8
0-A_文字
  6
Continuous
 62
    92
370
    13
100
AcDbLine
 10
-2660.377981798576
 20
4000.000181455871
 30
0.0
 11
-2660.377981798576
 21
3730.000181455871
 31
0.0
  0
LINE
  5
C1
330
1F
100
AcDbEntity
  8
0-A_文字
  6
Continuous
 62
    92
370
    13
100
AcDbLine
 10
-2660.377981798576
 20
3730.000181455871
 30
0.0
 11
-2660.377981798576
 21
4000.000181455871
 31
0.0
  0
LINE
  5
C2
330
1F
100
AcDbEntity
  8
0-A_文字
  6
Continuous
 62
    92
370
    13
100
AcDbLine
 10
-2660.377981798576
 20
4000.000181455871
 30
0.0
 11
-1072.751502345729
 21
4000.000181455871
 31
0.0
  0
LINE
  5
C3
330
1F
100
AcDbEntity
  8
0-A_文字
  6
Continuous
 62
    92
370
    13
100
AcDbLine
 10
-1072.751502345729
 20
4000.000181455871
 30
0.0
 11
-1072.751502345729
 21
3730.000181455871
 31
0.0
  0
LINE
  5
C4
330
1F
100
AcDbEntity
  8
0-A_文字
  6
Continuous
 62
    92
370
    13
100
AcDbLine
 10
-2660.377981798576
 20
3730.000181455871
 30
0.0
 11
-1072.751502345729
 21
3730.000181455871
 31
0.0
  0
TEXT
  5
C5
330
1F
100
AcDbEntity
  8
0-A_文字
  6
Continuous
 62
    92
370
    13
100
AcDbText
 10
-2551.627981798575
 20
3800.380181455871
 30
0.0
 40
137.16
  1
ドア気密タイプ
 41
1.071428571428571
  7
ＭＳ ゴシック
100
AcDbText
  0
LINE
  5
C6
330
1F
100
AcDbEntity
  8
0-A_文字
  6
Continuous
 62
    92
370
    13
100
AcDbLine
 10
-2660.377981798576
 20
4000.000181455871
 30
0.0
 11
-2660.377981798576
 21
3730.000181455871
 31
0.0
  0
LINE
  5
C7
330
1F
100
AcDbEntity
  8
0-A_文字
  6
Continuous
 62
    92
370
    13
100
AcDbLine
 10
-1087.751502345729
 20
3985.000181455871
 30
0.0
 11
-1087.751502345729
 21
3745.000181455871
 31
0.0
  0
LINE
  5
C8
330
1F
100
AcDbEntity
  8
0-A_文字
  6
Continuous
 62
    92
370
    13
100
AcDbLine
 10
-2645.377981798576
 20
3745.000181455871
 30
0.0
 11
-1087.751502345729
 21
3745.000181455871
 31
0.0
  0
LINE
  5
C9
330
1F
100
AcDbEntity
  8
0-A_文字
  6
Continuous
 62
    92
370
    13
100
AcDbLine
 10
-2645.377981798576
 20
3985.000181455871
 30
0.0
 11
-1087.751502345729
 21
3985.000181455871
 31
0.0
  0
LINE
  5
CA
330
1F
100
AcDbEntity
  8
0-A_文字
  6
Continuous
 62
    92
370
    13
100
AcDbLine
 10
-2645.377981798576
 20
3985.000181455871
 30
0.0
 11
-2645.377981798576
 21
3745.000181455871
 31
0.0
  0
TEXT
  5
CB
330
1F
100
AcDbEntity
  8
0-A_文字
  6
Continuous
 62
    92
370
    13
100
AcDbText
 10
-5551.249495325861
 20
3800.380181455871
 30
0.0
 40
137.16
  1
シングルドア　下枠付[調整枠]
 41
1.080357142857143
  7
ＭＳ ゴシック
100
AcDbText
  0
TEXT
  5
CC
330
1F
100
AcDbEntity
  8
F-A_文字
  6
Continuous
 62
     7
370
     9
100
AcDbText
 10
3281.167643811961
 20
-4127.313118467413
 30
0.0
 40
68.58
  1
F02(X)-TXXXXKQe_S01
 41
1.157894736842105
  7
ＭＳ ゴシック
100
AcDbText
  0
TEXT
  5
CD
330
1F
100
AcDbEntity
  8
F-A_文字
  6
Continuous
 62
     7
370
     0
100
AcDbText
 10
-5080.081323642279
 20
-4027.30993607839
 30
0.0
 40
68.58
  1
ソフトアート　シングルドア　調整枠　気密　下枠付　ドアＨ共通　枠外Ｗ共通
 41
1.162037037037037
  7
ＭＳ ゴシック
100
AcDbText
  0
LINE
  5
CE
330
1F
100
AcDbEntity
  8
0-6_扉
  6
Continuous
 62
   200
370
    20
100
AcDbLine
 10
1989.038803120942
 20
2129.999683277028
 30
0.0
 11
78.91854284331743
 21
2129.999683277028
 31
0.0
  0
LINE
  5
CF
330
1F
100
AcDbEntity
  8
0-6_扉
  6
Continuous
 62
   200
370
    20
100
AcDbLine
 10
1989.038803120942
 20
2345.999683277028
 30
0.0
 11
78.91854284331743
 21
2345.999683277028
 31
0.0
  0
LINE
  5
D0
330
1F
100
AcDbEntity
  8
0-6_扉
  6
Continuous
 62
   200
370
    20
100
AcDbLine
 10
-41.08145715668257
 20
2129.999683277028
 30
0.0
 11
-1951.201717325969
 21
2129.999683277028
 31
0.0
  0
LINE
  5
D1
330
1F
100
AcDbEntity
  8
0-6_扉
  6
Continuous
 62
   200
370
    20
100
AcDbLine
 10
-41.08145715668257
 20
2345.999683277028
 30
0.0
 11
-1951.201717325969
 21
2345.999683277028
 31
0.0
  0
LINE
  5
D2
330
1F
100
AcDbEntity
  8
0-C_ハッチ
  6
Continuous
 62
   120
370
     5
100
AcDbLine
 10
2001.038803120943
 20
2474.01506494651
 30
0.0
 11
2021.699295022359
 21
2494.675556847925
 31
0.0
  0
LINE
  5
D3
330
1F
100
AcDbEntity
  8
0-4_枠
  6
Continuous
 62
    92
370
    13
100
AcDbLine
 10
2004.038803120942
 20
2516.875556847925
 30
0.0
 11
2004.038803120942
 21
2774.999683277028
 31
0.0
  0
LINE
  5
D4
330
1F
100
AcDbEntity
  8
0-4_枠
  6
Continuous
 62
    92
370
    13
100
AcDbLine
 10
2001.038803120942
 20
2516.875556847925
 30
0.0
 11
2001.038803120942
 21
2777.999683277027
 31
0.0
  0
LINE
  5
D5
330
1F
100
AcDbEntity
  8
0-1_通り芯
  6
JWW_CENTER1
 62
   120
370
     5
100
AcDbLine
 10
2475.038803120942
 20
2438.999683277028
 30
0.0
 11
-2455.201717519063
 21
2438.999683277028
 31
0.0
  0
LINE
  5
D6
330
1F
100
AcDbEntity
  8
0-3_仕上げ
  6
Continuous
 62
     7
370
     9
100
AcDbLine
 10
2475.038803012595
 20
2099.999683277028
 30
0.0
 11
2175.038803120942
 21
2099.999683277028
 31
0.0
  0
LINE
  5
D7
330
1F
100
AcDbEntity
  8
0-3_仕上げ
  6
Continuous
 62
     7
370
     9
100
AcDbLine
 10
2475.038803012595
 20
2777.999683277027
 30
0.0
 11
2175.038803120942
 21
2777.999683277027
 31
0.0
  0
LINE
  5
D8
330
1F
100
AcDbEntity
  8
0-6_扉
  6
Continuous
 62
   200
370
    20
100
AcDbLine
 10
1989.038803120942
 20
2345.999683277028
 30
0.0
 11
1989.038803120942
 21
2129.999683277028
 31
0.0
  0
LINE
  5
D9
330
1F
100
AcDbEntity
  8
0-C_ハッチ
  6
Continuous
 62
   120
370
     5
100
AcDbLine
 10
2004.038803120935
 20
2773.999913044848
 30
0.0
 11
2005.03857335312
 21
2774.999683277033
 31
0.0
  0
LINE
  5
DA
330
1F
100
AcDbEntity
  8
0-C_ハッチ
  6
Continuous
 62
   120
370
     5
100
AcDbLine
 10
2004.038803120937
 20
2714.602943425147
 30
0.0
 11
2061.03880312094
 21
2771.60294342515
 31
0.0
  0
LINE
  5
DB
330
1F
100
AcDbEntity
  8
0-C_ハッチ
  6
Continuous
 62
   120
370
     5
100
AcDbLine
 10
2115.038803120955
 20
2766.205973805518
 30
0.0
 11
2126.832512592453
 21
2777.999683277017
 31
0.0
  0
LINE
  5
DC
330
1F
100
AcDbEntity
  8
0-C_ハッチ
  6
Continuous
 62
   120
370
     5
100
AcDbLine
 10
2004.038803120942
 20
2655.205973805505
 30
0.0
 11
2066.832512592443
 21
2717.999683277007
 31
0.0
  0
LINE
  5
DD
330
1F
100
AcDbEntity
  8
0-C_ハッチ
  6
Continuous
 62
   120
370
     5
100
AcDbLine
 10
2004.038803120947
 20
2595.809004185863
 30
0.0
 11
2145.03880312095
 21
2736.809004185865
 31
0.0
  0
LINE
  5
DE
330
1F
100
AcDbEntity
  8
0-C_ハッチ
  6
Continuous
 62
   120
370
     5
100
AcDbLine
 10
2004.038803120932
 20
2536.412034566145
 30
0.0
 11
2145.038803120935
 21
2677.412034566149
 31
0.0
  0
LINE
  5
DF
330
1F
100
AcDbEntity
  8
0-C_ハッチ
  6
Continuous
 62
   120
370
     5
100
AcDbLine
 10
2001.03880312095
 20
2414.618095326815
 30
0.0
 11
2145.038803120941
 21
2558.618095326805
 31
0.0
  0
LINE
  5
E0
330
1F
100
AcDbEntity
  8
0-C_ハッチ
  6
Continuous
 62
   120
370
     5
100
AcDbLine
 10
2004.038803120942
 20
2298.824156087457
 30
0.0
 11
2145.038803120938
 21
2439.824156087453
 31
0.0
  0
LINE
  5
E1
330
1F
100
AcDbEntity
  8
0-C_ハッチ
  6
Continuous
 62
   120
370
     5
100
AcDbLine
 10
2004.038803120932
 20
2239.427186467801
 30
0.0
 11
2145.038803120935
 21
2380.427186467803
 31
0.0
  0
LINE
  5
E2
330
1F
100
AcDbEntity
  8
0-C_ハッチ
  6
Continuous
 62
   120
370
     5
100
AcDbLine
 10
2004.038803120944
 20
2180.030216848165
 30
0.0
 11
2145.038803120928
 21
2321.030216848149
 31
0.0
  0
LINE
  5
E3
330
1F
100
AcDbEntity
  8
0-C_ハッチ
  6
Continuous
 62
   120
370
     5
100
AcDbLine
 10
2004.03880312094
 20
2120.63324722846
 30
0.0
 11
2145.038803120938
 21
2261.633247228458
 31
0.0
  0
LINE
  5
E4
330
1F
100
AcDbEntity
  8
0-C_ハッチ
  6
Continuous
 62
   120
370
     5
100
AcDbLine
 10
2102.802208789157
 20
2159.999683277029
 30
0.0
 11
2145.038803120931
 21
2202.236277608802
 31
0.0
  0
LINE
  5
E5
330
1F
100
AcDbEntity
  8
0-C_ハッチ
  6
Continuous
 62
   120
370
     5
100
AcDbLine
 10
2045.802208789148
 20
2102.99968327702
 30
0.0
 11
2061.038803120949
 21
2118.236277608821
 31
0.0
  0
LINE
  5
E6
330
1F
100
AcDbEntity
  8
0-C_ハッチ
  6
Continuous
 62
   120
370
     5
100
AcDbLine
 10
2115.038803120921
 20
2112.839307989092
 30
0.0
 11
2145.03880312093
 21
2142.839307989099
 31
0.0
  0
LINE
  5
E7
330
1F
100
AcDbEntity
  8
0-4_枠
  6
Continuous
 62
    92
370
    13
100
AcDbLine
 10
2145.038803120941
 20
2099.999683277028
 30
0.0
 11
2115.038803120942
 21
2099.999683277028
 31
0.0
  0
LINE
  5
E8
330
1F
100
AcDbEntity
  8
0-4_枠
  6
Continuous
 62
    92
370
    13
100
AcDbLine
 10
2115.038803120942
 20
2159.999683277028
 30
0.0
 11
2115.038803120942
 21
2099.999683277028
 31
0.0
  0
LINE
  5
E9
330
1F
100
AcDbEntity
  8
0-4_枠
  6
Continuous
 62
    92
370
    13
100
AcDbLine
 10
2115.038803120942
 20
2159.999683277028
 30
0.0
 11
2061.038803120942
 21
2159.999683277028
 31
0.0
  0
LINE
  5
EA
330
1F
100
AcDbEntity
  8
0-4_枠
  6
Continuous
 62
    92
370
    13
100
AcDbLine
 10
2061.038803120942
 20
2159.999683277028
 30
0.0
 11
2061.038803120942
 21
2099.999683277028
 31
0.0
  0
LINE
  5
EB
330
1F
100
AcDbEntity
  8
0-4_枠
  6
Continuous
 62
    92
370
    13
100
AcDbLine
 10
2145.038803120941
 20
2777.999683277027
 30
0.0
 11
2115.038803120942
 21
2777.999683277027
 31
0.0
  0
LINE
  5
EC
330
1F
100
AcDbEntity
  8
0-4_枠
  6
Continuous
 62
    92
370
    13
100
AcDbLine
 10
2115.038803120942
 20
2717.999683277027
 30
0.0
 11
2115.038803120942
 21
2777.999683277027
 31
0.0
  0
LINE
  5
ED
330
1F
100
AcDbEntity
  8
0-4_枠
  6
Continuous
 62
    92
370
    13
100
AcDbLine
 10
2115.038803120942
 20
2717.999683277027
 30
0.0
 11
2061.038803120942
 21
2717.999683277027
 31
0.0
  0
LINE
  5
EE
330
1F
100
AcDbEntity
  8
0-4_枠
  6
Continuous
 62
    92
370
    13
100
AcDbLine
 10
2061.038803120942
 20
2717.999683277027
 30
0.0
 11
2061.038803120942
 21
2777.999683277027
 31
0.0
  0
LINE
  5
EF
330
1F
100
AcDbEntity
  8
0-4_枠
  6
Continuous
 62
    92
370
    13
100
AcDbLine
 10
2061.038803120942
 20
2777.999683277027
 30
0.0
 11
2001.038803120942
 21
2777.999683277027
 31
0.0
  0
LINE
  5
F0
330
1F
100
AcDbEntity
  8
0-4_枠
  6
Continuous
 62
    92
370
    13
100
AcDbLine
 10
2061.038629913065
 20
2102.999683277027
 30
0.0
 11
2004.038803120942
 21
2102.999683277027
 31
0.0
  0
LINE
  5
F1
330
1F
100
AcDbEntity
  8
0-4_枠
  6
Continuous
 62
    92
370
    13
100
AcDbLine
 10
2061.038629913065
 20
2099.999683277028
 30
0.0
 11
2001.038803120942
 21
2099.999683277028
 31
0.0
  0
LINE
  5
F2
330
1F
100
AcDbEntity
  8
0-4_枠
  6
Continuous
 62
    92
370
    13
100
AcDbLine
 10
2061.038629913065
 20
2774.999683277028
 30
0.0
 11
2004.038803120942
 21
2774.999683277028
 31
0.0
  0
LINE
  5
F3
330
1F
100
AcDbEntity
  8
0-3_仕上げ
  6
Continuous
 62
     7
370
     9
100
AcDbLine
 10
2175.038803120942
 20
2777.999683277027
 30
0.0
 11
2175.038803120942
 21
2099.999683277028
 31
0.0
  0
LINE
  5
F4
330
1F
100
AcDbEntity
  8
0-4_枠
  6
Continuous
 62
    92
370
    13
100
AcDbLine
 10
2145.038803120941
 20
2777.999683277027
 30
0.0
 11
2145.038803120941
 21
2099.999683277028
 31
0.0
  0
LINE
  5
F5
330
1F
100
AcDbEntity
  8
0-7_金物
  6
Continuous
 62
     7
370
     9
100
AcDbLine
 10
2148.03841711482
 20
2384.999653584247
 30
0.0
 11
2145.038803120941
 21
2384.999653584247
 31
0.0
  0
LINE
  5
F6
330
1F
100
AcDbEntity
  8
0-7_金物
  6
Continuous
 62
     7
370
     9
100
AcDbLine
 10
2148.03841711482
 20
2492.999712969806
 30
0.0
 11
2145.038803120941
 21
2492.999712969806
 31
0.0
  0
LINE
  5
F7
330
1F
100
AcDbEntity
  8
0-7_金物
  6
Continuous
 62
     7
370
     9
100
AcDbLine
 10
2175.038803120942
 20
2349.000128668707
 30
0.0
 11
2160.038382473245
 21
2349.000128668707
 31
0.0
  0
LINE
  5
F8
330
1F
100
AcDbEntity
  8
0-7_金物
  6
Continuous
 62
     7
370
     9
100
AcDbLine
 10
2175.038803120942
 20
2528.999980204815
 30
0.0
 11
2160.038382473245
 21
2528.999980204815
 31
0.0
  0
LINE
  5
F9
330
1F
100
AcDbEntity
  8
0-7_金物
  6
Continuous
 62
     7
370
     9
100
AcDbLine
 10
2148.03841711482
 20
2498.999881228884
 30
0.0
 11
2148.03841711482
 21
2379.000227644638
 31
0.0
  0
LINE
  5
FA
330
1F
100
AcDbEntity
  8
0-7_金物
  6
Continuous
 62
     7
370
     9
100
AcDbLine
 10
2160.038382473245
 20
2379.000227644638
 30
0.0
 11
2148.03841711482
 21
2379.000227644638
 31
0.0
  0
LINE
  5
FB
330
1F
100
AcDbEntity
  8
0-7_金物
  6
Continuous
 62
     7
370
     9
100
AcDbLine
 10
2160.038382473245
 20
2498.999881228884
 30
0.0
 11
2148.03841711482
 21
2498.999881228884
 31
0.0
  0
LINE
  5
FC
330
1F
100
AcDbEntity
  8
0-7_金物
  6
Continuous
 62
     7
370
     9
100
AcDbLine
 10
2175.038803120942
 20
2528.999980204815
 30
0.0
 11
2175.038803120942
 21
2349.000128668707
 31
0.0
  0
LINE
  5
FD
330
1F
100
AcDbEntity
  8
0-7_金物
  6
Continuous
 62
     7
370
     9
100
AcDbLine
 10
2160.038382473245
 20
2528.999980204815
 30
0.0
 11
2160.038382473245
 21
2349.000128668707
 31
0.0
  0
LINE
  5
FE
330
1F
100
AcDbEntity
  8
0-4_枠
  6
Continuous
 62
    92
370
    13
100
AcDbLine
 10
2004.038803120942
 20
2360.999969379322
 30
0.0
 11
2004.038803120942
 21
2102.999683277027
 31
0.0
  0
LINE
  5
FF
330
1F
100
AcDbEntity
  8
0-4_枠
  6
Continuous
 62
    92
370
    13
100
AcDbLine
 10
2001.038803120942
 20
2360.999969379322
 30
0.0
 11
2001.038803120942
 21
2099.999683277028
 31
0.0
  0
LINE
  5
100
330
1F
100
AcDbEntity
  8
0-C_ハッチ
  6
Continuous
 62
   120
370
     5
100
AcDbLine
 10
2029.017453066083
 20
2383.1997756523
 30
0.0
 11
2145.038803120938
 21
2499.221125707156
 31
0.0
  0
LINE
  5
101
330
1F
100
AcDbEntity
  8
0-C_ハッチ
  6
Continuous
 62
   120
370
     5
100
AcDbLine
 10
2041.932609764993
 20
2514.908871590559
 30
0.0
 11
2145.038803120937
 21
2618.015064946504
 31
0.0
  0
ARC
  5
102
330
1F
100
AcDbEntity
  8
0-8_戸当
  6
Continuous
 62
     7
370
     9
100
AcDbCircle
 10
1984.238803120941
 20
2512.975556847924
 30
0.0
 40
1.8
100
AcDbArc
 50
0.0
 51
106.7900255983358
  0
LINE
  5
103
330
1F
100
AcDbEntity
  8
0-8_戸当
  6
Continuous
 62
     7
370
     9
100
AcDbLine
 10
1983.718845875242
 20
2514.698822486949
 30
0.0
 11
1973.411195091865
 21
2511.859781800104
 31
0.0
  0
LINE
  5
104
330
1F
100
AcDbEntity
  8
0-8_戸当
  6
Continuous
 62
     7
370
     9
100
AcDbLine
 10
1986.038803120941
 20
2512.975556847924
 30
0.0
 11
1986.038803120941
 21
2511.475556847925
 31
0.0
  0
LINE
  5
105
330
1F
100
AcDbEntity
  8
0-8_戸当
  6
Continuous
 62
     7
370
     9
100
AcDbLine
 10
2000.427933331747
 20
2520.624272517464
 30
0.0
 11
1989.027933331747
 21
2511.924272517464
 31
0.0
  0
ARC
  5
106
330
1F
100
AcDbEntity
  8
0-8_戸当
  6
Continuous
 62
     7
370
     9
100
AcDbCircle
 10
1987.838803120941
 20
2513.275556847925
 30
0.0
 40
1.8
100
AcDbArc
 50
180.0
 51
311.3477772196935
  0
LINE
  5
107
330
1F
100
AcDbEntity
  8
0-8_戸当
  6
Continuous
 62
     7
370
     9
100
AcDbLine
 10
1986.038803120941
 20
2513.275556847925
 30
0.0
 11
1986.038803120941
 21
2514.775556847924
 31
0.0
  0
LINE
  5
108
330
1F
100
AcDbEntity
  8
0-8_戸当
  6
Continuous
 62
     7
370
     9
100
AcDbLine
 10
1974.038803120942
 20
2377.073032601429
 30
0.0
 11
1974.038803120942
 21
2376.775556847925
 31
0.0
  0
LINE
  5
109
330
1F
100
AcDbEntity
  8
0-8_戸当
  6
Continuous
 62
     7
370
     9
100
AcDbLine
 10
1986.038803120942
 20
2371.975556847924
 30
0.0
 11
1978.818418574725
 21
2379.488186599967
 31
0.0
  0
ARC
  5
10A
330
1F
100
AcDbEntity
  8
0-8_戸当
  6
Continuous
 62
     7
370
     9
100
AcDbCircle
 10
1977.038803120942
 20
2377.073032601429
 30
0.0
 40
3.0
100
AcDbArc
 50
53.61521310602235
 51
180.0
  0
LINE
  5
10B
330
1F
100
AcDbEntity
  8
0-8_戸当
  6
Continuous
 62
     7
370
     9
100
AcDbLine
 10
1992.638803120942
 20
2358.775556847924
 30
0.0
 11
1992.638803120942
 21
2373.775556847924
 31
0.0
  0
LINE
  5
10C
330
1F
100
AcDbEntity
  8
0-8_戸当
  6
Continuous
 62
     7
370
     9
100
AcDbLine
 10
2028.038803120942
 20
2367.775556847924
 30
0.0
 11
2028.038803120942
 21
2360.875556847924
 31
0.0
  0
LINE
  5
10D
330
1F
100
AcDbEntity
  8
0-8_戸当
  6
Continuous
 62
     7
370
     9
100
AcDbLine
 10
2028.038803120942
 20
2381.275556847924
 30
0.0
 11
2028.038803120942
 21
2376.775556847925
 31
0.0
  0
LINE
  5
10E
330
1F
100
AcDbEntity
  8
0-8_戸当
  6
Continuous
 62
     7
370
     9
100
AcDbLine
 10
2028.038803120942
 20
2376.775556847925
 30
0.0
 11
2001.038803120942
 21
2376.775556847925
 31
0.0
  0
LINE
  5
10F
330
1F
100
AcDbEntity
  8
0-8_戸当
  6
Continuous
 62
     7
370
     9
100
AcDbLine
 10
2028.038803120942
 20
2381.275556847924
 30
0.0
 11
2046.038803120942
 21
2372.275556847924
 31
0.0
  0
LINE
  5
110
330
1F
100
AcDbEntity
  8
0-8_戸当
  6
Continuous
 62
     7
370
     9
100
AcDbLine
 10
2046.038803120942
 20
2372.275556847924
 30
0.0
 11
2028.038803120942
 21
2360.875556847924
 31
0.0
  0
LINE
  5
111
330
1F
100
AcDbEntity
  8
0-8_戸当
  6
Continuous
 62
     7
370
     9
100
AcDbLine
 10
2001.038803120942
 20
2376.775556847925
 30
0.0
 11
2001.038803120941
 21
2500.975556847925
 31
0.0
  0
LINE
  5
112
330
1F
100
AcDbEntity
  8
0-8_戸当
  6
Continuous
 62
     7
370
     9
100
AcDbLine
 10
1996.838803120942
 20
2367.775556847924
 30
0.0
 11
2028.038803120942
 21
2367.775556847924
 31
0.0
  0
LINE
  5
113
330
1F
100
AcDbEntity
  8
0-8_戸当
  6
Continuous
 62
     7
370
     9
100
AcDbLine
 10
1996.838803120942
 20
2367.775556847924
 30
0.0
 11
1996.838803120942
 21
2373.775556847924
 31
0.0
  0
LINE
  5
114
330
1F
100
AcDbEntity
  8
0-8_戸当
  6
Continuous
 62
     7
370
     9
100
AcDbLine
 10
1996.838803120942
 20
2373.775556847924
 30
0.0
 11
1992.038803120942
 21
2373.775556847924
 31
0.0
  0
LINE
  5
115
330
1F
100
AcDbEntity
  8
0-8_戸当
  6
Continuous
 62
     7
370
     9
100
AcDbLine
 10
1992.038803120942
 20
2373.775556847924
 30
0.0
 11
1992.038803120942
 21
2380.375556847925
 31
0.0
  0
LINE
  5
116
330
1F
100
AcDbEntity
  8
0-8_戸当
  6
Continuous
 62
     7
370
     9
100
AcDbLine
 10
1992.038803120942
 20
2380.375556847925
 30
0.0
 11
1978.016057054136
 21
2380.375556847925
 31
0.0
  0
ARC
  5
117
330
1F
100
AcDbEntity
  8
0-8_戸当
  6
Continuous
 62
     7
370
     9
100
AcDbCircle
 10
1978.016057054136
 20
2375.575556847924
 30
0.0
 40
4.800000000000001
100
AcDbArc
 50
90.0
 51
131.40962210927
  0
LINE
  5
118
330
1F
100
AcDbEntity
  8
0-8_戸当
  6
Continuous
 62
     7
370
     9
100
AcDbLine
 10
1967.934125818983
 20
2377.702394601151
 30
0.0
 11
1952.987741361466
 21
2382.366212203975
 31
0.0
  0
ARC
  5
119
330
1F
100
AcDbEntity
  8
0-8_戸当
  6
Continuous
 62
     7
370
     9
100
AcDbCircle
 10
1954.238803120942
 20
2386.375556847925
 30
0.0
 40
4.2
100
AcDbArc
 50
72.6701702617455
 51
252.6701720818837
  0
LINE
  5
11A
330
1F
100
AcDbEntity
  8
0-8_戸当
  6
Continuous
 62
     7
370
     9
100
AcDbLine
 10
1971.225957030032
 20
2385.474666259027
 30
0.0
 11
1955.48986513515
 21
2390.38490141239
 31
0.0
  0
ARC
  5
11B
330
1F
100
AcDbEntity
  8
0-8_戸当
  6
Continuous
 62
     7
370
     9
100
AcDbCircle
 10
1977.278803120942
 20
2381.575556847924
 30
0.0
 40
7.199999999999999
100
AcDbArc
 50
90.0
 51
147.2112623503457
  0
LINE
  5
11C
330
1F
100
AcDbEntity
  8
0-8_戸当
  6
Continuous
 62
     7
370
     9
100
AcDbLine
 10
1992.038803120942
 20
2391.775556847923
 30
0.0
 11
1992.038803120942
 21
2501.275556847926
 31
0.0
  0
LINE
  5
11D
330
1F
100
AcDbEntity
  8
0-8_戸当
  6
Continuous
 62
     7
370
     9
100
AcDbLine
 10
1989.038803120942
 20
2388.775556847924
 30
0.0
 11
1977.278803120942
 21
2388.775556847924
 31
0.0
  0
ARC
  5
11E
330
1F
100
AcDbEntity
  8
0-8_戸当
  6
Continuous
 62
     7
370
     9
100
AcDbCircle
 10
1989.038803120942
 20
2391.775556847923
 30
0.0
 40
3.0
100
AcDbArc
 50
270.0
 51
0.0
  0
ARC
  5
11F
330
1F
100
AcDbEntity
  8
0-8_戸当
  6
Continuous
 62
     7
370
     9
100
AcDbCircle
 10
1989.038803120942
 20
2501.275556847926
 30
0.0
 40
3.0
100
AcDbArc
 50
0.0
 51
90.0
  0
LINE
  5
120
330
1F
100
AcDbEntity
  8
0-8_戸当
  6
Continuous
 62
     7
370
     9
100
AcDbLine
 10
1989.038803120942
 20
2504.275556847925
 30
0.0
 11
1986.038803120941
 21
2504.275556847925
 31
0.0
  0
LINE
  5
121
330
1F
100
AcDbEntity
  8
0-8_戸当
  6
Continuous
 62
     7
370
     9
100
AcDbLine
 10
2046.038803120941
 20
2505.475556847925
 30
0.0
 11
2028.038803120941
 21
2516.875556847926
 31
0.0
  0
LINE
  5
122
330
1F
100
AcDbEntity
  8
0-8_戸当
  6
Continuous
 62
     7
370
     9
100
AcDbLine
 10
2028.038803120941
 20
2496.475556847925
 30
0.0
 11
2046.038803120941
 21
2505.475556847925
 31
0.0
  0
LINE
  5
123
330
1F
100
AcDbEntity
  8
0-8_戸当
  6
Continuous
 62
     7
370
     9
100
AcDbLine
 10
2028.038803120941
 20
2500.975556847925
 30
0.0
 11
2001.038803120941
 21
2500.975556847925
 31
0.0
  0
LINE
  5
124
330
1F
100
AcDbEntity
  8
0-8_戸当
  6
Continuous
 62
     7
370
     9
100
AcDbLine
 10
2028.038803120941
 20
2496.475556847925
 30
0.0
 11
2028.038803120941
 21
2500.975556847925
 31
0.0
  0
LINE
  5
125
330
1F
100
AcDbEntity
  8
0-8_戸当
  6
Continuous
 62
     7
370
     9
100
AcDbLine
 10
2028.038803120941
 20
2509.975556847925
 30
0.0
 11
2028.038803120941
 21
2516.875556847926
 31
0.0
  0
ARC
  5
126
330
1F
100
AcDbEntity
  8
0-8_戸当
  6
Continuous
 62
     7
370
     9
100
AcDbCircle
 10
1986.038803120941
 20
2510.275556847924
 30
0.0
 40
5.999999999999659
100
AcDbArc
 50
213.4773790501727
 51
270.0
  0
LINE
  5
127
330
1F
100
AcDbEntity
  8
0-8_戸当
  6
Continuous
 62
     7
370
     9
100
AcDbLine
 10
1981.034181116891
 20
2506.965910553141
 30
0.0
 11
1975.866411137509
 21
2505.091331891209
 31
0.0
  0
ARC
  5
128
330
1F
100
AcDbEntity
  8
0-8_戸当
  6
Continuous
 62
     7
370
     9
100
AcDbCircle
 10
1974.638803120941
 20
2508.475556847925
 30
0.0
 40
3.600000000000001
100
AcDbArc
 50
180.0
 51
293.3376526889709
  0
ARC
  5
129
330
1F
100
AcDbEntity
  8
0-8_戸当
  6
Continuous
 62
     7
370
     9
100
AcDbCircle
 10
1974.638803120941
 20
2508.475556847925
 30
0.0
 40
3.600000000000001
100
AcDbArc
 50
106.7900255983375
 51
180.0
  0
LINE
  5
12A
330
1F
100
AcDbEntity
  8
0-8_戸当
  6
Continuous
 62
     7
370
     9
100
AcDbLine
 10
2001.038803120941
 20
2509.975556847925
 30
0.0
 11
2028.038803120941
 21
2509.975556847925
 31
0.0
  0
LINE
  5
12B
330
1F
100
AcDbEntity
  8
0-8_戸当
  6
Continuous
 62
     7
370
     9
100
AcDbLine
 10
2001.038803120941
 20
2511.475556847925
 30
0.0
 11
1986.038803120941
 21
2511.475556847925
 31
0.0
  0
LINE
  5
12C
330
1F
100
AcDbEntity
  8
0-8_戸当
  6
Continuous
 62
     7
370
     9
100
AcDbLine
 10
2001.038803120941
 20
2509.975556847925
 30
0.0
 11
2001.038803120941
 21
2511.475556847925
 31
0.0
  0
LINE
  5
12D
330
1F
100
AcDbEntity
  8
0-8_戸当
  6
Continuous
 62
     7
370
     9
100
AcDbLine
 10
1983.091528289586
 20
2352.870164055024
 30
0.0
 11
1953.400195209324
 21
2367.775556847924
 31
0.0
  0
ARC
  5
12E
330
1F
100
AcDbEntity
  8
0-8_戸当
  6
Continuous
 62
     7
370
     9
100
AcDbCircle
 10
1986.038803120942
 20
2358.775556847924
 30
0.0
 40
6.6
100
AcDbArc
 50
243.4248464959396
 51
359.9999999999999
  0
ARC
  5
12F
330
1F
100
AcDbEntity
  8
0-8_戸当
  6
Continuous
 62
     7
370
     9
100
AcDbCircle
 10
1986.038803120942
 20
2358.775556847924
 30
0.0
 40
10.8
100
AcDbArc
 50
243.4248464959396
 51
359.9999999999999
  0
LINE
  5
130
330
1F
100
AcDbEntity
  8
0-8_戸当
  6
Continuous
 62
     7
370
     9
100
AcDbLine
 10
1941.038803120941
 20
2517.775556847924
 30
0.0
 11
1941.038803120942
 21
2370.775556847923
 31
0.0
  0
LINE
  5
131
330
1F
100
AcDbEntity
  8
0-8_戸当
  6
Continuous
 62
     7
370
     9
100
AcDbLine
 10
1944.038803120942
 20
2367.775556847924
 30
0.0
 11
1986.038803120942
 21
2367.775556847924
 31
0.0
  0
LINE
  5
132
330
1F
100
AcDbEntity
  8
0-8_戸当
  6
Continuous
 62
     7
370
     9
100
AcDbLine
 10
1950.038803120941
 20
2376.775556847925
 30
0.0
 11
1950.038803120941
 21
2514.775556847924
 31
0.0
  0
LINE
  5
133
330
1F
100
AcDbEntity
  8
0-8_戸当
  6
Continuous
 62
     7
370
     9
100
AcDbLine
 10
1986.038803120942
 20
2367.775556847924
 30
0.0
 11
1986.038803120942
 21
2371.975556847924
 31
0.0
  0
ARC
  5
134
330
1F
100
AcDbEntity
  8
0-8_戸当
  6
Continuous
 62
     7
370
     9
100
AcDbCircle
 10
1944.038803120942
 20
2370.775556847923
 30
0.0
 40
3.0
100
AcDbArc
 50
180.0
 51
270.0
  0
LINE
  5
135
330
1F
100
AcDbEntity
  8
0-8_戸当
  6
Continuous
 62
     7
370
     9
100
AcDbLine
 10
1996.838803120942
 20
2358.775556847924
 30
0.0
 11
1996.838803120942
 21
2367.775556847924
 31
0.0
  0
LINE
  5
136
330
1F
100
AcDbEntity
  8
0-8_戸当
  6
Continuous
 62
     7
370
     9
100
AcDbLine
 10
1981.207193157219
 20
2349.11659493898
 30
0.0
 11
1944.038803120942
 21
2367.775556847924
 31
0.0
  0
ARC
  5
137
330
1F
100
AcDbEntity
  8
0-8_戸当
  6
Continuous
 62
     7
370
     9
100
AcDbCircle
 10
1947.038803120942
 20
2517.775556847924
 30
0.0
 40
6.0
100
AcDbArc
 50
90.0
 51
180.0
  0
LINE
  5
138
330
1F
100
AcDbEntity
  8
0-8_戸当
  6
Continuous
 62
     7
370
     9
100
AcDbLine
 10
1947.038803120942
 20
2523.775556847924
 30
0.0
 11
1999.238803120941
 21
2523.775556847924
 31
0.0
  0
ARC
  5
139
330
1F
100
AcDbEntity
  8
0-8_戸当
  6
Continuous
 62
     7
370
     9
100
AcDbCircle
 10
1999.238803120941
 20
2521.975556847924
 30
0.0
 40
1.8
100
AcDbArc
 50
311.3477772196927
 51
90.0
  0
LINE
  5
13A
330
1F
100
AcDbEntity
  8
0-8_戸当
  6
Continuous
 62
     7
370
     9
100
AcDbLine
 10
1969.838803120942
 20
2514.775556847924
 30
0.0
 11
1986.038803120941
 21
2514.775556847924
 31
0.0
  0
LINE
  5
13B
330
1F
100
AcDbEntity
  8
0-8_戸当
  6
Continuous
 62
     7
370
     9
100
AcDbLine
 10
1969.838803120942
 20
2502.775556847924
 30
0.0
 11
1969.838803120942
 21
2514.775556847924
 31
0.0
  0
LINE
  5
13C
330
1F
100
AcDbEntity
  8
0-8_戸当
  6
Continuous
 62
     7
370
     9
100
AcDbLine
 10
1962.638803120941
 20
2502.775556847924
 30
0.0
 11
1969.838803120942
 21
2502.775556847924
 31
0.0
  0
LINE
  5
13D
330
1F
100
AcDbEntity
  8
0-8_戸当
  6
Continuous
 62
     7
370
     9
100
AcDbLine
 10
1962.638803120941
 20
2514.775556847924
 30
0.0
 11
1962.638803120941
 21
2502.775556847924
 31
0.0
  0
LINE
  5
13E
330
1F
100
AcDbEntity
  8
0-8_戸当
  6
Continuous
 62
     7
370
     9
100
AcDbLine
 10
1950.038803120941
 20
2514.775556847924
 30
0.0
 11
1962.638803120941
 21
2514.775556847924
 31
0.0
  0
LINE
  5
13F
330
1F
100
AcDbEntity
  8
0-8_戸当
  6
Continuous
 62
     7
370
     9
100
AcDbLine
 10
1950.038803120941
 20
2376.775556847925
 30
0.0
 11
1974.038803120942
 21
2376.775556847925
 31
0.0
  0
ARC
  5
140
330
1F
100
AcDbEntity
  8
0-8_戸当
  6
Continuous
 62
     7
370
     9
100
AcDbCircle
 10
1970.078803120942
 20
2384.575556847924
 30
0.0
 40
7.199999999999999
100
AcDbArc
 50
252.6701739020166
 51
311.4096221092722
  0
LINE
  5
141
330
1F
100
AcDbEntity
  8
0-4_枠
  6
Continuous
 62
    92
370
    13
100
AcDbLine
 10
2052.03880312094
 20
2516.875556847925
 30
0.0
 11
2001.038700124114
 21
2516.875556847925
 31
0.0
  0
LINE
  5
142
330
1F
100
AcDbEntity
  8
0-4_枠
  6
Continuous
 62
    92
370
    13
100
AcDbLine
 10
2052.03880312094
 20
2494.675556847925
 30
0.0
 11
2052.03880312094
 21
2516.875556847925
 31
0.0
  0
LINE
  5
143
330
1F
100
AcDbEntity
  8
0-4_枠
  6
Continuous
 62
    92
370
    13
100
AcDbLine
 10
2001.038803120941
 20
2494.675556847925
 30
0.0
 11
2052.03880312094
 21
2494.675556847925
 31
0.0
  0
LINE
  5
144
330
1F
100
AcDbEntity
  8
0-4_枠
  6
Continuous
 62
    92
370
    13
100
AcDbLine
 10
2001.038803120941
 20
2383.075556847924
 30
0.0
 11
2052.038700124114
 21
2383.075556847924
 31
0.0
  0
LINE
  5
145
330
1F
100
AcDbEntity
  8
0-4_枠
  6
Continuous
 62
    92
370
    13
100
AcDbLine
 10
2052.038700124114
 20
2360.875556847925
 30
0.0
 11
2001.038700124114
 21
2360.875556847925
 31
0.0
  0
LINE
  5
146
330
1F
100
AcDbEntity
  8
0-4_枠
  6
Continuous
 62
    92
370
    13
100
AcDbLine
 10
2001.038803120941
 20
2383.075556847924
 30
0.0
 11
2001.038803120941
 21
2494.675556847925
 31
0.0
  0
LINE
  5
147
330
1F
100
AcDbEntity
  8
0-4_枠
  6
Continuous
 62
    92
370
    13
100
AcDbLine
 10
2052.038700124114
 20
2360.875556847925
 30
0.0
 11
2052.038700124114
 21
2383.075556847924
 31
0.0
  0
LINE
  5
148
330
1F
100
AcDbEntity
  8
0-C_ハッチ
  6
Continuous
 62
   120
370
     5
100
AcDbLine
 10
-2125.201717325958
 20
2287.210904070121
 30
0.0
 11
-2032.201614329142
 21
2380.211007066936
 31
0.0
  0
LINE
  5
149
330
1F
100
AcDbEntity
  8
0-C_ハッチ
  6
Continuous
 62
   120
370
     5
100
AcDbLine
 10
-2029.337064548154
 20
2383.075556847924
 30
0.0
 11
-1981.201717325973
 21
2431.210904070106
 31
0.0
  0
LINE
  5
14A
330
1F
100
AcDbEntity
  8
0-C_ハッチ
  6
Continuous
 62
   120
370
     5
100
AcDbLine
 10
-2125.201717325965
 20
2227.813934450465
 30
0.0
 11
-1992.140094928506
 21
2360.875556847925
 31
0.0
  0
LINE
  5
14B
330
1F
100
AcDbEntity
  8
0-4_枠
  6
Continuous
 62
    92
370
    13
100
AcDbLine
 10
-1981.201717325969
 20
2360.875556847925
 30
0.0
 11
-1981.201717325969
 21
2099.999683277028
 31
0.0
  0
LINE
  5
14C
330
1F
100
AcDbEntity
  8
0-4_枠
  6
Continuous
 62
    92
370
    13
100
AcDbLine
 10
-1984.20171732597
 20
2360.875556847925
 30
0.0
 11
-1984.20171732597
 21
2102.999683277027
 31
0.0
  0
LINE
  5
14D
330
1F
100
AcDbEntity
  8
0-4_枠
  6
Continuous
 62
    92
370
    13
100
AcDbLine
 10
-1981.201717325969
 20
2777.999683277027
 30
0.0
 11
-1981.201717325969
 21
2516.875556847925
 31
0.0
  0
LINE
  5
14E
330
1F
100
AcDbEntity
  8
0-4_枠
  6
Continuous
 62
    92
370
    13
100
AcDbLine
 10
-1984.20171732597
 20
2774.999683277028
 30
0.0
 11
-1984.20171732597
 21
2516.875556847925
 31
0.0
  0
LINE
  5
14F
330
1F
100
AcDbEntity
  8
0-C_ハッチ
  6
Continuous
 62
   120
370
     5
100
AcDbLine
 10
-2014.331003787503
 20
2516.875556847925
 30
0.0
 11
-1984.201717325963
 21
2547.004843309465
 31
0.0
  0
LINE
  5
150
330
1F
100
AcDbEntity
  8
0-C_ハッチ
  6
Continuous
 62
   120
370
     5
100
AcDbLine
 10
-2125.201717325961
 20
2406.004843309465
 30
0.0
 11
-2032.201717325969
 21
2499.004843309457
 31
0.0
  0
ARC
  5
151
330
1F
100
AcDbEntity
  8
0-8_戸当
  6
Continuous
 62
     7
370
     9
100
AcDbCircle
 10
-1964.401717325969
 20
2512.975556847924
 30
0.0
 40
1.8
100
AcDbArc
 50
73.20997440166418
 51
180.0
  0
LINE
  5
152
330
1F
100
AcDbEntity
  8
0-8_戸当
  6
Continuous
 62
     7
370
     9
100
AcDbLine
 10
-1963.881760080269
 20
2514.698822486949
 30
0.0
 11
-1953.574109296892
 21
2511.859781800104
 31
0.0
  0
LINE
  5
153
330
1F
100
AcDbEntity
  8
0-8_戸当
  6
Continuous
 62
     7
370
     9
100
AcDbLine
 10
-1966.201717325969
 20
2512.975556847924
 30
0.0
 11
-1966.201717325969
 21
2511.475556847925
 31
0.0
  0
LINE
  5
154
330
1F
100
AcDbEntity
  8
0-8_戸当
  6
Continuous
 62
     7
370
     9
100
AcDbLine
 10
-1980.590847536774
 20
2520.624272517464
 30
0.0
 11
-1969.190847536775
 21
2511.924272517464
 31
0.0
  0
ARC
  5
155
330
1F
100
AcDbEntity
  8
0-8_戸当
  6
Continuous
 62
     7
370
     9
100
AcDbCircle
 10
-1968.001717325969
 20
2513.275556847925
 30
0.0
 40
1.8
100
AcDbArc
 50
228.6522227803065
 51
0.0
  0
LINE
  5
156
330
1F
100
AcDbEntity
  8
0-8_戸当
  6
Continuous
 62
     7
370
     9
100
AcDbLine
 10
-1966.201717325969
 20
2513.275556847925
 30
0.0
 11
-1966.201717325969
 21
2514.775556847924
 31
0.0
  0
LINE
  5
157
330
1F
100
AcDbEntity
  8
0-8_戸当
  6
Continuous
 62
     7
370
     9
100
AcDbLine
 10
-1954.20171732597
 20
2377.073032601429
 30
0.0
 11
-1954.20171732597
 21
2376.775556847925
 31
0.0
  0
LINE
  5
158
330
1F
100
AcDbEntity
  8
0-8_戸当
  6
Continuous
 62
     7
370
     9
100
AcDbLine
 10
-1966.201717325969
 20
2371.975556847924
 30
0.0
 11
-1958.981332779754
 21
2379.488186599967
 31
0.0
  0
ARC
  5
159
330
1F
100
AcDbEntity
  8
0-8_戸当
  6
Continuous
 62
     7
370
     9
100
AcDbCircle
 10
-1957.201717325969
 20
2377.073032601429
 30
0.0
 40
3.0
100
AcDbArc
 50
0.0
 51
126.3847868939777
  0
LINE
  5
15A
330
1F
100
AcDbEntity
  8
0-8_戸当
  6
Continuous
 62
     7
370
     9
100
AcDbLine
 10
-1972.80171732597
 20
2358.775556847924
 30
0.0
 11
-1972.80171732597
 21
2373.775556847924
 31
0.0
  0
LINE
  5
15B
330
1F
100
AcDbEntity
  8
0-8_戸当
  6
Continuous
 62
     7
370
     9
100
AcDbLine
 10
-2008.20171732597
 20
2367.775556847924
 30
0.0
 11
-2008.20171732597
 21
2360.875556847924
 31
0.0
  0
LINE
  5
15C
330
1F
100
AcDbEntity
  8
0-8_戸当
  6
Continuous
 62
     7
370
     9
100
AcDbLine
 10
-2008.20171732597
 20
2381.275556847924
 30
0.0
 11
-2008.20171732597
 21
2376.775556847925
 31
0.0
  0
LINE
  5
15D
330
1F
100
AcDbEntity
  8
0-8_戸当
  6
Continuous
 62
     7
370
     9
100
AcDbLine
 10
-2008.20171732597
 20
2376.775556847925
 30
0.0
 11
-1981.201717325969
 21
2376.775556847925
 31
0.0
  0
LINE
  5
15E
330
1F
100
AcDbEntity
  8
0-8_戸当
  6
Continuous
 62
     7
370
     9
100
AcDbLine
 10
-2008.20171732597
 20
2381.275556847924
 30
0.0
 11
-2026.201717325969
 21
2372.275556847924
 31
0.0
  0
LINE
  5
15F
330
1F
100
AcDbEntity
  8
0-8_戸当
  6
Continuous
 62
     7
370
     9
100
AcDbLine
 10
-2026.201717325969
 20
2372.275556847924
 30
0.0
 11
-2008.20171732597
 21
2360.875556847924
 31
0.0
  0
LINE
  5
160
330
1F
100
AcDbEntity
  8
0-8_戸当
  6
Continuous
 62
     7
370
     9
100
AcDbLine
 10
-1981.201717325969
 20
2376.775556847925
 30
0.0
 11
-1981.201717325969
 21
2500.975556847925
 31
0.0
  0
LINE
  5
161
330
1F
100
AcDbEntity
  8
0-8_戸当
  6
Continuous
 62
     7
370
     9
100
AcDbLine
 10
-1977.00171732597
 20
2367.775556847924
 30
0.0
 11
-2008.20171732597
 21
2367.775556847924
 31
0.0
  0
LINE
  5
162
330
1F
100
AcDbEntity
  8
0-8_戸当
  6
Continuous
 62
     7
370
     9
100
AcDbLine
 10
-1977.00171732597
 20
2367.775556847924
 30
0.0
 11
-1977.00171732597
 21
2373.775556847924
 31
0.0
  0
LINE
  5
163
330
1F
100
AcDbEntity
  8
0-8_戸当
  6
Continuous
 62
     7
370
     9
100
AcDbLine
 10
-1977.00171732597
 20
2373.775556847924
 30
0.0
 11
-1972.201717325969
 21
2373.775556847924
 31
0.0
  0
LINE
  5
164
330
1F
100
AcDbEntity
  8
0-8_戸当
  6
Continuous
 62
     7
370
     9
100
AcDbLine
 10
-1972.201717325969
 20
2373.775556847924
 30
0.0
 11
-1972.201717325969
 21
2380.375556847925
 31
0.0
  0
LINE
  5
165
330
1F
100
AcDbEntity
  8
0-8_戸当
  6
Continuous
 62
     7
370
     9
100
AcDbLine
 10
-1972.201717325969
 20
2380.375556847925
 30
0.0
 11
-1958.178971259164
 21
2380.375556847925
 31
0.0
  0
ARC
  5
166
330
1F
100
AcDbEntity
  8
0-8_戸当
  6
Continuous
 62
     7
370
     9
100
AcDbCircle
 10
-1958.178971259164
 20
2375.575556847924
 30
0.0
 40
4.800000000000001
100
AcDbArc
 50
48.59037789072997
 51
90.0
  0
LINE
  5
167
330
1F
100
AcDbEntity
  8
0-8_戸当
  6
Continuous
 62
     7
370
     9
100
AcDbLine
 10
-1948.097040024011
 20
2377.702394601151
 30
0.0
 11
-1933.150655566493
 21
2382.366212203975
 31
0.0
  0
ARC
  5
168
330
1F
100
AcDbEntity
  8
0-8_戸当
  6
Continuous
 62
     7
370
     9
100
AcDbCircle
 10
-1934.401717325969
 20
2386.375556847925
 30
0.0
 40
4.2
100
AcDbArc
 50
287.3298279181163
 51
107.3298297382545
  0
LINE
  5
169
330
1F
100
AcDbEntity
  8
0-8_戸当
  6
Continuous
 62
     7
370
     9
100
AcDbLine
 10
-1951.38887123506
 20
2385.474666259027
 30
0.0
 11
-1935.652779340178
 21
2390.38490141239
 31
0.0
  0
ARC
  5
16A
330
1F
100
AcDbEntity
  8
0-8_戸当
  6
Continuous
 62
     7
370
     9
100
AcDbCircle
 10
-1957.44171732597
 20
2381.575556847924
 30
0.0
 40
7.199999999999999
100
AcDbArc
 50
32.78873764965429
 51
90.0
  0
LINE
  5
16B
330
1F
100
AcDbEntity
  8
0-8_戸当
  6
Continuous
 62
     7
370
     9
100
AcDbLine
 10
-1972.201717325969
 20
2391.775556847923
 30
0.0
 11
-1972.201717325969
 21
2501.275556847926
 31
0.0
  0
LINE
  5
16C
330
1F
100
AcDbEntity
  8
0-8_戸当
  6
Continuous
 62
     7
370
     9
100
AcDbLine
 10
-1969.20171732597
 20
2388.775556847924
 30
0.0
 11
-1957.44171732597
 21
2388.775556847924
 31
0.0
  0
ARC
  5
16D
330
1F
100
AcDbEntity
  8
0-8_戸当
  6
Continuous
 62
     7
370
     9
100
AcDbCircle
 10
-1969.20171732597
 20
2391.775556847923
 30
0.0
 40
3.0
100
AcDbArc
 50
180.0
 51
270.0
  0
ARC
  5
16E
330
1F
100
AcDbEntity
  8
0-8_戸当
  6
Continuous
 62
     7
370
     9
100
AcDbCircle
 10
-1969.20171732597
 20
2501.275556847926
 30
0.0
 40
3.0
100
AcDbArc
 50
90.0
 51
180.0
  0
LINE
  5
16F
330
1F
100
AcDbEntity
  8
0-8_戸当
  6
Continuous
 62
     7
370
     9
100
AcDbLine
 10
-1969.20171732597
 20
2504.275556847925
 30
0.0
 11
-1966.201717325969
 21
2504.275556847925
 31
0.0
  0
LINE
  5
170
330
1F
100
AcDbEntity
  8
0-8_戸当
  6
Continuous
 62
     7
370
     9
100
AcDbLine
 10
-2026.201717325969
 20
2505.475556847925
 30
0.0
 11
-2008.201717325969
 21
2516.875556847926
 31
0.0
  0
LINE
  5
171
330
1F
100
AcDbEntity
  8
0-8_戸当
  6
Continuous
 62
     7
370
     9
100
AcDbLine
 10
-2008.201717325969
 20
2496.475556847925
 30
0.0
 11
-2026.201717325969
 21
2505.475556847925
 31
0.0
  0
LINE
  5
172
330
1F
100
AcDbEntity
  8
0-8_戸当
  6
Continuous
 62
     7
370
     9
100
AcDbLine
 10
-2008.201717325969
 20
2500.975556847925
 30
0.0
 11
-1981.201717325969
 21
2500.975556847925
 31
0.0
  0
LINE
  5
173
330
1F
100
AcDbEntity
  8
0-8_戸当
  6
Continuous
 62
     7
370
     9
100
AcDbLine
 10
-2008.201717325969
 20
2496.475556847925
 30
0.0
 11
-2008.201717325969
 21
2500.975556847925
 31
0.0
  0
LINE
  5
174
330
1F
100
AcDbEntity
  8
0-8_戸当
  6
Continuous
 62
     7
370
     9
100
AcDbLine
 10
-2008.201717325969
 20
2509.975556847925
 30
0.0
 11
-2008.201717325969
 21
2516.875556847926
 31
0.0
  0
ARC
  5
175
330
1F
100
AcDbEntity
  8
0-8_戸当
  6
Continuous
 62
     7
370
     9
100
AcDbCircle
 10
-1966.201717325969
 20
2510.275556847924
 30
0.0
 40
5.999999999999659
100
AcDbArc
 50
270.0
 51
326.5226209498273
  0
LINE
  5
176
330
1F
100
AcDbEntity
  8
0-8_戸当
  6
Continuous
 62
     7
370
     9
100
AcDbLine
 10
-1961.197095321919
 20
2506.965910553141
 30
0.0
 11
-1956.029325342536
 21
2505.091331891209
 31
0.0
  0
ARC
  5
177
330
1F
100
AcDbEntity
  8
0-8_戸当
  6
Continuous
 62
     7
370
     9
100
AcDbCircle
 10
-1954.80171732597
 20
2508.475556847925
 30
0.0
 40
3.600000000000001
100
AcDbArc
 50
246.662347311029
 51
0.0000000000000127
  0
ARC
  5
178
330
1F
100
AcDbEntity
  8
0-8_戸当
  6
Continuous
 62
     7
370
     9
100
AcDbCircle
 10
-1954.80171732597
 20
2508.475556847925
 30
0.0
 40
3.600000000000001
100
AcDbArc
 50
0.0
 51
73.20997440166256
  0
LINE
  5
179
330
1F
100
AcDbEntity
  8
0-8_戸当
  6
Continuous
 62
     7
370
     9
100
AcDbLine
 10
-1981.201717325969
 20
2509.975556847925
 30
0.0
 11
-2008.201717325969
 21
2509.975556847925
 31
0.0
  0
LINE
  5
17A
330
1F
100
AcDbEntity
  8
0-8_戸当
  6
Continuous
 62
     7
370
     9
100
AcDbLine
 10
-1981.201717325969
 20
2511.475556847925
 30
0.0
 11
-1966.201717325969
 21
2511.475556847925
 31
0.0
  0
LINE
  5
17B
330
1F
100
AcDbEntity
  8
0-8_戸当
  6
Continuous
 62
     7
370
     9
100
AcDbLine
 10
-1981.201717325969
 20
2509.975556847925
 30
0.0
 11
-1981.201717325969
 21
2511.475556847925
 31
0.0
  0
LINE
  5
17C
330
1F
100
AcDbEntity
  8
0-8_戸当
  6
Continuous
 62
     7
370
     9
100
AcDbLine
 10
-1963.254442494613
 20
2352.870164055024
 30
0.0
 11
-1933.563109414352
 21
2367.775556847924
 31
0.0
  0
ARC
  5
17D
330
1F
100
AcDbEntity
  8
0-8_戸当
  6
Continuous
 62
     7
370
     9
100
AcDbCircle
 10
-1966.201717325969
 20
2358.775556847924
 30
0.0
 40
6.6
100
AcDbArc
 50
180.0
 51
296.5751535040603
  0
ARC
  5
17E
330
1F
100
AcDbEntity
  8
0-8_戸当
  6
Continuous
 62
     7
370
     9
100
AcDbCircle
 10
-1966.201717325969
 20
2358.775556847924
 30
0.0
 40
10.8
100
AcDbArc
 50
180.0
 51
296.5751535040603
  0
LINE
  5
17F
330
1F
100
AcDbEntity
  8
0-8_戸当
  6
Continuous
 62
     7
370
     9
100
AcDbLine
 10
-1921.201717325969
 20
2517.775556847924
 30
0.0
 11
-1921.201717325969
 21
2370.775556847923
 31
0.0
  0
LINE
  5
180
330
1F
100
AcDbEntity
  8
0-8_戸当
  6
Continuous
 62
     7
370
     9
100
AcDbLine
 10
-1924.20171732597
 20
2367.775556847924
 30
0.0
 11
-1966.201717325969
 21
2367.775556847924
 31
0.0
  0
LINE
  5
181
330
1F
100
AcDbEntity
  8
0-8_戸当
  6
Continuous
 62
     7
370
     9
100
AcDbLine
 10
-1930.20171732597
 20
2376.775556847925
 30
0.0
 11
-1930.20171732597
 21
2514.775556847924
 31
0.0
  0
LINE
  5
182
330
1F
100
AcDbEntity
  8
0-8_戸当
  6
Continuous
 62
     7
370
     9
100
AcDbLine
 10
-1966.201717325969
 20
2367.775556847924
 30
0.0
 11
-1966.201717325969
 21
2371.975556847924
 31
0.0
  0
ARC
  5
183
330
1F
100
AcDbEntity
  8
0-8_戸当
  6
Continuous
 62
     7
370
     9
100
AcDbCircle
 10
-1924.20171732597
 20
2370.775556847923
 30
0.0
 40
3.0
100
AcDbArc
 50
270.0
 51
0.0
  0
LINE
  5
184
330
1F
100
AcDbEntity
  8
0-8_戸当
  6
Continuous
 62
     7
370
     9
100
AcDbLine
 10
-1977.00171732597
 20
2358.775556847924
 30
0.0
 11
-1977.00171732597
 21
2367.775556847924
 31
0.0
  0
LINE
  5
185
330
1F
100
AcDbEntity
  8
0-8_戸当
  6
Continuous
 62
     7
370
     9
100
AcDbLine
 10
-1961.370107362247
 20
2349.11659493898
 30
0.0
 11
-1924.20171732597
 21
2367.775556847924
 31
0.0
  0
ARC
  5
186
330
1F
100
AcDbEntity
  8
0-8_戸当
  6
Continuous
 62
     7
370
     9
100
AcDbCircle
 10
-1927.201717325969
 20
2517.775556847924
 30
0.0
 40
6.0
100
AcDbArc
 50
0.0
 51
90.0
  0
LINE
  5
187
330
1F
100
AcDbEntity
  8
0-8_戸当
  6
Continuous
 62
     7
370
     9
100
AcDbLine
 10
-1927.201717325969
 20
2523.775556847924
 30
0.0
 11
-1979.401717325969
 21
2523.775556847924
 31
0.0
  0
ARC
  5
188
330
1F
100
AcDbEntity
  8
0-8_戸当
  6
Continuous
 62
     7
370
     9
100
AcDbCircle
 10
-1979.401717325969
 20
2521.975556847924
 30
0.0
 40
1.8
100
AcDbArc
 50
90.0
 51
228.6522227803073
  0
LINE
  5
189
330
1F
100
AcDbEntity
  8
0-8_戸当
  6
Continuous
 62
     7
370
     9
100
AcDbLine
 10
-1950.001717325969
 20
2514.775556847924
 30
0.0
 11
-1966.201717325969
 21
2514.775556847924
 31
0.0
  0
LINE
  5
18A
330
1F
100
AcDbEntity
  8
0-8_戸当
  6
Continuous
 62
     7
370
     9
100
AcDbLine
 10
-1950.001717325969
 20
2502.775556847924
 30
0.0
 11
-1950.001717325969
 21
2514.775556847924
 31
0.0
  0
LINE
  5
18B
330
1F
100
AcDbEntity
  8
0-8_戸当
  6
Continuous
 62
     7
370
     9
100
AcDbLine
 10
-1942.801717325968
 20
2502.775556847924
 30
0.0
 11
-1950.001717325969
 21
2502.775556847924
 31
0.0
  0
LINE
  5
18C
330
1F
100
AcDbEntity
  8
0-8_戸当
  6
Continuous
 62
     7
370
     9
100
AcDbLine
 10
-1942.801717325968
 20
2514.775556847924
 30
0.0
 11
-1942.801717325968
 21
2502.775556847924
 31
0.0
  0
LINE
  5
18D
330
1F
100
AcDbEntity
  8
0-8_戸当
  6
Continuous
 62
     7
370
     9
100
AcDbLine
 10
-1930.20171732597
 20
2514.775556847924
 30
0.0
 11
-1942.801717325968
 21
2514.775556847924
 31
0.0
  0
LINE
  5
18E
330
1F
100
AcDbEntity
  8
0-8_戸当
  6
Continuous
 62
     7
370
     9
100
AcDbLine
 10
-1930.20171732597
 20
2376.775556847925
 30
0.0
 11
-1954.20171732597
 21
2376.775556847925
 31
0.0
  0
ARC
  5
18F
330
1F
100
AcDbEntity
  8
0-8_戸当
  6
Continuous
 62
     7
370
     9
100
AcDbCircle
 10
-1950.24171732597
 20
2384.575556847924
 30
0.0
 40
7.199999999999999
100
AcDbArc
 50
228.5903778907278
 51
287.3298260979834
  0
LINE
  5
190
330
1F
100
AcDbEntity
  8
0-4_枠
  6
Continuous
 62
    92
370
    13
100
AcDbLine
 10
-2032.201717325969
 20
2516.875556847925
 30
0.0
 11
-1981.201614329143
 21
2516.875556847925
 31
0.0
  0
LINE
  5
191
330
1F
100
AcDbEntity
  8
0-4_枠
  6
Continuous
 62
    92
370
    13
100
AcDbLine
 10
-2032.201717325969
 20
2494.675556847925
 30
0.0
 11
-2032.201717325969
 21
2516.875556847925
 31
0.0
  0
LINE
  5
192
330
1F
100
AcDbEntity
  8
0-4_枠
  6
Continuous
 62
    92
370
    13
100
AcDbLine
 10
-1981.201717325969
 20
2494.675556847925
 30
0.0
 11
-2032.201717325969
 21
2494.675556847925
 31
0.0
  0
LINE
  5
193
330
1F
100
AcDbEntity
  8
0-4_枠
  6
Continuous
 62
    92
370
    13
100
AcDbLine
 10
-1981.201717325969
 20
2383.075556847924
 30
0.0
 11
-2032.201614329142
 21
2383.075556847924
 31
0.0
  0
LINE
  5
194
330
1F
100
AcDbEntity
  8
0-4_枠
  6
Continuous
 62
    92
370
    13
100
AcDbLine
 10
-2032.201614329142
 20
2360.875556847925
 30
0.0
 11
-1981.201614329143
 21
2360.875556847925
 31
0.0
  0
LINE
  5
195
330
1F
100
AcDbEntity
  8
0-4_枠
  6
Continuous
 62
    92
370
    13
100
AcDbLine
 10
-1981.201717325969
 20
2383.075556847924
 30
0.0
 11
-1981.201717325969
 21
2494.675556847925
 31
0.0
  0
LINE
  5
196
330
1F
100
AcDbEntity
  8
0-4_枠
  6
Continuous
 62
    92
370
    13
100
AcDbLine
 10
-2032.201614329142
 20
2360.875556847925
 30
0.0
 11
-2032.201614329142
 21
2383.075556847924
 31
0.0
  0
LWPOLYLINE
  5
197
330
1F
100
AcDbEntity
  8
0-B_寸法
  6
Continuous
 62
     7
370
     9
100
AcDbPolyline
 90
        4
 70
     1
 43
6.0
 10
-1978.201717325969
 20
3147.016061564037
 42
0.4142135623731
 10
-1981.201717325969
 20
3150.016061564037
 42
0.4142135623731
 10
-1984.201717325969
 20
3147.016061564037
 42
0.4142135623731
 10
-1981.201717325969
 20
3144.016061564037
 42
0.4142135623731
  0
LWPOLYLINE
  5
198
330
1F
100
AcDbEntity
  8
0-B_寸法
  6
Continuous
 62
     7
370
     9
100
AcDbPolyline
 90
        4
 70
     1
 43
6.0
 10
-2122.201717325968
 20
3147.016061564037
 42
0.4142135623731
 10
-2125.201717325968
 20
3150.016061564037
 42
0.4142135623731
 10
-2128.201717325968
 20
3147.016061564037
 42
0.4142135623731
 10
-2125.201717325968
 20
3144.016061564037
 42
0.4142135623731
  0
LWPOLYLINE
  5
199
330
1F
100
AcDbEntity
  8
0-B_寸法
  6
Continuous
 62
     7
370
     9
100
AcDbPolyline
 90
        4
 70
     1
 43
6.0
 10
-1978.201717325969
 20
3005.873667201509
 42
0.4142135623731
 10
-1981.201717325969
 20
3008.873667201509
 42
0.4142135623731
 10
-1984.201717325969
 20
3005.873667201509
 42
0.4142135623731
 10
-1981.201717325969
 20
3002.87366720151
 42
0.4142135623731
  0
LWPOLYLINE
  5
19A
330
1F
100
AcDbEntity
  8
0-B_寸法
  6
Continuous
 62
     7
370
     9
100
AcDbPolyline
 90
        4
 70
     1
 43
6.0
 10
-2038.201544118094
 20
3005.873667201509
 42
0.4142135623731
 10
-2041.201544118094
 20
3008.873667201509
 42
0.4142135623731
 10
-2044.201544118094
 20
3005.873667201509
 42
0.4142135623731
 10
-2041.201544118094
 20
3002.87366720151
 42
0.4142135623731
  0
LWPOLYLINE
  5
19B
330
1F
100
AcDbEntity
  8
0-B_寸法
  6
Continuous
 62
     7
370
     9
100
AcDbPolyline
 90
        4
 70
     1
 43
6.0
 10
-2092.201573810873
 20
3005.873667201509
 42
0.4142135623731
 10
-2095.201573810873
 20
3008.873667201509
 42
0.4142135623731
 10
-2098.201573810872
 20
3005.873667201509
 42
0.4142135623731
 10
-2095.201573810873
 20
3002.87366720151
 42
0.4142135623731
  0
LWPOLYLINE
  5
19C
330
1F
100
AcDbEntity
  8
0-B_寸法
  6
Continuous
 62
     7
370
     9
100
AcDbPolyline
 90
        4
 70
     1
 43
6.0
 10
-2122.201717325968
 20
3005.873667201509
 42
0.4142135623731
 10
-2125.201717325968
 20
3008.873667201509
 42
0.4142135623731
 10
-2128.201717325968
 20
3005.873667201509
 42
0.4142135623731
 10
-2125.201717325968
 20
3002.87366720151
 42
0.4142135623731
  0
TEXT
  5
19D
330
1F
100
AcDbEntity
  8
0-B_寸法
  6
Continuous
 62
     7
370
     0
100
AcDbText
 10
-1990.323956297887
 20
3029.129313343013
 30
0.0
 40
91.44
  1
10
 41
1.0625
  7
ＭＳ ゴシック
100
AcDbText
  0
TEXT
  5
19E
330
1F
100
AcDbEntity
  8
0-B_寸法
  6
Continuous
 62
     7
370
     0
100
AcDbText
 10
-2187.581054997475
 20
3027.163720460136
 30
0.0
 40
91.44
  1
5
  7
ＭＳ ゴシック
100
AcDbText
  0
TEXT
  5
19F
330
1F
100
AcDbEntity
  8
0-B_寸法
  6
Continuous
 62
     7
370
     0
100
AcDbText
 10
-2098.201558964482
 20
3025.198127577258
 30
0.0
 40
91.44
  1
9
  7
ＭＳ ゴシック
100
AcDbText
  0
TEXT
  5
1A0
330
1F
100
AcDbEntity
  8
0-B_寸法
  6
Continuous
 62
     7
370
     0
100
AcDbText
 10
-2117.814225299515
 20
3167.423781332195
 30
0.0
 40
91.44
  1
24
 41
1.0625
  7
ＭＳ ゴシック
100
AcDbText
  0
LINE
  5
1A1
330
1F
100
AcDbEntity
  8
0-B_寸法
  6
Continuous
 62
   120
370
     5
100
AcDbLine
 10
-2125.201717325968
 20
3147.016061564037
 30
0.0
 11
-1981.201717325969
 21
3147.016061564037
 31
0.0
  0
LINE
  5
1A2
330
1F
100
AcDbEntity
  8
0-B_寸法
  6
Continuous
 62
   120
370
     5
100
AcDbLine
 10
-1981.201717325969
 20
3147.016061564037
 30
0.0
 11
-1981.201717325969
 21
2852.768662182618
 31
0.0
  0
LINE
  5
1A3
330
1F
100
AcDbEntity
  8
0-B_寸法
  6
Continuous
 62
   120
370
     5
100
AcDbLine
 10
-2041.201544118094
 20
3005.873667201509
 30
0.0
 11
-2041.201544118094
 21
2852.768662182618
 31
0.0
  0
LINE
  5
1A4
330
1F
100
AcDbEntity
  8
0-B_寸法
  6
Continuous
 62
   120
370
     5
100
AcDbLine
 10
-2095.201573810873
 20
3005.873667201509
 30
0.0
 11
-2095.201573810873
 21
2852.768662182618
 31
0.0
  0
LINE
  5
1A5
330
1F
100
AcDbEntity
  8
0-B_寸法
  6
Continuous
 62
   120
370
     5
100
AcDbLine
 10
-2125.201717325968
 20
3147.016061564037
 30
0.0
 11
-2125.201717325968
 21
2852.768662182618
 31
0.0
  0
LINE
  5
1A6
330
1F
100
AcDbEntity
  8
0-B_寸法
  6
Continuous
 62
   120
370
     5
100
AcDbLine
 10
-2125.201717325968
 20
3005.873667201509
 30
0.0
 11
-1981.201717325969
 21
3005.873667201509
 31
0.0
  0
TEXT
  5
1A7
330
1F
100
AcDbEntity
  8
0-A_文字
  6
Continuous
 62
     7
370
     9
100
AcDbText
 10
-2455.201717519063
 20
3352.857268863514
 30
0.0
 40
91.44
  1
■横断面図
 41
1.1
  7
ＭＳ ゴシック
100
AcDbText
  0
LINE
  5
1A8
330
1F
100
AcDbEntity
  8
0-3_仕上げ
  6
Continuous
 62
     7
370
     9
100
AcDbLine
 10
-2455.201717325968
 20
2099.999683277028
 30
0.0
 11
-2155.201717325968
 21
2099.999683277028
 31
0.0
  0
LINE
  5
1A9
330
1F
100
AcDbEntity
  8
0-3_仕上げ
  6
Continuous
 62
     7
370
     9
100
AcDbLine
 10
-2455.201717325968
 20
2777.999683277027
 30
0.0
 11
-2155.201717325968
 21
2777.999683277027
 31
0.0
  0
TEXT
  5
1AA
330
1F
100
AcDbEntity
  8
0-B_寸法
  6
Continuous
 62
     7
370
   211
100
AcDbText
 10
-1340.395282970548
 20
2174.249683277027
 30
0.0
 40
91.44
  1
36
 50
90.0
 41
1.0625
  7
ＭＳ ゴシック
100
AcDbText
  0
LWPOLYLINE
  5
1AB
330
1F
100
AcDbEntity
  8
0-B_寸法
  6
Continuous
 62
     7
370
     9
100
AcDbPolyline
 90
        4
 70
     1
 43
6.0
 10
-1305.475282970548
 20
2129.999683277028
 42
0.4142135623731
 10
-1308.475282970548
 20
2132.999683277028
 42
0.4142135623731
 10
-1311.475282970548
 20
2129.999683277028
 42
0.4142135623731
 10
-1308.475282970548
 20
2126.999683277028
 42
0.4142135623731
  0
LWPOLYLINE
  5
1AC
330
1F
100
AcDbEntity
  8
0-B_寸法
  6
Continuous
 62
     7
370
     9
100
AcDbPolyline
 90
        4
 70
     1
 43
6.0
 10
-1305.475282970548
 20
2345.999683277028
 42
0.4142135623731
 10
-1308.475282970548
 20
2348.999683277028
 42
0.4142135623731
 10
-1311.475282970548
 20
2345.999683277028
 42
0.4142135623731
 10
-1308.475282970548
 20
2342.999683277028
 42
0.4142135623731
  0
LINE
  5
1AD
330
1F
100
AcDbEntity
  8
0-B_寸法
  6
Continuous
 62
   120
370
     5
100
AcDbLine
 10
-1308.475282970548
 20
2345.999683277028
 30
0.0
 11
-1308.475282970548
 21
2129.999683277028
 31
0.0
  0
TEXT
  5
1AE
330
1F
100
AcDbEntity
  8
0-A_文字
  6
Continuous
 62
     7
370
     9
100
AcDbText
 10
-2522.701717325968
 20
1956.087580400261
 30
0.0
 40
91.44
  1
（ラッチ側）
 41
1.104166666666667
  7
ＭＳ ゴシック
100
AcDbText
  0
LINE
  5
1AF
330
1F
100
AcDbEntity
  8
0-C_ハッチ
  6
Continuous
 62
   120
370
     5
100
AcDbLine
 10
-2125.201717325961
 20
2762.386661027512
 30
0.0
 11
-2109.588695076458
 21
2777.999683277015
 31
0.0
  0
LINE
  5
1B0
330
1F
100
AcDbEntity
  8
0-C_ハッチ
  6
Continuous
 62
   120
370
     5
100
AcDbLine
 10
-2125.201717325961
 20
2702.989691407812
 30
0.0
 11
-2095.201717325968
 21
2732.989691407803
 31
0.0
  0
LINE
  5
1B1
330
1F
100
AcDbEntity
  8
0-C_ハッチ
  6
Continuous
 62
   120
370
     5
100
AcDbLine
 10
-2041.201717325962
 20
2727.592721788165
 30
0.0
 11
-1993.794755837093
 21
2774.999683277033
 31
0.0
  0
LINE
  5
1B2
330
1F
100
AcDbEntity
  8
0-C_ハッチ
  6
Continuous
 62
   120
370
     5
100
AcDbLine
 10
-2125.201717325961
 20
2643.592721788166
 30
0.0
 11
-2050.794755837112
 21
2717.999683277015
 31
0.0
  0
LINE
  5
1B3
330
1F
100
AcDbEntity
  8
0-C_ハッチ
  6
Continuous
 62
   120
370
     5
100
AcDbLine
 10
-2125.201717325954
 20
2584.195752168468
 30
0.0
 11
-1984.201717325973
 21
2725.195752168451
 31
0.0
  0
LINE
  5
1B4
330
1F
100
AcDbEntity
  8
0-C_ハッチ
  6
Continuous
 62
   120
370
     5
100
AcDbLine
 10
-2125.201717325958
 20
2524.798782548819
 30
0.0
 11
-1984.20171732596
 21
2665.798782548815
 31
0.0
  0
LINE
  5
1B5
330
1F
100
AcDbEntity
  8
0-C_ハッチ
  6
Continuous
 62
   120
370
     5
100
AcDbLine
 10
-2125.201717325958
 20
2465.401812929115
 30
0.0
 11
-1984.201717325966
 21
2606.401812929108
 31
0.0
  0
LINE
  5
1B6
330
1F
100
AcDbEntity
  8
0-C_ハッチ
  6
Continuous
 62
   120
370
     5
100
AcDbLine
 10
-2125.201717325968
 20
2346.607873689813
 30
0.0
 11
-1981.201717325976
 21
2490.607873689806
 31
0.0
  0
LINE
  5
1B7
330
1F
100
AcDbEntity
  8
0-C_ハッチ
  6
Continuous
 62
   120
370
     5
100
AcDbLine
 10
-2125.201717325968
 20
2168.416964830763
 30
0.0
 11
-1984.201717325966
 21
2309.416964830761
 31
0.0
  0
LINE
  5
1B8
330
1F
100
AcDbEntity
  8
0-C_ハッチ
  6
Continuous
 62
   120
370
     5
100
AcDbLine
 10
-2074.222029260049
 20
2159.999683277033
 30
0.0
 11
-1984.20171732596
 21
2250.019995211121
 31
0.0
  0
LINE
  5
1B9
330
1F
100
AcDbEntity
  8
0-C_ハッチ
  6
Continuous
 62
   120
370
     5
100
AcDbLine
 10
-2125.201717325961
 20
2109.019995211119
 30
0.0
 11
-2095.201717325971
 21
2139.019995211111
 31
0.0
  0
LINE
  5
1BA
330
1F
100
AcDbEntity
  8
0-C_ハッチ
  6
Continuous
 62
   120
370
     5
100
AcDbLine
 10
-2041.201717325973
 20
2133.623025591461
 30
0.0
 11
-1984.201717325966
 21
2190.623025591469
 31
0.0
  0
LINE
  5
1BB
330
1F
100
AcDbEntity
  8
0-C_ハッチ
  6
Continuous
 62
   120
370
     5
100
AcDbLine
 10
-2012.428090020706
 20
2102.999683277028
 30
0.0
 11
-1984.201717325966
 21
2131.226055971765
 31
0.0
  0
LINE
  5
1BC
330
1F
100
AcDbEntity
  8
0-4_枠
  6
Continuous
 62
    92
370
    13
100
AcDbLine
 10
-2041.201717325969
 20
2717.999683277027
 30
0.0
 11
-2041.201717325969
 21
2777.999683277027
 31
0.0
  0
LINE
  5
1BD
330
1F
100
AcDbEntity
  8
0-4_枠
  6
Continuous
 62
    92
370
    13
100
AcDbLine
 10
-1984.20171732597
 20
2774.999683277028
 30
0.0
 11
-2041.201717325969
 21
2774.999683277028
 31
0.0
  0
LINE
  5
1BE
330
1F
100
AcDbEntity
  8
0-4_枠
  6
Continuous
 62
    92
370
    13
100
AcDbLine
 10
-1981.201717325969
 20
2777.999683277027
 30
0.0
 11
-2041.201717325969
 21
2777.999683277027
 31
0.0
  0
LINE
  5
1BF
330
1F
100
AcDbEntity
  8
0-4_枠
  6
Continuous
 62
    92
370
    13
100
AcDbLine
 10
-2095.201717325968
 20
2777.999683277027
 30
0.0
 11
-2095.201717325968
 21
2717.999683277027
 31
0.0
  0
LINE
  5
1C0
330
1F
100
AcDbEntity
  8
0-4_枠
  6
Continuous
 62
    92
370
    13
100
AcDbLine
 10
-2125.201717325968
 20
2777.999683277027
 30
0.0
 11
-2095.201717325968
 21
2777.999683277027
 31
0.0
  0
LINE
  5
1C1
330
1F
100
AcDbEntity
  8
0-4_枠
  6
Continuous
 62
    92
370
    13
100
AcDbLine
 10
-2095.201717325968
 20
2717.999683277027
 30
0.0
 11
-2041.201717325969
 21
2717.999683277027
 31
0.0
  0
LINE
  5
1C2
330
1F
100
AcDbEntity
  8
0-4_枠
  6
Continuous
 62
    92
370
    13
100
AcDbLine
 10
-2041.201717325969
 20
2159.999683277028
 30
0.0
 11
-2041.201717325969
 21
2099.999683277028
 31
0.0
  0
LINE
  5
1C3
330
1F
100
AcDbEntity
  8
0-4_枠
  6
Continuous
 62
    92
370
    13
100
AcDbLine
 10
-1984.20171732597
 20
2102.999683277027
 30
0.0
 11
-2041.201717325969
 21
2102.999683277027
 31
0.0
  0
LINE
  5
1C4
330
1F
100
AcDbEntity
  8
0-4_枠
  6
Continuous
 62
    92
370
    13
100
AcDbLine
 10
-1981.201717325969
 20
2099.999683277028
 30
0.0
 11
-2041.201717325969
 21
2099.999683277028
 31
0.0
  0
LINE
  5
1C5
330
1F
100
AcDbEntity
  8
0-4_枠
  6
Continuous
 62
    92
370
    13
100
AcDbLine
 10
-2125.201717325968
 20
2099.999683277028
 30
0.0
 11
-2095.201717325968
 21
2099.999683277028
 31
0.0
  0
LINE
  5
1C6
330
1F
100
AcDbEntity
  8
0-4_枠
  6
Continuous
 62
    92
370
    13
100
AcDbLine
 10
-2095.201717325968
 20
2159.999683277028
 30
0.0
 11
-2095.201717325968
 21
2099.999683277028
 31
0.0
  0
LINE
  5
1C7
330
1F
100
AcDbEntity
  8
0-4_枠
  6
Continuous
 62
    92
370
    13
100
AcDbLine
 10
-2095.201717325968
 20
2159.999683277028
 30
0.0
 11
-2041.201717325969
 21
2159.999683277028
 31
0.0
  0
LINE
  5
1C8
330
1F
100
AcDbEntity
  8
0-6_扉
  6
Continuous
 62
   200
370
    20
100
AcDbLine
 10
-1951.201717325969
 20
2345.999683277028
 30
0.0
 11
-1951.201717325969
 21
2129.999683277028
 31
0.0
  0
LINE
  5
1C9
330
1F
100
AcDbEntity
  8
0-4_枠
  6
Continuous
 62
    92
370
    13
100
AcDbLine
 10
-2125.201717325968
 20
2777.999683277027
 30
0.0
 11
-2125.201717325968
 21
2099.999683277028
 31
0.0
  0
LINE
  5
1CA
330
1F
100
AcDbEntity
  8
0-3_仕上げ
  6
Continuous
 62
     7
370
     9
100
AcDbLine
 10
-2155.201717325968
 20
2777.999683277027
 30
0.0
 11
-2155.201717325968
 21
2099.999683277028
 31
0.0
  0
LINE
  5
1CB
330
1F
100
AcDbEntity
  8
0-B_寸法
  6
Continuous
 62
   120
370
     5
100
AcDbLine
 10
-1658.582995699069
 20
2099.999683277028
 30
0.0
 11
-1658.582995699069
 21
2777.999683277027
 31
0.0
  0
LWPOLYLINE
  5
1CC
330
1F
100
AcDbEntity
  8
0-B_寸法
  6
Continuous
 62
     7
370
     9
100
AcDbPolyline
 90
        4
 70
     1
 43
6.0
 10
-1655.582995699069
 20
2099.999683277028
 42
0.4142135623731
 10
-1658.582995699069
 20
2102.999683277028
 42
0.4142135623731
 10
-1661.582995699069
 20
2099.999683277028
 42
0.4142135623731
 10
-1658.582995699069
 20
2096.999683277028
 42
0.4142135623731
  0
LINE
  5
1CD
330
1F
100
AcDbEntity
  8
0-B_寸法
  6
Continuous
 62
   120
370
     5
100
AcDbLine
 10
-1850.042404020966
 20
2099.999683277028
 30
0.0
 11
-1658.582995699069
 21
2099.999683277028
 31
0.0
  0
LWPOLYLINE
  5
1CE
330
1F
100
AcDbEntity
  8
0-B_寸法
  6
Continuous
 62
     7
370
     9
100
AcDbPolyline
 90
        4
 70
     1
 43
6.0
 10
-1655.582995699069
 20
2777.999683277027
 42
0.4142135623731
 10
-1658.582995699069
 20
2780.999683277027
 42
0.4142135623731
 10
-1661.582995699069
 20
2777.999683277027
 42
0.4142135623731
 10
-1658.582995699069
 20
2774.999683277027
 42
0.4142135623731
  0
LINE
  5
1CF
330
1F
100
AcDbEntity
  8
0-B_寸法
  6
Continuous
 62
   120
370
     5
100
AcDbLine
 10
-1850.042404020966
 20
2777.999683277027
 30
0.0
 11
-1658.582995699069
 21
2777.999683277027
 31
0.0
  0
TEXT
  5
1D0
330
1F
100
AcDbEntity
  8
0-B_寸法
  6
Continuous
 62
     7
370
     0
100
AcDbText
 10
-1693.968964253547
 20
2355.137076243678
 30
0.0
 40
91.44
  1
113
 50
90.0
 41
1.083333333333333
  7
ＭＳ ゴシック
100
AcDbText
  0
LINE
  5
1D1
330
1F
100
AcDbEntity
  8
0-7_金物
  6
Continuous
 62
     7
370
     9
100
AcDbLine
 10
-2128.201331319849
 20
2384.999653584247
 30
0.0
 11
-2125.201717325968
 21
2384.999653584247
 31
0.0
  0
LINE
  5
1D2
330
1F
100
AcDbEntity
  8
0-7_金物
  6
Continuous
 62
     7
370
     9
100
AcDbLine
 10
-2128.201331319849
 20
2492.999712969806
 30
0.0
 11
-2125.201717325968
 21
2492.999712969806
 31
0.0
  0
LINE
  5
1D3
330
1F
100
AcDbEntity
  8
0-7_金物
  6
Continuous
 62
     7
370
     9
100
AcDbLine
 10
-2140.201296678275
 20
2528.999980204815
 30
0.0
 11
-2140.201296678275
 21
2349.000128668707
 31
0.0
  0
LINE
  5
1D4
330
1F
100
AcDbEntity
  8
0-7_金物
  6
Continuous
 62
     7
370
     9
100
AcDbLine
 10
-2155.201717325968
 20
2528.999980204815
 30
0.0
 11
-2155.201717325968
 21
2349.000128668707
 31
0.0
  0
LINE
  5
1D5
330
1F
100
AcDbEntity
  8
0-7_金物
  6
Continuous
 62
     7
370
     9
100
AcDbLine
 10
-2140.201296678275
 20
2498.999881228884
 30
0.0
 11
-2128.201331319849
 21
2498.999881228884
 31
0.0
  0
LINE
  5
1D6
330
1F
100
AcDbEntity
  8
0-7_金物
  6
Continuous
 62
     7
370
     9
100
AcDbLine
 10
-2140.201296678275
 20
2379.000227644638
 30
0.0
 11
-2128.201331319849
 21
2379.000227644638
 31
0.0
  0
LINE
  5
1D7
330
1F
100
AcDbEntity
  8
0-7_金物
  6
Continuous
 62
     7
370
     9
100
AcDbLine
 10
-2128.201331319849
 20
2498.999881228884
 30
0.0
 11
-2128.201331319849
 21
2379.000227644638
 31
0.0
  0
LINE
  5
1D8
330
1F
100
AcDbEntity
  8
0-7_金物
  6
Continuous
 62
     7
370
     9
100
AcDbLine
 10
-2155.201717325968
 20
2528.999980204815
 30
0.0
 11
-2140.201296678275
 21
2528.999980204815
 31
0.0
  0
LINE
  5
1D9
330
1F
100
AcDbEntity
  8
0-7_金物
  6
Continuous
 62
     7
370
     9
100
AcDbLine
 10
-2155.201717325968
 20
2349.000128668707
 30
0.0
 11
-2140.201296678275
 21
2349.000128668707
 31
0.0
  0
LINE
  5
1DA
330
1F
100
AcDbEntity
  8
0-6_扉
  6
JWW_DASHED2
 62
   200
370
    20
100
AcDbLine
 10
1857.069878982496
 20
2009.448156947589
 30
0.0
 11
1857.069878982496
 21
1920.000197957027
 31
0.0
  0
LINE
  5
1DB
330
1F
100
AcDbEntity
  8
0-6_扉
  6
JWW_DASHED2
 62
   200
370
    20
100
AcDbLine
 10
1641.069878982496
 20
2009.448156947589
 30
0.0
 11
1641.069878982496
 21
1920.000197957027
 31
0.0
  0
LINE
  5
1DC
330
1F
100
AcDbEntity
  8
0-6_扉
  6
JWW_DASHED2
 62
   200
370
    20
100
AcDbLine
 10
1641.069878982496
 20
2009.448156947589
 30
0.0
 11
1857.069878982496
 21
2009.448156947589
 31
0.0
  0
CIRCLE
  5
1DD
330
1F
100
AcDbEntity
  8
0-7_金物
  6
Continuous
 62
     7
370
     9
100
AcDbCircle
 10
1983.330104162264
 20
2003.739458097259
 30
0.0
 40
30.0
  0
CIRCLE
  5
1DE
330
1F
100
AcDbEntity
  8
0-7_金物
  6
Continuous
 62
     7
370
     9
100
AcDbCircle
 10
1983.330104162264
 20
2003.739458097259
 30
0.0
 40
21.00000000000001
  0
LINE
  5
1DF
330
1F
100
AcDbEntity
  8
0-0_補助線
  6
JWW_HOJO
 62
   120
370
     5
100
AcDbLine
 10
2475.038803120942
 20
2852.768662177449
 30
0.0
 11
-2455.201717519063
 21
2852.768662177449
 31
0.0
  0
LINE
  5
1E0
330
1F
100
AcDbEntity
  8
0-0_補助線
  6
JWW_HOJO
 62
   120
370
     5
100
AcDbLine
 10
2475.038803120942
 20
2237.999683277027
 30
0.0
 11
-2455.201717519063
 21
2237.999683277027
 31
0.0
  0
LINE
  5
1E1
330
1F
100
AcDbEntity
  8
0-0_補助線
  6
JWW_HOJO
 62
   120
370
     5
100
AcDbLine
 10
2475.038803120942
 20
1920.000197957027
 30
0.0
 11
-2455.201717519063
 21
1920.000197957027
 31
0.0
  0
LINE
  5
1E2
330
1F
100
AcDbEntity
  8
0-0_補助線
  6
JWW_HOJO
 62
   120
370
     5
100
AcDbLine
 10
78.91854284331743
 20
1838.999683277026
 30
0.0
 11
78.91854284331743
 21
2636.999683277026
 31
0.0
  0
LINE
  5
1E3
330
1F
100
AcDbEntity
  8
0-0_補助線
  6
JWW_HOJO
 62
   120
370
     5
100
AcDbLine
 10
-41.08145715668257
 20
1838.999683277026
 30
0.0
 11
-41.08145715668257
 21
2636.999683277026
 31
0.0
  0
LINE
  5
1E4
330
1F
100
AcDbEntity
  8
0-B_寸法
  6
Continuous
 62
   120
370
     5
100
AcDbLine
 10
1641.069878982496
 20
1560.000197957027
 30
0.0
 11
1641.069878982496
 21
1920.000197957027
 31
0.0
  0
LWPOLYLINE
  5
1E5
330
1F
100
AcDbEntity
  8
0-B_寸法
  6
Continuous
 62
     7
370
     9
100
AcDbPolyline
 90
        4
 70
     1
 43
6.0
 10
1644.069878982496
 20
1560.000197957027
 42
0.4142135623731
 10
1641.069878982496
 20
1563.000197957027
 42
0.4142135623731
 10
1638.069878982496
 20
1560.000197957027
 42
0.4142135623731
 10
1641.069878982496
 20
1557.000197957027
 42
0.4142135623731
  0
LINE
  5
1E6
330
1F
100
AcDbEntity
  8
0-B_寸法
  6
Continuous
 62
   120
370
     5
100
AcDbLine
 10
-1921.201717325972
 20
1560.000197957027
 30
0.0
 11
1641.069878982496
 21
1560.000197957027
 31
0.0
  0
LINE
  5
1E7
330
1F
100
AcDbEntity
  8
0-B_寸法
  6
Continuous
 62
   120
370
     5
100
AcDbLine
 10
-1921.201717325972
 20
1560.000197957027
 30
0.0
 11
-1921.201717325972
 21
1920.000197957027
 31
0.0
  0
LWPOLYLINE
  5
1E8
330
1F
100
AcDbEntity
  8
0-B_寸法
  6
Continuous
 62
     7
370
     9
100
AcDbPolyline
 90
        4
 70
     1
 43
6.0
 10
-1918.201717325972
 20
1560.000197957027
 42
0.4142135623731
 10
-1921.201717325972
 20
1563.000197957027
 42
0.4142135623731
 10
-1924.201717325972
 20
1560.000197957027
 42
0.4142135623731
 10
-1921.201717325972
 20
1557.000197957027
 42
0.4142135623731
  0
LINE
  5
1E9
330
1F
100
AcDbEntity
  8
0-0_補助線
  6
JWW_HOJO
 62
   120
370
     5
100
AcDbLine
 10
2475.038803120942
 20
1560.000197957027
 30
0.0
 11
-2455.201717519063
 21
1560.000197957027
 31
0.0
  0
LINE
  5
1EA
330
1F
100
AcDbEntity
  8
0-0_補助線
  6
JWW_HOJO
 62
   120
370
     5
100
AcDbLine
 10
2475.038803120942
 20
1350.000197957027
 30
0.0
 11
-2455.201717519063
 21
1350.000197957027
 31
0.0
  0
LINE
  5
1EB
330
1F
100
AcDbEntity
  8
0-0_補助線
  6
JWW_HOJO
 62
   120
370
     5
100
AcDbLine
 10
2475.038803120942
 20
1140.000197957027
 30
0.0
 11
-2455.201717519063
 21
1140.000197957027
 31
0.0
  0
LINE
  5
1EC
330
1F
100
AcDbEntity
  8
0-0_補助線
  6
JWW_HOJO
 62
   120
370
     5
100
AcDbLine
 10
2475.038803120942
 20
930.0001979570266
 30
0.0
 11
-2455.201717519063
 21
930.0001979570266
 31
0.0
  0
LINE
  5
1ED
330
1F
100
AcDbEntity
  8
0-B_寸法
  6
Continuous
 62
   120
370
     5
100
AcDbLine
 10
-2155.201717325961
 20
720.0001979570266
 30
0.0
 11
-2155.201717325961
 21
1920.000197957027
 31
0.0
  0
LINE
  5
1EE
330
1F
100
AcDbEntity
  8
0-B_寸法
  6
Continuous
 62
   120
370
     5
100
AcDbLine
 10
2175.038803012593
 20
720.0001979570266
 30
0.0
 11
2175.038803012593
 21
1920.000197957027
 31
0.0
  0
LINE
  5
1EF
330
1F
100
AcDbEntity
  8
0-B_寸法
  6
Continuous
 62
   120
370
     5
100
AcDbLine
 10
2175.038803012593
 20
720.0001979570266
 30
0.0
 11
-2155.201717325961
 21
720.0001979570266
 31
0.0
  0
LWPOLYLINE
  5
1F0
330
1F
100
AcDbEntity
  8
0-B_寸法
  6
Continuous
 62
     7
370
     9
100
AcDbPolyline
 90
        4
 70
     1
 43
6.0
 10
-2152.201717325961
 20
720.0001979570266
 42
0.4142135623731
 10
-2155.201717325961
 20
723.0001979570266
 42
0.4142135623731
 10
-2158.201717325961
 20
720.0001979570266
 42
0.4142135623731
 10
-2155.201717325961
 20
717.0001979570266
 42
0.4142135623731
  0
LWPOLYLINE
  5
1F1
330
1F
100
AcDbEntity
  8
0-B_寸法
  6
Continuous
 62
     7
370
     9
100
AcDbPolyline
 90
        4
 70
     1
 43
6.0
 10
2178.038803012593
 20
720.0001979570266
 42
0.4142135623731
 10
2175.038803012593
 20
723.0001979570266
 42
0.4142135623731
 10
2172.038803012593
 20
720.0001979570266
 42
0.4142135623731
 10
2175.038803012593
 20
717.0001979570266
 42
0.4142135623731
  0
LINE
  5
1F2
330
1F
100
AcDbEntity
  8
0-1_通り芯
  6
JWW_CENTER1
 62
   120
370
     5
100
AcDbLine
 10
-2155.201717325961
 20
2777.999683277027
 30
0.0
 11
-2155.201717325961
 21
930.0001979570266
 31
0.0
  0
LINE
  5
1F3
330
1F
100
AcDbEntity
  8
0-B_寸法
  6
Continuous
 62
   120
370
     5
100
AcDbLine
 10
-2125.201717325961
 20
930.0001979570266
 30
0.0
 11
-2125.201717325961
 21
1920.000197957027
 31
0.0
  0
LINE
  5
1F4
330
1F
100
AcDbEntity
  8
0-1_通り芯
  6
JWW_CENTER1
 62
   120
370
     5
100
AcDbLine
 10
2175.038803012593
 20
2777.999683277027
 30
0.0
 11
2175.038803012593
 21
930.0001979570266
 31
0.0
  0
LINE
  5
1F5
330
1F
100
AcDbEntity
  8
0-B_寸法
  6
Continuous
 62
   120
370
     5
100
AcDbLine
 10
2145.038803012593
 20
930.0001979570266
 30
0.0
 11
2145.038803012593
 21
1920.000197957027
 31
0.0
  0
LINE
  5
1F6
330
1F
100
AcDbEntity
  8
0-B_寸法
  6
Continuous
 62
   120
370
     5
100
AcDbLine
 10
-2155.201717325961
 20
930.0001979570266
 30
0.0
 11
2175.038803012593
 21
930.0001979570266
 31
0.0
  0
LWPOLYLINE
  5
1F7
330
1F
100
AcDbEntity
  8
0-B_寸法
  6
Continuous
 62
     7
370
     9
100
AcDbPolyline
 90
        4
 70
     1
 43
6.0
 10
-2152.201717325961
 20
930.0001979570266
 42
0.4142135623731
 10
-2155.201717325961
 20
933.0001979570266
 42
0.4142135623731
 10
-2158.201717325961
 20
930.0001979570266
 42
0.4142135623731
 10
-2155.201717325961
 20
927.0001979570266
 42
0.4142135623731
  0
LWPOLYLINE
  5
1F8
330
1F
100
AcDbEntity
  8
0-B_寸法
  6
Continuous
 62
     7
370
     9
100
AcDbPolyline
 90
        4
 70
     1
 43
6.0
 10
-2122.201717325961
 20
930.0001979570266
 42
0.4142135623731
 10
-2125.201717325961
 20
933.0001979570266
 42
0.4142135623731
 10
-2128.201717325961
 20
930.0001979570266
 42
0.4142135623731
 10
-2125.201717325961
 20
927.0001979570266
 42
0.4142135623731
  0
LWPOLYLINE
  5
1F9
330
1F
100
AcDbEntity
  8
0-B_寸法
  6
Continuous
 62
     7
370
     9
100
AcDbPolyline
 90
        4
 70
     1
 43
6.0
 10
2178.038803012593
 20
930.0001979570266
 42
0.4142135623731
 10
2175.038803012593
 20
933.0001979570266
 42
0.4142135623731
 10
2172.038803012593
 20
930.0001979570266
 42
0.4142135623731
 10
2175.038803012593
 20
927.0001979570266
 42
0.4142135623731
  0
LWPOLYLINE
  5
1FA
330
1F
100
AcDbEntity
  8
0-B_寸法
  6
Continuous
 62
     7
370
     9
100
AcDbPolyline
 90
        4
 70
     1
 43
6.0
 10
2148.038803012593
 20
930.0001979570266
 42
0.4142135623731
 10
2145.038803012593
 20
933.0001979570266
 42
0.4142135623731
 10
2142.038803012593
 20
930.0001979570266
 42
0.4142135623731
 10
2145.038803012593
 20
927.0001979570266
 42
0.4142135623731
  0
LINE
  5
1FB
330
1F
100
AcDbEntity
  8
0-B_寸法
  6
Continuous
 62
   120
370
     5
100
AcDbLine
 10
-1981.201717325959
 20
1140.000197957027
 30
0.0
 11
-1981.201717325959
 21
1920.000197957027
 31
0.0
  0
LINE
  5
1FC
330
1F
100
AcDbEntity
  8
0-B_寸法
  6
Continuous
 62
   120
370
     5
100
AcDbLine
 10
2001.038803012593
 20
1140.000197957027
 30
0.0
 11
2001.038803012593
 21
1920.000197957027
 31
0.0
  0
LINE
  5
1FD
330
1F
100
AcDbEntity
  8
0-B_寸法
  6
Continuous
 62
   120
370
     5
100
AcDbLine
 10
-2125.201717325961
 20
1140.000197957027
 30
0.0
 11
2145.038803012593
 21
1140.000197957027
 31
0.0
  0
LWPOLYLINE
  5
1FE
330
1F
100
AcDbEntity
  8
0-B_寸法
  6
Continuous
 62
     7
370
     9
100
AcDbPolyline
 90
        4
 70
     1
 43
6.0
 10
-1978.201717325959
 20
1140.000197957027
 42
0.4142135623731
 10
-1981.201717325959
 20
1143.000197957027
 42
0.4142135623731
 10
-1984.201717325958
 20
1140.000197957027
 42
0.4142135623731
 10
-1981.201717325959
 20
1137.000197957027
 42
0.4142135623731
  0
LWPOLYLINE
  5
1FF
330
1F
100
AcDbEntity
  8
0-B_寸法
  6
Continuous
 62
     7
370
     9
100
AcDbPolyline
 90
        4
 70
     1
 43
6.0
 10
-2122.201717325961
 20
1140.000197957027
 42
0.4142135623731
 10
-2125.201717325961
 20
1143.000197957027
 42
0.4142135623731
 10
-2128.201717325961
 20
1140.000197957027
 42
0.4142135623731
 10
-2125.201717325961
 20
1137.000197957027
 42
0.4142135623731
  0
LWPOLYLINE
  5
200
330
1F
100
AcDbEntity
  8
0-B_寸法
  6
Continuous
 62
     7
370
     9
100
AcDbPolyline
 90
        4
 70
     1
 43
6.0
 10
2148.038803012593
 20
1140.000197957027
 42
0.4142135623731
 10
2145.038803012593
 20
1143.000197957027
 42
0.4142135623731
 10
2142.038803012593
 20
1140.000197957027
 42
0.4142135623731
 10
2145.038803012593
 20
1137.000197957027
 42
0.4142135623731
  0
LWPOLYLINE
  5
201
330
1F
100
AcDbEntity
  8
0-B_寸法
  6
Continuous
 62
     7
370
     9
100
AcDbPolyline
 90
        4
 70
     1
 43
6.0
 10
2004.038803012593
 20
1140.000197957027
 42
0.4142135623731
 10
2001.038803012593
 20
1143.000197957027
 42
0.4142135623731
 10
1998.038803012593
 20
1140.000197957027
 42
0.4142135623731
 10
2001.038803012593
 20
1137.000197957027
 42
0.4142135623731
  0
LINE
  5
202
330
1F
100
AcDbEntity
  8
0-B_寸法
  6
Continuous
 62
   120
370
     5
100
AcDbLine
 10
-1951.201717325959
 20
1350.000197957027
 30
0.0
 11
-1951.201717325959
 21
1920.000197957027
 31
0.0
  0
LINE
  5
203
330
1F
100
AcDbEntity
  8
0-B_寸法
  6
Continuous
 62
   120
370
     5
100
AcDbLine
 10
1989.038803012593
 20
1350.000197957027
 30
0.0
 11
1989.038803012593
 21
1920.000197957027
 31
0.0
  0
LINE
  5
204
330
1F
100
AcDbEntity
  8
0-B_寸法
  6
Continuous
 62
   120
370
     5
100
AcDbLine
 10
-1981.201717325959
 20
1350.000197957027
 30
0.0
 11
2001.038803012593
 21
1350.000197957027
 31
0.0
  0
LWPOLYLINE
  5
205
330
1F
100
AcDbEntity
  8
0-B_寸法
  6
Continuous
 62
     7
370
     9
100
AcDbPolyline
 90
        4
 70
     1
 43
6.0
 10
-1948.201717325959
 20
1350.000197957027
 42
0.4142135623731
 10
-1951.201717325959
 20
1353.000197957027
 42
0.4142135623731
 10
-1954.201717325958
 20
1350.000197957027
 42
0.4142135623731
 10
-1951.201717325959
 20
1347.000197957027
 42
0.4142135623731
  0
LWPOLYLINE
  5
206
330
1F
100
AcDbEntity
  8
0-B_寸法
  6
Continuous
 62
     7
370
     9
100
AcDbPolyline
 90
        4
 70
     1
 43
6.0
 10
-1978.201717325959
 20
1350.000197957027
 42
0.4142135623731
 10
-1981.201717325959
 20
1353.000197957027
 42
0.4142135623731
 10
-1984.201717325958
 20
1350.000197957027
 42
0.4142135623731
 10
-1981.201717325959
 20
1347.000197957027
 42
0.4142135623731
  0
LWPOLYLINE
  5
207
330
1F
100
AcDbEntity
  8
0-B_寸法
  6
Continuous
 62
     7
370
     9
100
AcDbPolyline
 90
        4
 70
     1
 43
6.0
 10
1992.038803012593
 20
1350.000197957027
 42
0.4142135623731
 10
1989.038803012593
 20
1353.000197957027
 42
0.4142135623731
 10
1986.038803012594
 20
1350.000197957027
 42
0.4142135623731
 10
1989.038803012593
 20
1347.000197957027
 42
0.4142135623731
  0
LWPOLYLINE
  5
208
330
1F
100
AcDbEntity
  8
0-B_寸法
  6
Continuous
 62
     7
370
     9
100
AcDbPolyline
 90
        4
 70
     1
 43
6.0
 10
2004.038803012593
 20
1350.000197957027
 42
0.4142135623731
 10
2001.038803012593
 20
1353.000197957027
 42
0.4142135623731
 10
1998.038803012593
 20
1350.000197957027
 42
0.4142135623731
 10
2001.038803012593
 20
1347.000197957027
 42
0.4142135623731
  0
LINE
  5
209
330
1F
100
AcDbEntity
  8
0-0_補助線
  6
JWW_HOJO
 62
   120
370
     5
100
AcDbLine
 10
2475.038803120942
 20
720.0001979570266
 30
0.0
 11
2475.038803120942
 21
2852.768662177449
 31
0.0
  0
LINE
  5
20A
330
1F
100
AcDbEntity
  8
0-0_補助線
  6
JWW_HOJO
 62
   120
370
     5
100
AcDbLine
 10
2475.038803120942
 20
720.0001979570266
 30
0.0
 11
-2455.201717519063
 21
720.0001979570266
 31
0.0
  0
LINE
  5
20B
330
1F
100
AcDbEntity
  8
0-0_補助線
  6
JWW_HOJO
 62
   120
370
     5
100
AcDbLine
 10
-2455.201717519063
 20
720.0001979570266
 30
0.0
 11
-2455.201717519063
 21
2852.768662177449
 31
0.0
  0
TEXT
  5
20C
330
1F
100
AcDbEntity
  8
0-A_文字
  6
Continuous
 62
     7
370
     9
100
AcDbText
 10
1981.129399059381
 20
1955.55151584918
 30
0.0
 40
91.44
  1
（丁番側）
 41
1.1
  7
ＭＳ ゴシック
100
AcDbText
  0
TEXT
  5
20D
330
1F
100
AcDbEntity
  8
0-A_文字
  6
Continuous
 62
     7
370
     9
100
AcDbText
 10
1644.263367265547
 20
563.193147911102
 30
0.0
 40
68.58
  1
※図示：右吊り元
  7
ＭＳ ゴシック
100
AcDbText
  0
TEXT
  5
20E
330
1F
100
AcDbEntity
  8
0-B_寸法
  6
Continuous
 62
     7
370
     0
100
AcDbText
 10
-1946.70171732596
 20
1378.920197957027
 30
0.0
 40
91.44
  1
5
  7
ＭＳ ゴシック
100
AcDbText
  0
TEXT
  5
20F
330
1F
100
AcDbEntity
  8
0-B_寸法
  6
Continuous
 62
     7
370
     0
100
AcDbText
 10
1924.538803012595
 20
1378.920197957027
 30
0.0
 40
91.44
  1
2
  7
ＭＳ ゴシック
100
AcDbText
  0
TEXT
  5
210
330
1F
100
AcDbEntity
  8
0-B_寸法
  6
Continuous
 62
     7
370
   211
100
AcDbText
 10
-2116.951717325962
 20
1171.920197957027
 30
0.0
 40
91.44
  1
24
 41
1.0625
  7
ＭＳ ゴシック
100
AcDbText
  0
TEXT
  5
211
330
1F
100
AcDbEntity
  8
0-B_寸法
  6
Continuous
 62
     7
370
   211
100
AcDbText
 10
2009.288803012593
 20
1171.920197957027
 30
0.0
 40
91.44
  1
24
 41
1.0625
  7
ＭＳ ゴシック
100
AcDbText
  0
TEXT
  5
212
330
1F
100
AcDbEntity
  8
0-B_寸法
  6
Continuous
 62
     7
370
   211
100
AcDbText
 10
-2170.201717325961
 20
961.9201979570265
 30
0.0
 40
91.44
  1
5
  7
ＭＳ ゴシック
100
AcDbText
  0
TEXT
  5
213
330
1F
100
AcDbEntity
  8
0-B_寸法
  6
Continuous
 62
     7
370
   211
100
AcDbText
 10
2130.038803012594
 20
961.9201979570265
 30
0.0
 40
91.44
  1
5
  7
ＭＳ ゴシック
100
AcDbText
  0
TEXT
  5
214
330
1F
100
AcDbEntity
  8
0-B_寸法
  6
Continuous
 62
     7
370
   211
100
AcDbText
 10
-1197.581457156684
 20
1591.920197957027
 30
0.0
 40
91.44
  1
有効開口寸法＝730（660）<640>［617］
 41
1.118055555555556
  7
ＭＳ ゴシック
100
AcDbText
  0
TEXT
  5
215
330
1F
100
AcDbEntity
  8
0-B_寸法
  6
Continuous
 62
     7
370
     0
100
AcDbText
 10
-927.5814571566838
 20
1385.835329582353
 30
0.0
 40
91.44
  1
ＤＷ＝793（723）<703>［680］
 41
1.116071428571429
  7
ＭＳ ゴシック
100
AcDbText
  0
TEXT
  5
216
330
1F
100
AcDbEntity
  8
0-B_寸法
  6
Continuous
 62
     7
370
   211
100
AcDbText
 10
-927.5814571566838
 20
1171.920197957027
 30
0.0
 40
91.44
  1
枠内＝800（730）<710>［687］
 41
1.116071428571429
  7
ＭＳ ゴシック
100
AcDbText
  0
TEXT
  5
217
330
1F
100
AcDbEntity
  8
0-B_寸法
  6
Continuous
 62
     7
370
     0
100
AcDbText
 10
-927.5814571566838
 20
954.7587446185241
 30
0.0
 40
91.44
  1
枠外＝848（778）<758>［735］
 41
1.116071428571429
  7
ＭＳ ゴシック
100
AcDbText
  0
TEXT
  5
218
330
1F
100
AcDbEntity
  8
0-B_寸法
  6
Continuous
 62
     7
370
   211
100
AcDbText
 10
-995.0814571566838
 20
751.9201979570265
 30
0.0
 40
91.44
  1
ＲＯＷ＝858（788）<768>［745］
 41
1.116666666666667
  7
ＭＳ ゴシック
100
AcDbText
  0
LINE
  5
219
330
1F
100
AcDbEntity
  8
0-A_文字
  6
Continuous
 62
    92
370
    13
100
AcDbLine
 10
4083.835838693025
 20
3730.000181455871
 30
0.0
 11
4083.835838693025
 21
2764.000181455872
 31
0.0
  0
LINE
  5
21A
330
1F
100
AcDbEntity
  8
0-A_文字
  6
Continuous
 62
    92
370
    13
100
AcDbLine
 10
4083.835838693025
 20
3604.000181455871
 30
0.0
 11
5679.835838693025
 21
3604.000181455871
 31
0.0
  0
LINE
  5
21B
330
1F
100
AcDbEntity
  8
0-A_文字
  6
Continuous
 62
    92
370
    13
100
AcDbLine
 10
5679.835838693025
 20
3730.000181455871
 30
0.0
 11
4083.835838693025
 21
3730.000181455871
 31
0.0
  0
LINE
  5
21C
330
1F
100
AcDbEntity
  8
0-A_文字
  6
Continuous
 62
    92
370
    13
100
AcDbLine
 10
5679.835838693025
 20
3730.000181455871
 30
0.0
 11
5679.835838693025
 21
2764.000181455872
 31
0.0
  0
LINE
  5
21D
330
1F
100
AcDbEntity
  8
0-A_文字
  6
Continuous
 62
    92
370
    13
100
AcDbLine
 10
5679.835838693025
 20
2764.000181455872
 30
0.0
 11
4083.835838693025
 21
2764.000181455872
 31
0.0
  0
LINE
  5
21E
330
1F
100
AcDbEntity
  8
0-A_文字
  6
Continuous
 62
    92
370
    13
100
AcDbLine
 10
4881.835838693025
 20
3730.000181455871
 30
0.0
 11
4881.835838693025
 21
2764.000181455872
 31
0.0
  0
LINE
  5
21F
330
1F
100
AcDbEntity
  8
0-0_補助線
  6
JWW_HOJO
 62
   120
370
     5
100
AcDbLine
 10
5658.835838693025
 20
3730.000181455871
 30
0.0
 11
5658.835838693025
 21
2764.000181455872
 31
0.0
  0
LINE
  5
220
330
1F
100
AcDbEntity
  8
0-0_補助線
  6
JWW_HOJO
 62
   120
370
     5
100
AcDbLine
 10
4902.835838693025
 20
3730.000181455871
 30
0.0
 11
4902.835838693025
 21
2764.000181455872
 31
0.0
  0
LINE
  5
221
330
1F
100
AcDbEntity
  8
0-8_戸当
  6
Continuous
 62
    40
370
    15
100
AcDbLine
 10
5436.235838693025
 20
3481.846273380329
 30
0.0
 11
5658.835838693025
 21
3481.846273380329
 31
0.0
  0
LINE
  5
222
330
1F
100
AcDbEntity
  8
0-8_戸当
  6
Continuous
 62
    40
370
    15
100
AcDbLine
 10
5436.235838693025
 20
3481.846273380329
 30
0.0
 11
5436.235838693025
 21
3444.046273380329
 31
0.0
  0
LINE
  5
223
330
1F
100
AcDbEntity
  8
0-8_戸当
  6
Continuous
 62
    40
370
    15
100
AcDbLine
 10
5125.435838693025
 20
3481.846273380329
 30
0.0
 11
4902.835838693025
 21
3481.846273380329
 31
0.0
  0
LINE
  5
224
330
1F
100
AcDbEntity
  8
0-8_戸当
  6
Continuous
 62
    40
370
    15
100
AcDbLine
 10
4638.235838693025
 20
3481.846273380329
 30
0.0
 11
4860.835838693025
 21
3481.846273380329
 31
0.0
  0
LINE
  5
225
330
1F
100
AcDbEntity
  8
0-8_戸当
  6
Continuous
 62
    40
370
    15
100
AcDbLine
 10
4327.435838693025
 20
3481.846273380329
 30
0.0
 11
4327.435838693025
 21
3444.046273380329
 31
0.0
  0
LINE
  5
226
330
1F
100
AcDbEntity
  8
0-8_戸当
  6
Continuous
 62
    40
370
    15
100
AcDbLine
 10
4327.435838693025
 20
3481.846273380329
 30
0.0
 11
4104.835838693025
 21
3481.846273380329
 31
0.0
  0
LINE
  5
227
330
1F
100
AcDbEntity
  8
0-0_補助線
  6
JWW_HOJO
 62
   120
370
     5
100
AcDbLine
 10
4860.835838693025
 20
3730.000181455871
 30
0.0
 11
4860.835838693025
 21
2764.000181455872
 31
0.0
  0
LINE
  5
228
330
1F
100
AcDbEntity
  8
0-0_補助線
  6
JWW_HOJO
 62
   120
370
     5
100
AcDbLine
 10
4104.835838693025
 20
3730.000181455871
 30
0.0
 11
4104.835838693025
 21
2764.000181455872
 31
0.0
  0
LINE
  5
229
330
1F
100
AcDbEntity
  8
0-8_戸当
  6
Continuous
 62
    40
370
    15
100
AcDbLine
 10
4104.835838693025
 20
3444.046273380329
 30
0.0
 11
4860.835838693025
 21
3444.046273380329
 31
0.0
  0
LINE
  5
22A
330
1F
100
AcDbEntity
  8
0-8_戸当
  6
Continuous
 62
    40
370
    15
100
AcDbLine
 10
4638.235838693025
 20
3481.846273380329
 30
0.0
 11
4638.235838693025
 21
3133.246273380328
 31
0.0
  0
ARC
  5
22B
330
1F
100
AcDbEntity
  8
0-8_戸当
  6
Continuous
 62
    40
370
    15
100
AcDbCircle
 10
4638.235838693025
 20
3444.046273380329
 30
0.0
 40
310.8
100
AcDbArc
 50
180.0
 51
270.0
  0
LINE
  5
22C
330
1F
100
AcDbEntity
  8
0-8_戸当
  6
Continuous
 62
    40
370
    15
100
AcDbLine
 10
5658.835838693025
 20
3444.046273380329
 30
0.0
 11
4902.835838693025
 21
3444.046273380329
 31
0.0
  0
LINE
  5
22D
330
1F
100
AcDbEntity
  8
0-8_戸当
  6
Continuous
 62
    40
370
    15
100
AcDbLine
 10
5125.435838693025
 20
3481.846273380329
 30
0.0
 11
5125.435838693024
 21
3133.246273380328
 31
0.0
  0
ARC
  5
22E
330
1F
100
AcDbEntity
  8
0-8_戸当
  6
Continuous
 62
    40
370
    15
100
AcDbCircle
 10
5125.435838693024
 20
3444.046273380329
 30
0.0
 40
310.8
100
AcDbArc
 50
270.0
 51
0.0
  0
ELLIPSE
  5
22F
330
1F
100
AcDbEntity
  8
0-8_戸当
  6
Continuous
 62
    92
370
    13
100
AcDbEllipse
 10
5207.192036141518
 20
2972.884428393055
 30
0.0
 11
-17.7763823922528
 21
100.8148742797557
 31
0.0
210
0.0
220
0.0
230
1.0
 40
0.4000000000000001
 41
1.85063327265668
 42
2.442876790075129
  0
ELLIPSE
  5
230
330
1F
100
AcDbEntity
  8
0-8_戸当
  6
Continuous
 62
    92
370
    13
100
AcDbEllipse
 10
5207.192036141518
 20
2972.884428393055
 30
0.0
 11
-17.7763823922528
 21
100.8148742797557
 31
0.0
210
0.0
220
0.0
230
1.0
 40
0.4000000000000001
 41
3.840308517104467
 42
4.432552034522944
  0
ELLIPSE
  5
231
330
1F
100
AcDbEntity
  8
0-8_戸当
  6
Continuous
 62
    92
370
    13
100
AcDbEllipse
 10
5206.772290091617
 20
2975.264926534712
 30
0.0
 11
-14.67024424252691
 21
83.19908946199425
 31
0.0
210
0.0
220
0.0
230
1.0
 40
0.5
 41
4.340591432030095
 42
8.225779182329084
  0
LINE
  5
232
330
1F
100
AcDbEntity
  8
0-8_戸当
  6
Continuous
 62
    92
370
    13
100
AcDbLine
 10
5246.74191991428
 20
2900.267379069786
 30
0.0
 11
5194.863795824744
 21
2891.119866084259
 31
0.0
  0
LINE
  5
233
330
1F
100
AcDbEntity
  8
0-8_戸当
  6
Continuous
 62
    92
370
    13
100
AcDbLine
 10
5248.929886952883
 20
2887.858801381832
 30
0.0
 11
5197.051762863347
 21
2878.711288396305
 31
0.0
  0
ELLIPSE
  5
234
330
1F
100
AcDbEntity
  8
0-8_戸当
  6
Continuous
 62
    92
370
    13
100
AcDbEllipse
 10
5222.990824908115
 20
2883.285044889069
 30
0.0
 11
-7.622927487939132
 21
43.23177007461331
 31
0.0
210
0.0
220
0.0
230
1.0
 40
0.6
 41
1.570796326794897
 42
4.71238898038469
  0
ELLIPSE
  5
235
330
1F
100
AcDbEntity
  8
0-8_戸当
  6
Continuous
 62
    92
370
    13
100
AcDbEllipse
 10
5361.652805079395
 20
3008.935263882863
 30
0.0
 11
26.49533313827762
 21
98.88192943551533
 31
0.0
210
0.0
220
0.0
230
1.0
 40
0.4
 41
1.85063327265668
 42
2.442876790075129
  0
ELLIPSE
  5
236
330
1F
100
AcDbEntity
  8
0-8_戸当
  6
Continuous
 62
    92
370
    13
100
AcDbEllipse
 10
5361.652805079395
 20
3008.935263882863
 30
0.0
 11
26.49533313827762
 21
98.88192943551533
 31
0.0
210
0.0
220
0.0
230
1.0
 40
0.4
 41
3.840308517104467
 42
4.432552034522944
  0
ELLIPSE
  5
237
330
1F
100
AcDbEntity
  8
0-8_戸当
  6
Continuous
 62
    92
370
    13
100
AcDbEllipse
 10
5362.278427952497
 20
3011.270120231655
 30
0.0
 11
21.86569797210526
 21
81.6038957748525
 31
0.0
210
0.0
220
0.0
230
1.0
 40
0.5
 41
4.340591432030095
 42
8.225779182329084
  0
LINE
  5
238
330
1F
100
AcDbEntity
  8
0-8_戸当
  6
Continuous
 62
    92
370
    13
100
AcDbLine
 10
5366.807881561305
 20
2926.407363477468
 30
0.0
 11
5315.924427684911
 21
2940.041543851754
 31
0.0
  0
LINE
  5
239
330
1F
100
AcDbEntity
  8
0-8_戸当
  6
Continuous
 62
    92
370
    13
100
AcDbLine
 10
5363.546761593014
 20
2914.236698066226
 30
0.0
 11
5312.66330771662
 21
2927.870878440512
 31
0.0
  0
ELLIPSE
  5
23A
330
1F
100
AcDbEntity
  8
0-8_戸当
  6
Continuous
 62
    92
370
    13
100
AcDbEllipse
 10
5338.105034654817
 20
2921.053788253369
 30
0.0
 11
11.36181697857171
 21
42.40287823032828
 31
0.0
210
0.0
220
0.0
230
1.0
 40
0.6
 41
1.570796326794897
 42
4.71238898038469
  0
LINE
  5
23B
330
1F
100
AcDbEntity
  8
0-0_補助線
  6
JWW_HOJO
 62
   120
370
     5
100
AcDbLine
 10
5280.835838693025
 20
3730.000181455871
 30
0.0
 11
5280.835838693025
 21
2764.000181455872
 31
0.0
  0
LINE
  5
23C
330
1F
100
AcDbEntity
  8
0-0_補助線
  6
JWW_HOJO
 62
   120
370
     5
100
AcDbLine
 10
4482.835838693024
 20
3730.000181455871
 30
0.0
 11
4482.835838693024
 21
2764.000181455872
 31
0.0
  0
ELLIPSE
  5
23D
330
1F
100
AcDbEntity
  8
0-8_戸当
  6
Continuous
 62
    92
370
    13
100
AcDbEllipse
 10
4409.192036141518
 20
2972.884428393055
 30
0.0
 11
-17.7763823922528
 21
100.8148742797557
 31
0.0
210
0.0
220
0.0
230
1.0
 40
0.4000000000000001
 41
1.85063327265668
 42
2.442876790075129
  0
ELLIPSE
  5
23E
330
1F
100
AcDbEntity
  8
0-8_戸当
  6
Continuous
 62
    92
370
    13
100
AcDbEllipse
 10
4409.192036141518
 20
2972.884428393055
 30
0.0
 11
-17.7763823922528
 21
100.8148742797557
 31
0.0
210
0.0
220
0.0
230
1.0
 40
0.4000000000000001
 41
3.840308517104467
 42
4.432552034522944
  0
ELLIPSE
  5
23F
330
1F
100
AcDbEntity
  8
0-8_戸当
  6
Continuous
 62
    92
370
    13
100
AcDbEllipse
 10
4408.772290091617
 20
2975.264926534712
 30
0.0
 11
-14.67024424252691
 21
83.19908946199425
 31
0.0
210
0.0
220
0.0
230
1.0
 40
0.5
 41
4.340591432030095
 42
8.225779182329084
  0
LINE
  5
240
330
1F
100
AcDbEntity
  8
0-8_戸当
  6
Continuous
 62
    92
370
    13
100
AcDbLine
 10
4448.741919914279
 20
2900.267379069786
 30
0.0
 11
4396.863795824744
 21
2891.119866084259
 31
0.0
  0
LINE
  5
241
330
1F
100
AcDbEntity
  8
0-8_戸当
  6
Continuous
 62
    92
370
    13
100
AcDbLine
 10
4450.929886952883
 20
2887.858801381832
 30
0.0
 11
4399.051762863347
 21
2878.711288396305
 31
0.0
  0
ELLIPSE
  5
242
330
1F
100
AcDbEntity
  8
0-8_戸当
  6
Continuous
 62
    92
370
    13
100
AcDbEllipse
 10
4424.990824908115
 20
2883.285044889069
 30
0.0
 11
-7.622927487939132
 21
43.23177007461331
 31
0.0
210
0.0
220
0.0
230
1.0
 40
0.6
 41
1.570796326794897
 42
4.71238898038469
  0
ELLIPSE
  5
243
330
1F
100
AcDbEntity
  8
0-8_戸当
  6
Continuous
 62
    92
370
    13
100
AcDbEllipse
 10
4563.652805079395
 20
3008.935263882863
 30
0.0
 11
26.49533313827762
 21
98.88192943551533
 31
0.0
210
0.0
220
0.0
230
1.0
 40
0.4
 41
1.85063327265668
 42
2.442876790075129
  0
ELLIPSE
  5
244
330
1F
100
AcDbEntity
  8
0-8_戸当
  6
Continuous
 62
    92
370
    13
100
AcDbEllipse
 10
4563.652805079395
 20
3008.935263882863
 30
0.0
 11
26.49533313827762
 21
98.88192943551533
 31
0.0
210
0.0
220
0.0
230
1.0
 40
0.4
 41
3.840308517104467
 42
4.432552034522944
  0
ELLIPSE
  5
245
330
1F
100
AcDbEntity
  8
0-8_戸当
  6
Continuous
 62
    92
370
    13
100
AcDbEllipse
 10
4564.278427952496
 20
3011.270120231655
 30
0.0
 11
21.86569797210526
 21
81.6038957748525
 31
0.0
210
0.0
220
0.0
230
1.0
 40
0.5
 41
4.340591432030095
 42
8.225779182329084
  0
LINE
  5
246
330
1F
100
AcDbEntity
  8
0-8_戸当
  6
Continuous
 62
    92
370
    13
100
AcDbLine
 10
4568.807881561304
 20
2926.407363477468
 30
0.0
 11
4517.92442768491
 21
2940.041543851754
 31
0.0
  0
LINE
  5
247
330
1F
100
AcDbEntity
  8
0-8_戸当
  6
Continuous
 62
    92
370
    13
100
AcDbLine
 10
4565.546761593013
 20
2914.236698066226
 30
0.0
 11
4514.66330771662
 21
2927.870878440512
 31
0.0
  0
ELLIPSE
  5
248
330
1F
100
AcDbEntity
  8
0-8_戸当
  6
Continuous
 62
    92
370
    13
100
AcDbEllipse
 10
4540.105034654816
 20
2921.053788253369
 30
0.0
 11
11.36181697857171
 21
42.40287823032828
 31
0.0
210
0.0
220
0.0
230
1.0
 40
0.6
 41
1.570796326794897
 42
4.71238898038469
  0
TEXT
  5
249
330
1F
100
AcDbEntity
  8
0-A_文字
  6
Continuous
 62
     7
370
     9
100
AcDbText
 10
4083.835838693027
 20
3776.920181455871
 30
0.0
 40
91.44
  1
■吊り手方向
 41
1.104166666666667
  7
ＭＳ ゴシック
100
AcDbText
  0
TEXT
  5
24A
330
1F
100
AcDbEntity
  8
0-A_文字
  6
Continuous
 62
     7
370
     9
100
AcDbText
 10
4332.835838693026
 20
3634.690181455871
 30
0.0
 40
68.58
  1
右吊元
 41
1.111111111111111
  7
ＭＳ ゴシック
100
AcDbText
  0
TEXT
  5
24B
330
1F
100
AcDbEntity
  8
0-A_文字
  6
Continuous
 62
     7
370
     9
100
AcDbText
 10
5130.835838693025
 20
3634.690181455871
 30
0.0
 40
68.58
  1
左吊元
 41
1.111111111111111
  7
ＭＳ ゴシック
100
AcDbText
  0
LINE
  5
24C
330
1F
100
AcDbEntity
  8
F-0_補助線
  6
JWW_HOJO
 62
   120
370
     5
100
AcDbLine
 10
-6140.081333436773
 20
194.9998020481422
 30
0.0
 11
6159.917676803936
 21
194.9998020481422
 31
0.0
  0
LINE
  5
24D
330
1F
100
AcDbEntity
  8
F-0_補助線
  6
JWW_HOJO
 62
   120
370
     5
100
AcDbLine
 10
-5659.999495325861
 20
4424.999604096284
 30
0.0
 11
-5659.999495325861
 21
-4455.0
 31
0.0
  0
LINE
  5
24E
330
1F
100
AcDbEntity
  8
F-0_補助線
  6
JWW_HOJO
 62
   120
370
     5
100
AcDbLine
 10
-6140.081333436773
 20
2438.999683277028
 30
0.0
 11
6159.917676803936
 21
2438.999683277028
 31
0.0
  0
LINE
  5
24F
330
1F
100
AcDbEntity
  8
F-0_補助線
  6
JWW_HOJO
 62
   120
370
     5
100
AcDbLine
 10
-6140.081333436773
 20
-3159.000197951857
 30
0.0
 11
6159.917676803936
 21
-3159.000197951857
 31
0.0
  0
LINE
  5
250
330
1F
100
AcDbEntity
  8
F-0_補助線
  6
JWW_HOJO
 62
   120
370
     5
100
AcDbLine
 10
-200.0818283164182
 20
-4455.0
 30
0.0
 11
-200.0818283164182
 21
194.9998020481422
 31
0.0
  0
LINE
  5
251
330
1F
100
AcDbEntity
  8
F-0_補助線
  6
JWW_HOJO
 62
   120
370
     5
100
AcDbLine
 10
9.918171683581818
 20
-4455.0
 30
0.0
 11
9.918171683581818
 21
4424.999604096284
 31
0.0
  0
LINE
  5
252
330
1F
100
AcDbEntity
  8
F-0_補助線
  6
JWW_HOJO
 62
   120
370
     5
100
AcDbLine
 10
219.9181716835818
 20
-4455.0
 30
0.0
 11
219.9181716835818
 21
194.9998020481422
 31
0.0
  0
LINE
  5
253
330
1F
100
AcDbEntity
  8
F-0_補助線
  6
JWW_HOJO
 62
   120
370
     5
100
AcDbLine
 10
5679.835838693025
 20
4000.000181455871
 30
0.0
 11
5679.835838693025
 21
-4455.0
 31
0.0
  0
LINE
  5
254
330
1F
100
AcDbEntity
  8
F-0_補助線
  6
JWW_HOJO
 62
   120
370
     5
100
AcDbLine
 10
-6140.081333436773
 20
3730.000181455871
 30
0.0
 11
6159.917676803936
 21
3730.000181455871
 31
0.0
  0
LINE
  5
255
330
1F
100
AcDbEntity
  8
F-0_補助線
  6
JWW_HOJO
 62
   120
370
     5
100
AcDbLine
 10
-6140.081333436773
 20
4000.000181455871
 30
0.0
 11
6159.917676803936
 21
4000.000181455871
 31
0.0
  0
LWPOLYLINE
  5
256
330
1F
100
AcDbEntity
  8
0-B_寸法
  6
Continuous
 62
     7
370
     9
100
AcDbPolyline
 90
        4
 70
     1
 43
6.0
 10
733.6262195267731
 20
-659.3626323731974
 42
0.4142135623731
 10
730.6262195267731
 20
-656.3626323731974
 42
0.4142135623731
 10
727.626219526773
 20
-659.3626323731974
 42
0.4142135623731
 10
730.6262195267731
 20
-662.3626323731974
 42
0.4142135623731
  0
LWPOLYLINE
  5
257
330
1F
100
AcDbEntity
  8
0-B_寸法
  6
Continuous
 62
     7
370
     9
100
AcDbPolyline
 90
        4
 70
     1
 43
6.0
 10
1411.626219526774
 20
-659.3626323731974
 42
0.4142135623731
 10
1408.626219526774
 20
-656.3626323731974
 42
0.4142135623731
 10
1405.626219526774
 20
-659.3626323731974
 42
0.4142135623731
 10
1408.626219526774
 20
-662.3626323731974
 42
0.4142135623731
  0
LINE
  5
258
330
1F
100
AcDbEntity
  8
0-B_寸法
  6
Continuous
 62
   120
370
     5
100
AcDbLine
 10
1408.626219526774
 20
-659.3626323731974
 30
0.0
 11
730.6262195267731
 21
-659.3626323731974
 31
0.0
  0
LINE
  5
259
330
1F
100
AcDbEntity
  8
0-B_寸法
  6
Continuous
 62
   120
370
     5
100
AcDbLine
 10
730.6262195267731
 20
-659.3626323731974
 30
0.0
 11
730.6262195267731
 21
-809.3626323731974
 31
0.0
  0
LINE
  5
25A
330
1F
100
AcDbEntity
  8
0-B_寸法
  6
Continuous
 62
   120
370
     5
100
AcDbLine
 10
1408.626219526774
 20
-659.3626323731974
 30
0.0
 11
1408.626219526774
 21
-809.3626323731974
 31
0.0
  0
LWPOLYLINE
  5
25B
330
1F
100
AcDbEntity
  8
0-B_寸法
  6
Continuous
 62
     7
370
     9
100
AcDbPolyline
 90
        4
 70
     1
 43
6.0
 10
541.2795785471272
 20
-1174.718457142385
 42
0.4142135623731
 10
538.2795785471272
 20
-1171.718457142385
 42
0.4142135623731
 10
535.2795785471271
 20
-1174.718457142385
 42
0.4142135623731
 10
538.2795785471272
 20
-1177.718457142386
 42
0.4142135623731
  0
LINE
  5
25C
330
1F
100
AcDbEntity
  8
0-B_寸法
  6
Continuous
 62
   120
370
     5
100
AcDbLine
 10
538.2795785471272
 20
-1174.718457142385
 30
0.0
 11
658.2795785471272
 21
-1174.718457142385
 31
0.0
  0
LINE
  5
25D
330
1F
100
AcDbEntity
  8
0-A_文字
  6
Continuous
 62
     7
370
     9
100
AcDbLine
 10
1021.626219526773
 20
-1371.671452677512
 30
0.0
 11
1021.626219526773
 21
-1391.943530616153
 31
0.0
  0
LINE
  5
25E
330
1F
100
AcDbEntity
  8
0-A_文字
  6
Continuous
 62
     7
370
     9
100
AcDbLine
 10
1021.626219526773
 20
-1371.671452677512
 30
0.0
 11
1034.354141588132
 21
-1358.943530616153
 31
0.0
  0
LINE
  5
25F
330
1F
100
AcDbEntity
  8
0-A_文字
  6
Continuous
 62
     7
370
     9
100
AcDbLine
 10
1315.626219526773
 20
-1391.943530616153
 30
0.0
 11
1021.626219526773
 21
-1391.943530616153
 31
0.0
  0
LINE
  5
260
330
1F
100
AcDbEntity
  8
0-A_文字
  6
Continuous
 62
     7
370
     9
100
AcDbLine
 10
1315.626219526773
 20
-1371.671452677512
 30
0.0
 11
1315.626219526773
 21
-1391.943530616153
 31
0.0
  0
LINE
  5
261
330
1F
100
AcDbEntity
  8
0-A_文字
  6
Continuous
 62
     7
370
     9
100
AcDbLine
 10
1302.898297465414
 20
-1358.943530616153
 30
0.0
 11
1315.626219526773
 21
-1371.671452677512
 31
0.0
  0
LINE
  5
262
330
1F
100
AcDbEntity
  8
0-A_文字
  6
Continuous
 62
     7
370
     9
100
AcDbLine
 10
1159.626219526773
 20
-1358.943530616153
 30
0.0
 11
1034.354141588132
 21
-1358.943530616153
 31
0.0
  0
LINE
  5
263
330
1F
100
AcDbEntity
  8
0-A_文字
  6
Continuous
 62
     7
370
     9
100
AcDbLine
 10
1177.626219526774
 20
-1367.943530616154
 30
0.0
 11
1177.626219526774
 21
-1358.943530616153
 31
0.0
  0
LINE
  5
264
330
1F
100
AcDbEntity
  8
0-A_文字
  6
Continuous
 62
     7
370
     9
100
AcDbLine
 10
1302.898297465414
 20
-1358.943530616153
 30
0.0
 11
1177.626219526774
 21
-1358.943530616153
 31
0.0
  0
LINE
  5
265
330
1F
100
AcDbEntity
  8
0-A_文字
  6
Continuous
 62
     7
370
     9
100
AcDbLine
 10
1177.626219526774
 20
-1367.943530616154
 30
0.0
 11
1159.626219526773
 21
-1367.943530616154
 31
0.0
  0
LINE
  5
266
330
1F
100
AcDbEntity
  8
0-A_文字
  6
Continuous
 62
     7
370
     9
100
AcDbLine
 10
1159.626219526773
 20
-1367.943530616154
 30
0.0
 11
1159.626219526773
 21
-1358.943530616153
 31
0.0
  0
LINE
  5
267
330
1F
100
AcDbEntity
  8
0-B_寸法
  6
Continuous
 62
   120
370
     5
100
AcDbLine
 10
1404.14379862716
 20
-1391.943530616153
 30
0.0
 11
1344.14379862716
 21
-1391.943530616153
 31
0.0
  0
LINE
  5
268
330
1F
100
AcDbEntity
  8
0-B_寸法
  6
Continuous
 62
   120
370
     5
100
AcDbLine
 10
1404.14379862716
 20
-1358.943530616153
 30
0.0
 11
1404.14379862716
 21
-1391.943530616153
 31
0.0
  0
LINE
  5
269
330
1F
100
AcDbEntity
  8
0-B_寸法
  6
Continuous
 62
   120
370
     5
100
AcDbLine
 10
1404.14379862716
 20
-1358.943530616153
 30
0.0
 11
1344.14379862716
 21
-1358.943530616153
 31
0.0
  0
LINE
  5
26A
330
1F
100
AcDbEntity
  8
0-A_文字
  6
Continuous
 62
     7
370
     9
100
AcDbLine
 10
1055.554615412669
 20
-1375.172868472608
 30
0.0
 11
900.7552872358905
 21
-1491.27236460519
 31
0.0
  0
LINE
  5
26B
330
1F
100
AcDbEntity
  8
0-A_文字
  6
Continuous
 62
     7
370
     9
100
AcDbLine
 10
841.6867536770518
 20
-1491.27236460519
 30
0.0
 11
900.7552872358905
 21
-1491.27236460519
 31
0.0
  0
LWPOLYLINE
  5
26C
330
1F
100
AcDbEntity
  8
0-B_寸法
  6
Continuous
 62
     7
370
     9
100
AcDbPolyline
 90
        4
 70
     1
 43
6.0
 10
1407.14379862716
 20
-1391.943530616153
 42
0.4142135623731
 10
1404.14379862716
 20
-1388.943530616153
 42
0.4142135623731
 10
1401.14379862716
 20
-1391.943530616153
 42
0.4142135623731
 10
1404.14379862716
 20
-1394.943530616153
 42
0.4142135623731
  0
LWPOLYLINE
  5
26D
330
1F
100
AcDbEntity
  8
0-B_寸法
  6
Continuous
 62
     7
370
     9
100
AcDbPolyline
 90
        4
 70
     1
 43
6.0
 10
1407.14379862716
 20
-1358.943530616153
 42
0.4142135623731
 10
1404.14379862716
 20
-1355.943530616153
 42
0.4142135623731
 10
1401.14379862716
 20
-1358.943530616153
 42
0.4142135623731
 10
1404.14379862716
 20
-1361.943530616153
 42
0.4142135623731
  0
LINE
  5
26E
330
1F
100
AcDbEntity
  8
0-4_枠
  6
Continuous
 62
    92
370
    13
100
AcDbLine
 10
1021.626219526771
 20
-1140.518457142386
 30
0.0
 11
1315.626219526773
 21
-1140.518457142386
 31
0.0
  0
LINE
  5
26F
330
1F
100
AcDbEntity
  8
0-4_枠
  6
Continuous
 62
    92
370
    13
100
AcDbLine
 10
967.6262195267727
 20
-1174.718457142385
 30
0.0
 11
1021.626219526771
 21
-1174.718457142385
 31
0.0
  0
LINE
  5
270
330
1F
100
AcDbEntity
  8
0-4_枠
  6
Continuous
 62
    92
370
    13
100
AcDbLine
 10
1315.626219526773
 20
-1174.718457142385
 30
0.0
 11
1369.626219526772
 21
-1174.718457142385
 31
0.0
  0
LINE
  5
271
330
1F
100
AcDbEntity
  8
0-4_枠
  6
Continuous
 62
    92
370
    13
100
AcDbLine
 10
1021.626219526771
 20
-1140.518457142386
 30
0.0
 11
1021.626219526771
 21
-1174.718457142385
 31
0.0
  0
LINE
  5
272
330
1F
100
AcDbEntity
  8
0-4_枠
  6
Continuous
 62
    92
370
    13
100
AcDbLine
 10
1315.626219526773
 20
-1140.518457142386
 30
0.0
 11
1315.626219526773
 21
-1174.718457142385
 31
0.0
  0
LINE
  5
273
330
1F
100
AcDbEntity
  8
0-B_寸法
  6
Continuous
 62
   120
370
     5
100
AcDbLine
 10
538.2795785471272
 20
-1174.718457142385
 30
0.0
 11
538.2795785471272
 21
-1102.718457142386
 31
0.0
  0
LWPOLYLINE
  5
274
330
1F
100
AcDbEntity
  8
0-B_寸法
  6
Continuous
 62
     7
370
     9
100
AcDbPolyline
 90
        4
 70
     1
 43
6.0
 10
541.2795785471272
 20
-1102.718457142386
 42
0.4142135623731
 10
538.2795785471272
 20
-1099.718457142386
 42
0.4142135623731
 10
535.2795785471271
 20
-1102.718457142386
 42
0.4142135623731
 10
538.2795785471272
 20
-1105.718457142386
 42
0.4142135623731
  0
LINE
  5
275
330
1F
100
AcDbEntity
  8
0-B_寸法
  6
Continuous
 62
   120
370
     5
100
AcDbLine
 10
538.2795785471272
 20
-1102.718457142386
 30
0.0
 11
658.2795785471272
 21
-1102.718457142386
 31
0.0
  0
LINE
  5
276
330
1F
100
AcDbEntity
  8
0-4_枠
  6
Continuous
 62
    92
370
    13
100
AcDbLine
 10
967.6262195267727
 20
-1102.718457142386
 30
0.0
 11
967.6262195267727
 21
-1174.718457142385
 31
0.0
  0
LINE
  5
277
330
1F
100
AcDbEntity
  8
0-4_枠
  6
Continuous
 62
    92
370
    13
100
AcDbLine
 10
1369.626219526772
 20
-1102.718457142386
 30
0.0
 11
1369.626219526772
 21
-1174.718457142385
 31
0.0
  0
LINE
  5
278
330
1F
100
AcDbEntity
  8
1-B_寸法
  6
Continuous
 62
   120
370
     5
100
AcDbLine
 10
3287.491270695141
 20
-2377.128943474043
 30
0.0
 11
3287.491270695141
 21
-2482.128943474043
 31
0.0
  0
LINE
  5
279
330
1F
100
AcDbEntity
  8
1-B_寸法
  6
Continuous
 62
   120
370
     5
100
AcDbLine
 10
2162.491270695141
 20
-2377.128943474043
 30
0.0
 11
2162.491270695141
 21
-2482.128943474043
 31
0.0
  0
LWPOLYLINE
  5
27A
330
1F
100
AcDbEntity
  8
1-B_寸法
  6
Continuous
 62
     7
370
     9
100
AcDbPolyline
 90
        4
 70
     1
 43
6.0
 10
3290.49127069514
 20
-2377.128943474043
 42
0.4142135623731
 10
3287.491270695141
 20
-2374.128943474044
 42
0.4142135623731
 10
3284.491270695141
 20
-2377.128943474043
 42
0.4142135623731
 10
3287.491270695141
 20
-2380.128943474043
 42
0.4142135623731
  0
LWPOLYLINE
  5
27B
330
1F
100
AcDbEntity
  8
1-B_寸法
  6
Continuous
 62
     7
370
     9
100
AcDbPolyline
 90
        4
 70
     1
 43
6.0
 10
2165.49127069514
 20
-2377.128943474043
 42
0.4142135623731
 10
2162.491270695141
 20
-2374.128943474044
 42
0.4142135623731
 10
2159.491270695141
 20
-2377.128943474043
 42
0.4142135623731
 10
2162.491270695141
 20
-2380.128943474043
 42
0.4142135623731
  0
LINE
  5
27C
330
1F
100
AcDbEntity
  8
1-B_寸法
  6
Continuous
 62
   120
370
     5
100
AcDbLine
 10
2162.491270695141
 20
-2377.128943474043
 30
0.0
 11
3287.491270695141
 21
-2377.128943474043
 31
0.0
  0
LINE
  5
27D
330
1F
100
AcDbEntity
  8
1-B_寸法
  6
Continuous
 62
   120
370
     5
100
AcDbLine
 10
3274.311075848537
 20
-2540.308909429731
 30
0.0
 11
3332.491792827289
 21
-2482.128192450978
 31
0.0
  0
LINE
  5
27E
330
1F
100
AcDbEntity
  8
1-B_寸法
  6
Continuous
 62
   120
370
     5
100
AcDbLine
 10
3332.491041804222
 20
-2482.128943474043
 30
0.0
 11
3407.491041804222
 21
-2482.128943474043
 31
0.0
  0
LINE
  5
27F
330
1F
100
AcDbEntity
  8
1-B_寸法
  6
Continuous
 62
   120
370
     5
100
AcDbLine
 10
2175.671236659912
 20
-2540.308909429731
 30
0.0
 11
2117.490519681156
 21
-2482.128192450978
 31
0.0
  0
LINE
  5
280
330
1F
100
AcDbEntity
  8
1-B_寸法
  6
Continuous
 62
   120
370
     5
100
AcDbLine
 10
2117.491270704223
 20
-2482.128943474043
 30
0.0
 11
2042.491270704222
 21
-2482.128943474043
 31
0.0
  0
LINE
  5
281
330
1F
100
AcDbEntity
  8
1-B_寸法
  6
Continuous
 62
   120
370
     5
100
AcDbLine
 10
3437.491041804222
 20
-2527.127441427914
 30
0.0
 11
3331.211809662079
 21
-2527.127441427914
 31
0.0
  0
LWPOLYLINE
  5
282
330
1F
100
AcDbEntity
  8
1-B_寸法
  6
Continuous
 62
     7
370
     9
100
AcDbPolyline
 90
        4
 70
     1
 43
6.0
 10
3440.491041804222
 20
-2527.127441427914
 42
0.4142135623731
 10
3437.491041804222
 20
-2524.127441427914
 42
0.4142135623731
 10
3434.491041804223
 20
-2527.127441427914
 42
0.4142135623731
 10
3437.491041804222
 20
-2530.127441427913
 42
0.4142135623731
  0
LINE
  5
283
330
1F
100
AcDbEntity
  8
1-B_寸法
  6
Continuous
 62
   120
370
     5
100
AcDbLine
 10
3437.491041804222
 20
-2752.128714583126
 30
0.0
 11
3331.211809662079
 21
-2752.128714583126
 31
0.0
  0
LWPOLYLINE
  5
284
330
1F
100
AcDbEntity
  8
1-B_寸法
  6
Continuous
 62
     7
370
     9
100
AcDbPolyline
 90
        4
 70
     1
 43
6.0
 10
3440.491041804222
 20
-2752.128714583126
 42
0.4142135623731
 10
3437.491041804222
 20
-2749.128714583126
 42
0.4142135623731
 10
3434.491041804223
 20
-2752.128714583126
 42
0.4142135623731
 10
3437.491041804222
 20
-2755.128714583126
 42
0.4142135623731
  0
LINE
  5
285
330
1F
100
AcDbEntity
  8
1-B_寸法
  6
Continuous
 62
   120
370
     5
100
AcDbLine
 10
3437.491041804222
 20
-2527.127441427914
 30
0.0
 11
3437.491041804222
 21
-2752.128714583126
 31
0.0
  0
LINE
  5
286
330
1F
100
AcDbEntity
  8
1-B_寸法
  6
Continuous
 62
   120
370
     5
100
AcDbLine
 10
3287.491270695141
 20
-2902.128714583126
 30
0.0
 11
3287.491270695141
 21
-2797.128714583126
 31
0.0
  0
LWPOLYLINE
  5
287
330
1F
100
AcDbEntity
  8
1-B_寸法
  6
Continuous
 62
     7
370
     9
100
AcDbPolyline
 90
        4
 70
     1
 43
6.0
 10
3290.49127069514
 20
-2902.128714583126
 42
0.4142135623731
 10
3287.491270695141
 20
-2899.128714583126
 42
0.4142135623731
 10
3284.491270695141
 20
-2902.128714583126
 42
0.4142135623731
 10
3287.491270695141
 20
-2905.128714583126
 42
0.4142135623731
  0
LINE
  5
288
330
1F
100
AcDbEntity
  8
1-B_寸法
  6
Continuous
 62
   120
370
     5
100
AcDbLine
 10
2162.491270695141
 20
-2902.128714583126
 30
0.0
 11
3287.491270695141
 21
-2902.128714583126
 31
0.0
  0
LINE
  5
289
330
1F
100
AcDbEntity
  8
1-B_寸法
  6
Continuous
 62
   120
370
     5
100
AcDbLine
 10
3092.491270695141
 20
-2902.128714583126
 30
0.0
 11
3092.491270695141
 21
-2797.128714583126
 31
0.0
  0
LWPOLYLINE
  5
28A
330
1F
100
AcDbEntity
  8
1-B_寸法
  6
Continuous
 62
     7
370
     9
100
AcDbPolyline
 90
        4
 70
     1
 43
6.0
 10
3095.49127069514
 20
-2902.128714583126
 42
0.4142135623731
 10
3092.491270695141
 20
-2899.128714583126
 42
0.4142135623731
 10
3089.491270695141
 20
-2902.128714583126
 42
0.4142135623731
 10
3092.491270695141
 20
-2905.128714583126
 42
0.4142135623731
  0
LINE
  5
28B
330
1F
100
AcDbEntity
  8
1-B_寸法
  6
Continuous
 62
   120
370
     5
100
AcDbLine
 10
2357.491270695141
 20
-2902.128714583126
 30
0.0
 11
2357.491270695141
 21
-2797.128714583126
 31
0.0
  0
LWPOLYLINE
  5
28C
330
1F
100
AcDbEntity
  8
1-B_寸法
  6
Continuous
 62
     7
370
     9
100
AcDbPolyline
 90
        4
 70
     1
 43
6.0
 10
2360.49127069514
 20
-2902.128714583126
 42
0.4142135623731
 10
2357.491270695141
 20
-2899.128714583126
 42
0.4142135623731
 10
2354.491270695141
 20
-2902.128714583126
 42
0.4142135623731
 10
2357.491270695141
 20
-2905.128714583126
 42
0.4142135623731
  0
LINE
  5
28D
330
1F
100
AcDbEntity
  8
1-B_寸法
  6
Continuous
 62
   120
370
     5
100
AcDbLine
 10
2162.491270695141
 20
-2902.128714583126
 30
0.0
 11
2162.491270695141
 21
-2797.128714583126
 31
0.0
  0
LWPOLYLINE
  5
28E
330
1F
100
AcDbEntity
  8
1-B_寸法
  6
Continuous
 62
     7
370
     9
100
AcDbPolyline
 90
        4
 70
     1
 43
6.0
 10
2165.49127069514
 20
-2902.128714583126
 42
0.4142135623731
 10
2162.491270695141
 20
-2899.128714583126
 42
0.4142135623731
 10
2159.491270695141
 20
-2902.128714583126
 42
0.4142135623731
 10
2162.491270695141
 20
-2905.128714583126
 42
0.4142135623731
  0
LINE
  5
28F
330
1F
100
AcDbEntity
  8
1-4_枠
  6
Continuous
 62
    92
370
    13
100
AcDbLine
 10
3092.491270695141
 20
-2752.128714583126
 30
0.0
 11
3092.491270695141
 21
-2662.128042242733
 31
0.0
  0
LINE
  5
290
330
1F
100
AcDbEntity
  8
1-4_枠
  6
Continuous
 62
    92
370
    13
100
AcDbLine
 10
2357.491270695141
 20
-2752.128714583126
 30
0.0
 11
2357.491270695141
 21
-2662.128042242733
 31
0.0
  0
LINE
  5
291
330
1F
100
AcDbEntity
  8
1-4_枠
  6
Continuous
 62
    92
370
    13
100
AcDbLine
 10
2357.491270695141
 20
-2662.128042242733
 30
0.0
 11
3092.491385136059
 21
-2662.128042242733
 31
0.0
  0
LINE
  5
292
330
1F
100
AcDbEntity
  8
1-4_枠
  6
Continuous
 62
    92
370
    13
100
AcDbLine
 10
2207.490641270095
 20
-2534.627999327387
 30
0.0
 11
3242.49190012019
 21
-2534.627999327387
 31
0.0
  0
ARC
  5
293
330
1F
100
AcDbEntity
  8
1-4_枠
  6
Continuous
 62
    92
370
    13
100
AcDbCircle
 10
3242.491270695141
 20
-2572.128714583126
 30
0.0
 40
45.0
100
AcDbArc
 50
0.0
 51
90.0
  0
LINE
  5
294
330
1F
100
AcDbEntity
  8
1-4_枠
  6
Continuous
 62
    92
370
    13
100
AcDbLine
 10
2207.491270695141
 20
-2527.128714583126
 30
0.0
 11
3242.491270695141
 21
-2527.128714583126
 31
0.0
  0
ARC
  5
295
330
1F
100
AcDbEntity
  8
1-4_枠
  6
Continuous
 62
    92
370
    13
100
AcDbCircle
 10
2207.491270695141
 20
-2572.128714583126
 30
0.0
 40
45.0
100
AcDbArc
 50
90.0
 51
180.0
  0
ARC
  5
296
330
1F
100
AcDbEntity
  8
1-4_枠
  6
Continuous
 62
    92
370
    13
100
AcDbCircle
 10
2207.491270695141
 20
-2572.128714583126
 30
0.0
 40
37.5
100
AcDbArc
 50
90.0
 51
180.0
  0
ARC
  5
297
330
1F
100
AcDbEntity
  8
1-4_枠
  6
Continuous
 62
    92
370
    13
100
AcDbCircle
 10
3242.491270695141
 20
-2572.128714583126
 30
0.0
 40
37.5
100
AcDbArc
 50
0.0
 51
90.0
  0
LINE
  5
298
330
1F
100
AcDbEntity
  8
1-B_寸法
  6
Continuous
 62
   120
370
     5
100
AcDbLine
 10
2012.491270695141
 20
-2527.128714583126
 30
0.0
 11
2117.491270695141
 21
-2527.128714583126
 31
0.0
  0
LWPOLYLINE
  5
299
330
1F
100
AcDbEntity
  8
1-B_寸法
  6
Continuous
 62
     7
370
     9
100
AcDbPolyline
 90
        4
 70
     1
 43
6.0
 10
2015.491270695141
 20
-2527.128714583126
 42
0.4142135623731
 10
2012.491270695141
 20
-2524.128714583126
 42
0.4142135623731
 10
2009.491270695141
 20
-2527.128714583126
 42
0.4142135623731
 10
2012.491270695141
 20
-2530.128714583126
 42
0.4142135623731
  0
LINE
  5
29A
330
1F
100
AcDbEntity
  8
1-B_寸法
  6
Continuous
 62
   120
370
     5
100
AcDbLine
 10
2012.491270695141
 20
-2572.128714583126
 30
0.0
 11
2117.491270695141
 21
-2572.128714583126
 31
0.0
  0
LWPOLYLINE
  5
29B
330
1F
100
AcDbEntity
  8
1-B_寸法
  6
Continuous
 62
     7
370
     9
100
AcDbPolyline
 90
        4
 70
     1
 43
6.0
 10
2015.491270695141
 20
-2572.128714583126
 42
0.4142135623731
 10
2012.491270695141
 20
-2569.128714583126
 42
0.4142135623731
 10
2009.491270695141
 20
-2572.128714583126
 42
0.4142135623731
 10
2012.491270695141
 20
-2575.128714583126
 42
0.4142135623731
  0
LINE
  5
29C
330
1F
100
AcDbEntity
  8
1-B_寸法
  6
Continuous
 62
   120
370
     5
100
AcDbLine
 10
2012.491270695141
 20
-2527.128714583126
 30
0.0
 11
2012.491270695141
 21
-2752.128714583126
 31
0.0
  0
LINE
  5
29D
330
1F
100
AcDbEntity
  8
1-B_寸法
  6
Continuous
 62
   120
370
     5
100
AcDbLine
 10
2012.491270695141
 20
-2752.128714583126
 30
0.0
 11
2117.491270695141
 21
-2752.128714583126
 31
0.0
  0
LWPOLYLINE
  5
29E
330
1F
100
AcDbEntity
  8
1-B_寸法
  6
Continuous
 62
     7
370
     9
100
AcDbPolyline
 90
        4
 70
     1
 43
6.0
 10
2015.491270695141
 20
-2752.128714583126
 42
0.4142135623731
 10
2012.491270695141
 20
-2749.128714583126
 42
0.4142135623731
 10
2009.491270695141
 20
-2752.128714583126
 42
0.4142135623731
 10
2012.491270695141
 20
-2755.128714583126
 42
0.4142135623731
  0
LINE
  5
29F
330
1F
100
AcDbEntity
  8
1-4_枠
  6
Continuous
 62
    92
370
    13
100
AcDbLine
 10
2222.491270695141
 20
-2572.128714583126
 30
0.0
 11
2162.491270695141
 21
-2572.128714583126
 31
0.0
  0
LINE
  5
2A0
330
1F
100
AcDbEntity
  8
1-B_寸法
  6
Continuous
 62
   120
370
     5
100
AcDbLine
 10
2222.491270695141
 20
-2902.128714583126
 30
0.0
 11
2222.491270695141
 21
-2797.128714583126
 31
0.0
  0
LWPOLYLINE
  5
2A1
330
1F
100
AcDbEntity
  8
1-B_寸法
  6
Continuous
 62
     7
370
     9
100
AcDbPolyline
 90
        4
 70
     1
 43
6.0
 10
2225.49127069514
 20
-2902.128714583126
 42
0.4142135623731
 10
2222.491270695141
 20
-2899.128714583126
 42
0.4142135623731
 10
2219.491270695141
 20
-2902.128714583126
 42
0.4142135623731
 10
2222.491270695141
 20
-2905.128714583126
 42
0.4142135623731
  0
LINE
  5
2A2
330
1F
100
AcDbEntity
  8
1-4_枠
  6
Continuous
 62
    92
370
    13
100
AcDbLine
 10
2222.491270695141
 20
-2752.128714583126
 30
0.0
 11
2222.491270695141
 21
-2572.128714583126
 31
0.0
  0
LINE
  5
2A3
330
1F
100
AcDbEntity
  8
1-B_寸法
  6
Continuous
 62
   120
370
     5
100
AcDbLine
 10
3227.491270695141
 20
-2902.128714583126
 30
0.0
 11
3227.491270695141
 21
-2797.128714583126
 31
0.0
  0
LWPOLYLINE
  5
2A4
330
1F
100
AcDbEntity
  8
1-B_寸法
  6
Continuous
 62
     7
370
     9
100
AcDbPolyline
 90
        4
 70
     1
 43
6.0
 10
3230.49127069514
 20
-2902.128714583126
 42
0.4142135623731
 10
3227.491270695141
 20
-2899.128714583126
 42
0.4142135623731
 10
3224.491270695141
 20
-2902.128714583126
 42
0.4142135623731
 10
3227.491270695141
 20
-2905.128714583126
 42
0.4142135623731
  0
LINE
  5
2A5
330
1F
100
AcDbEntity
  8
1-4_枠
  6
Continuous
 62
    92
370
    13
100
AcDbLine
 10
3227.491270695141
 20
-2572.128714583126
 30
0.0
 11
3287.491270695141
 21
-2572.128714583126
 31
0.0
  0
LINE
  5
2A6
330
1F
100
AcDbEntity
  8
1-4_枠
  6
Continuous
 62
    92
370
    13
100
AcDbLine
 10
3227.491270695141
 20
-2752.128714583126
 30
0.0
 11
3227.491270695141
 21
-2572.128714583126
 31
0.0
  0
LINE
  5
2A7
330
1F
100
AcDbEntity
  8
1-4_枠
  6
Continuous
 62
    92
370
    13
100
AcDbLine
 10
3227.491041813305
 20
-2752.128714583126
 30
0.0
 11
2222.491270695141
 21
-2752.128714583126
 31
0.0
  0
LINE
  5
2A8
330
1F
100
AcDbEntity
  8
1-B_寸法
  6
Continuous
 62
   120
370
     5
100
AcDbLine
 10
2222.491270695141
 20
-3081.006431100687
 30
0.0
 11
3227.491041813305
 21
-3081.006431100687
 31
0.0
  0
LWPOLYLINE
  5
2A9
330
1F
100
AcDbEntity
  8
1-B_寸法
  6
Continuous
 62
     7
370
     9
100
AcDbPolyline
 90
        4
 70
     1
 43
6.0
 10
2225.49127069514
 20
-3081.006431100687
 42
0.4142135623731
 10
2222.491270695141
 20
-3078.006431100687
 42
0.4142135623731
 10
2219.491270695141
 20
-3081.006431100687
 42
0.4142135623731
 10
2222.491270695141
 20
-3084.006431100687
 42
0.4142135623731
  0
LWPOLYLINE
  5
2AA
330
1F
100
AcDbEntity
  8
1-B_寸法
  6
Continuous
 62
     7
370
     9
100
AcDbPolyline
 90
        4
 70
     1
 43
6.0
 10
3230.491041813304
 20
-3081.006431100687
 42
0.4142135623731
 10
3227.491041813305
 20
-3078.006431100687
 42
0.4142135623731
 10
3224.491041813305
 20
-3081.006431100687
 42
0.4142135623731
 10
3227.491041813305
 20
-3084.006431100687
 42
0.4142135623731
  0
LINE
  5
2AB
330
1F
100
AcDbEntity
  8
1-B_寸法
  6
Continuous
 62
   120
370
     5
100
AcDbLine
 10
2222.491270695141
 20
-3081.006431100687
 30
0.0
 11
2222.491270695141
 21
-2910.329994605408
 31
0.0
  0
LINE
  5
2AC
330
1F
100
AcDbEntity
  8
1-B_寸法
  6
Continuous
 62
   120
370
     5
100
AcDbLine
 10
3227.491041813305
 20
-3081.006431100687
 30
0.0
 11
3227.491041813305
 21
-2910.329994605408
 31
0.0
  0
LINE
  5
2AD
330
1F
100
AcDbEntity
  8
0-A_文字
  6
Continuous
 62
    92
370
    13
100
AcDbLine
 10
1719.91817168358
 20
-3159.000197951857
 30
0.0
 11
3519.91817168358
 21
-3159.000197951857
 31
0.0
  0
LINE
  5
2AE
330
1F
100
AcDbEntity
  8
0-A_文字
  6
Continuous
 62
    92
370
    13
100
AcDbLine
 10
3519.91817168358
 20
-290.9999919582046
 30
0.0
 11
3519.91817168358
 21
-3159.000197951857
 31
0.0
  0
LINE
  5
2AF
330
1F
100
AcDbEntity
  8
0-1_通り芯
  6
JWW_CENTER1
 62
   120
370
     5
100
AcDbLine
 10
2619.918171683578
 20
-710.9999919582046
 30
0.0
 11
2619.918171683578
 21
-1890.041548837791
 31
0.0
  0
LINE
  5
2B0
330
1F
100
AcDbEntity
  8
0-0_補助線
  6
JWW_HOJO
 62
   120
370
     5
100
AcDbLine
 10
2619.918171683577
 20
-290.9999919582046
 30
0.0
 11
2619.918171683577
 21
-470.9999919582046
 31
0.0
  0
LINE
  5
2B1
330
1F
100
AcDbEntity
  8
0-4_枠
  6
Continuous
 62
    92
370
    13
100
AcDbLine
 10
2925.918171683581
 20
-770.9999919582046
 30
0.0
 11
2925.918171683581
 21
-1830.041548837791
 31
0.0
  0
LINE
  5
2B2
330
1F
100
AcDbEntity
  8
0-4_枠
  6
Continuous
 62
    92
370
    13
100
AcDbLine
 10
2511.918171683578
 20
-1830.041548837791
 30
0.0
 11
2511.918171683578
 21
-770.9999919582046
 31
0.0
  0
LWPOLYLINE
  5
2B3
330
1F
100
AcDbEntity
  8
0-B_寸法
  6
Continuous
 62
     7
370
     9
100
AcDbPolyline
 90
        4
 70
     1
 43
6.0
 10
2514.918171683578
 20
-1070.71245902208
 42
0.4142135623731
 10
2511.918171683578
 20
-1067.71245902208
 42
0.4142135623731
 10
2508.918171683578
 20
-1070.71245902208
 42
0.4142135623731
 10
2511.918171683578
 20
-1073.71245902208
 42
0.4142135623731
  0
LWPOLYLINE
  5
2B4
330
1F
100
AcDbEntity
  8
0-B_寸法
  6
Continuous
 62
     7
370
     9
100
AcDbPolyline
 90
        4
 70
     1
 43
6.0
 10
2622.91817168358
 20
-1070.71245902208
 42
0.4142135623731
 10
2619.91817168358
 20
-1067.71245902208
 42
0.4142135623731
 10
2616.91817168358
 20
-1070.71245902208
 42
0.4142135623731
 10
2619.91817168358
 20
-1073.71245902208
 42
0.4142135623731
  0
LWPOLYLINE
  5
2B5
330
1F
100
AcDbEntity
  8
0-B_寸法
  6
Continuous
 62
     7
370
     9
100
AcDbPolyline
 90
        4
 70
     1
 43
6.0
 10
2928.918171683581
 20
-1070.71245902208
 42
0.4142135623731
 10
2925.918171683581
 20
-1067.71245902208
 42
0.4142135623731
 10
2922.918171683581
 20
-1070.71245902208
 42
0.4142135623731
 10
2925.918171683581
 20
-1073.71245902208
 42
0.4142135623731
  0
LINE
  5
2B6
330
1F
100
AcDbEntity
  8
0-B_寸法
  6
Continuous
 62
   120
370
     5
100
AcDbLine
 10
2925.918171683581
 20
-1070.71245902208
 30
0.0
 11
2511.918171683578
 21
-1070.71245902208
 31
0.0
  0
LWPOLYLINE
  5
2B7
330
1F
100
AcDbEntity
  8
0-B_寸法
  6
Continuous
 62
     7
370
     9
100
AcDbPolyline
 90
        4
 70
     1
 43
6.0
 10
2514.918171683578
 20
-1270.520770397999
 42
0.4142135623731
 10
2511.918171683578
 20
-1267.520770397999
 42
0.4142135623731
 10
2508.918171683578
 20
-1270.520770397999
 42
0.4142135623731
 10
2511.918171683578
 20
-1273.520770397999
 42
0.4142135623731
  0
LWPOLYLINE
  5
2B8
330
1F
100
AcDbEntity
  8
0-B_寸法
  6
Continuous
 62
     7
370
     9
100
AcDbPolyline
 90
        4
 70
     1
 43
6.0
 10
2928.918171683581
 20
-1270.520770397999
 42
0.4142135623731
 10
2925.918171683581
 20
-1267.520770397999
 42
0.4142135623731
 10
2922.918171683581
 20
-1270.520770397999
 42
0.4142135623731
 10
2925.918171683581
 20
-1273.520770397999
 42
0.4142135623731
  0
LINE
  5
2B9
330
1F
100
AcDbEntity
  8
0-B_寸法
  6
Continuous
 62
   120
370
     5
100
AcDbLine
 10
2511.918171683578
 20
-1270.520770397999
 30
0.0
 11
2925.918171683581
 21
-1270.520770397999
 31
0.0
  0
TEXT
  5
2BA
330
1F
100
AcDbEntity
  8
0-A_文字
  6
Continuous
 62
     7
370
     0
100
AcDbText
 10
2019.918171683578
 20
-424.0799919582046
 30
0.0
 40
91.44
  1
フロアー貼り込み位置
  7
ＭＳ ゴシック
100
AcDbText
  0
TEXT
  5
2BB
330
1F
100
AcDbEntity
  8
0-A_文字
  6
Continuous
 62
     7
370
     0
100
AcDbText
 10
2199.918171683583
 20
-667.628464034077
 30
0.0
 40
91.44
  1
壁(枠)センター
  7
ＭＳ ゴシック
100
AcDbText
  0
TEXT
  5
2BC
330
1F
100
AcDbEntity
  8
0-A_文字
  6
Continuous
 62
     7
370
     9
100
AcDbText
 10
2897.665313521297
 20
-924.0899760928174
 30
0.0
 40
91.44
  1
（ドア側）
  7
ＭＳ ゴシック
100
AcDbText
  0
TEXT
  5
2BD
330
1F
100
AcDbEntity
  8
0-A_文字
  6
Continuous
 62
     7
370
     0
100
AcDbText
 10
2072.41817168358
 20
-1513.409081773916
 30
0.0
 40
91.44
  1
床
  7
ＭＳ ゴシック
100
AcDbText
  0
TEXT
  5
2BE
330
1F
100
AcDbEntity
  8
0-A_文字
  6
Continuous
 62
     7
370
     0
100
AcDbText
 10
3047.41817168358
 20
-1513.409081773916
 30
0.0
 40
91.44
  1
床
  7
ＭＳ ゴシック
100
AcDbText
  0
TEXT
  5
2BF
330
1F
100
AcDbEntity
  8
0-A_文字
  6
Continuous
 62
     7
370
     0
100
AcDbText
 10
361.6867536770526
 20
-1534.35236460519
 30
0.0
 40
91.44
  1
下枠ﾍﾞｰｽ
 41
0.9999999999999929
  7
ＭＳ ゴシック
100
AcDbText
  0
TEXT
  5
2C0
330
1F
100
AcDbEntity
  8
0-B_寸法
  6
Continuous
 62
     7
370
     0
100
AcDbText
 10
979.6262195267725
 20
-627.4426323731974
 30
0.0
 40
91.44
  1
113
 41
1.00000000000001
  7
ＭＳ ゴシック
100
AcDbText
  0
TEXT
  5
2C1
330
1F
100
AcDbEntity
  8
0-B_寸法
  6
Continuous
 62
     7
370
   211
100
AcDbText
 10
2505.918171683577
 20
-1038.79245902208
 30
0.0
 40
91.44
  1
18
  7
ＭＳ ゴシック
100
AcDbText
  0
TEXT
  5
2C2
330
1F
100
AcDbEntity
  8
0-B_寸法
  6
Continuous
 62
     7
370
   211
100
AcDbText
 10
2712.918171683577
 20
-1038.79245902208
 30
0.0
 40
91.44
  1
51
  7
ＭＳ ゴシック
100
AcDbText
  0
TEXT
  5
2C3
330
1F
100
AcDbEntity
  8
0-B_寸法
  6
Continuous
 62
     7
370
   211
100
AcDbText
 10
506.3595785471272
 20
-1202.468457142386
 30
0.0
 40
91.44
  1
12
 50
90.0
 41
1.0625
  7
ＭＳ ゴシック
100
AcDbText
  0
TEXT
  5
2C4
330
1F
100
AcDbEntity
  8
0-B_寸法
  6
Continuous
 62
     7
370
   211
100
AcDbText
 10
2658.918171683579
 20
-1238.600770397999
 30
0.0
 40
91.44
  1
69
  7
ＭＳ ゴシック
100
AcDbText
  0
TEXT
  5
2C5
330
1F
100
AcDbEntity
  8
0-B_寸法
  6
Continuous
 62
     7
370
     0
100
AcDbText
 10
1513.159826273333
 20
-1525.735513191761
 30
0.0
 40
91.44
  1
5.5
 50
90.0
  7
ＭＳ ゴシック
100
AcDbText
  0
TEXT
  5
2C6
330
1F
100
AcDbEntity
  8
1-B_寸法
  6
Continuous
 62
     7
370
     0
100
AcDbText
 10
2664.991270695141
 20
-2345.208943474043
 30
0.0
 40
91.44
  1
75
  7
ＭＳ ゴシック
100
AcDbText
  0
TEXT
  5
2C7
330
1F
100
AcDbEntity
  8
1-B_寸法
  6
Continuous
 62
     7
370
     0
100
AcDbText
 10
1980.571270695141
 20
-2579.62807800552
 30
0.0
 40
91.44
  1
3
 50
90.0
  7
ＭＳ ゴシック
100
AcDbText
  0
TEXT
  5
2C8
330
1F
100
AcDbEntity
  8
1-B_寸法
  6
Continuous
 62
     7
370
     0
100
AcDbText
 10
3405.571041804222
 20
-2699.627820513454
 30
0.0
 40
91.44
  1
15
 50
90.0
  7
ＭＳ ゴシック
100
AcDbText
  0
TEXT
  5
2C9
330
1F
100
AcDbEntity
  8
1-B_寸法
  6
Continuous
 62
     7
370
     0
100
AcDbText
 10
1980.571270695141
 20
-2722.128972075192
 30
0.0
 40
91.44
  1
12
 50
90.0
  7
ＭＳ ゴシック
100
AcDbText
  0
TEXT
  5
2CA
330
1F
100
AcDbEntity
  8
1-B_寸法
  6
Continuous
 62
     7
370
     0
100
AcDbText
 10
2088.765608584703
 20
-2870.208714583126
 30
0.0
 40
91.44
  1
4
  7
ＭＳ ゴシック
100
AcDbText
  0
TEXT
  5
2CB
330
1F
100
AcDbEntity
  8
1-B_寸法
  6
Continuous
 62
     7
370
     0
100
AcDbText
 10
2267.491270695141
 20
-2870.208714583126
 30
0.0
 40
91.44
  1
9
  7
ＭＳ ゴシック
100
AcDbText
  0
TEXT
  5
2CC
330
1F
100
AcDbEntity
  8
1-B_寸法
  6
Continuous
 62
     7
370
     0
100
AcDbText
 10
2664.991270695141
 20
-2870.208714583126
 30
0.0
 40
91.44
  1
49
  7
ＭＳ ゴシック
100
AcDbText
  0
TEXT
  5
2CD
330
1F
100
AcDbEntity
  8
1-B_寸法
  6
Continuous
 62
     7
370
     0
100
AcDbText
 10
3129.991270695141
 20
-2870.208714583126
 30
0.0
 40
91.44
  1
9
  7
ＭＳ ゴシック
100
AcDbText
  0
TEXT
  5
2CE
330
1F
100
AcDbEntity
  8
1-B_寸法
  6
Continuous
 62
     7
370
     0
100
AcDbText
 10
3306.618015789313
 20
-2870.208714583126
 30
0.0
 40
91.44
  1
4
  7
ＭＳ ゴシック
100
AcDbText
  0
TEXT
  5
2CF
330
1F
100
AcDbEntity
  8
1-B_寸法
  6
Continuous
 62
     7
370
   211
100
AcDbText
 10
2661.241156254223
 20
-3049.086431100687
 30
0.0
 40
91.44
  1
67
 41
1.0625
  7
ＭＳ ゴシック
100
AcDbText
  0
LINE
  5
2D0
330
1F
100
AcDbEntity
  8
0-3_仕上げ
  6
Continuous
 62
   120
370
     5
100
AcDbLine
 10
1959.91817168358
 20
-970.808303334121
 30
0.0
 11
2511.918171683578
 21
-970.808303334121
 31
0.0
  0
LINE
  5
2D1
330
1F
100
AcDbEntity
  8
0-3_仕上げ
  6
Continuous
 62
   120
370
     5
100
AcDbLine
 10
1959.91817168358
 20
-1170.616614710039
 30
0.0
 11
2511.918171683578
 21
-1170.616614710039
 31
0.0
  0
LINE
  5
2D2
330
1F
100
AcDbEntity
  8
0-3_仕上げ
  6
Continuous
 62
   120
370
     5
100
AcDbLine
 10
1959.91817168358
 20
-1370.424926085958
 30
0.0
 11
2511.918171683578
 21
-1370.424926085958
 31
0.0
  0
LINE
  5
2D3
330
1F
100
AcDbEntity
  8
0-3_仕上げ
  6
Continuous
 62
   120
370
     5
100
AcDbLine
 10
1959.91817168358
 20
-1570.233237461875
 30
0.0
 11
2511.918171683578
 21
-1570.233237461875
 31
0.0
  0
LINE
  5
2D4
330
1F
100
AcDbEntity
  8
0-3_仕上げ
  6
Continuous
 62
   120
370
     5
100
AcDbLine
 10
1959.91817168358
 20
-1770.041548837791
 30
0.0
 11
2511.918171683578
 21
-1770.041548837791
 31
0.0
  0
LINE
  5
2D5
330
1F
100
AcDbEntity
  8
0-3_仕上げ
  6
Continuous
 62
   120
370
     5
100
AcDbLine
 10
3279.918171683578
 20
-1770.041548837791
 30
0.0
 11
2925.918171683581
 21
-1770.041548837791
 31
0.0
  0
LINE
  5
2D6
330
1F
100
AcDbEntity
  8
0-3_仕上げ
  6
Continuous
 62
   120
370
     5
100
AcDbLine
 10
3279.918171683578
 20
-1570.233237461875
 30
0.0
 11
2925.918171683581
 21
-1570.233237461875
 31
0.0
  0
LINE
  5
2D7
330
1F
100
AcDbEntity
  8
0-3_仕上げ
  6
Continuous
 62
   120
370
     5
100
AcDbLine
 10
3279.918171683578
 20
-1370.424926085958
 30
0.0
 11
2925.918171683581
 21
-1370.424926085958
 31
0.0
  0
LINE
  5
2D8
330
1F
100
AcDbEntity
  8
0-3_仕上げ
  6
Continuous
 62
   120
370
     5
100
AcDbLine
 10
3279.918171683578
 20
-1170.616614710039
 30
0.0
 11
2925.918171683581
 21
-1170.616614710039
 31
0.0
  0
LINE
  5
2D9
330
1F
100
AcDbEntity
  8
0-3_仕上げ
  6
Continuous
 62
   120
370
     5
100
AcDbLine
 10
3279.918171683578
 20
-970.808303334121
 30
0.0
 11
2925.918171683581
 21
-970.808303334121
 31
0.0
  0
TEXT
  5
2DA
330
1F
100
AcDbEntity
  8
1-B_寸法
  6
Continuous
 62
     7
370
     0
100
AcDbText
 10
2019.991270704223
 20
-2465.208943474043
 30
0.0
 40
91.44
  1
R3
  7
ＭＳ ゴシック
100
AcDbText
  0
TEXT
  5
2DB
330
1F
100
AcDbEntity
  8
1-B_寸法
  6
Continuous
 62
     7
370
     0
100
AcDbText
 10
3309.991041804222
 20
-2465.208943474043
 30
0.0
 40
91.44
  1
R3
  7
ＭＳ ゴシック
100
AcDbText
  0
TEXT
  5
2DC
330
1F
100
AcDbEntity
  8
0-A_文字
  6
Continuous
 62
     7
370
     9
100
AcDbText
 10
2109.918171683582
 20
-2143.12154883779
 30
0.0
 40
91.44
  1
下枠詳細図 (S=1/2)
 41
0.9999999999999969
  7
ＭＳ ゴシック
100
AcDbText
  0
LINE
  5
2DD
330
1F
100
AcDbEntity
  8
0-A_文字
  6
Continuous
 62
    92
370
    13
100
AcDbLine
 10
219.9181716835788
 20
-290.9999919582046
 30
0.0
 11
219.9181716835818
 21
-2190.041548837789
 31
0.0
  0
TEXT
  5
2DE
330
1F
100
AcDbEntity
  8
0-0_補助線
  6
Continuous
 62
     7
370
     9
100
AcDbText
 10
301.9952664756997
 20
-2103.836204495847
 30
0.0
 40
91.44
  1
※要カスタムオーダー
 41
1.1125
  7
ＭＳ ゴシック
100
AcDbText
  0
LINE
  5
2DF
330
1F
100
AcDbEntity
  8
0-4_枠
  6
Continuous
 62
    92
370
    13
100
AcDbLine
 10
1369.626219526772
 20
-1102.718457142386
 30
0.0
 11
1408.626219526774
 21
-1102.718457142386
 31
0.0
  0
LINE
  5
2E0
330
1F
100
AcDbEntity
  8
0-4_枠
  6
Continuous
 62
    92
370
    13
100
AcDbLine
 10
1408.626219526774
 20
-880.9558114187859
 30
0.0
 11
1408.626219526774
 21
-1102.718457142386
 31
0.0
  0
LINE
  5
2E1
330
1F
100
AcDbEntity
  8
0-4_枠
  6
Continuous
 62
    92
370
    13
100
AcDbLine
 10
730.6262195267731
 20
-880.9558114187859
 30
0.0
 11
730.6262195267731
 21
-1102.718457142386
 31
0.0
  0
LINE
  5
2E2
330
1F
100
AcDbEntity
  8
0-4_枠
  6
Continuous
 62
    92
370
    13
100
AcDbLine
 10
730.6262195267731
 20
-1102.718457142386
 30
0.0
 11
967.6262195267727
 21
-1102.718457142386
 31
0.0
  0
TEXT
  5
2E3
330
1F
100
AcDbEntity
  8
0-A_文字
  6
Continuous
 62
     7
370
     9
100
AcDbText
 10
602.2028990369424
 20
-424.0799919582046
 30
0.0
 40
91.44
  1
竪枠下端形状図
  7
ＭＳ ゴシック
100
AcDbText
  0
LINE
  5
2E4
330
1F
100
AcDbEntity
  8
0-A_文字
  6
Continuous
 62
    92
370
    13
100
AcDbLine
 10
1719.91817168358
 20
-704.9519689650751
 30
0.0
 11
1719.91817168358
 21
-290.9999919582046
 31
0.0
  0
LINE
  5
2E5
330
1F
100
AcDbEntity
  8
0-A_文字
  6
Continuous
 62
    92
370
    13
100
AcDbLine
 10
1719.91817168358
 20
-2190.041548837789
 30
0.0
 11
1719.91817168358
 21
-704.9519689650751
 31
0.0
  0
LINE
  5
2E6
330
1F
100
AcDbEntity
  8
0-A_文字
  6
Continuous
 62
    92
370
    13
100
AcDbLine
 10
1719.91817168358
 20
-2190.041548837789
 30
0.0
 11
1719.91817168358
 21
-3159.000197951857
 31
0.0
  0
LINE
  5
2E7
330
1F
100
AcDbEntity
  8
0-A_文字
  6
Continuous
 62
    92
370
    13
100
AcDbLine
 10
219.9181716835818
 20
-2190.041548837789
 30
0.0
 11
1719.91817168358
 21
-2190.041548837789
 31
0.0
  0
LINE
  5
2E8
330
1F
100
AcDbEntity
  8
0-A_文字
  6
Continuous
 62
    92
370
    13
100
AcDbLine
 10
1719.91817168358
 20
-470.9999919582046
 30
0.0
 11
219.9181716835788
 21
-470.9999919582046
 31
0.0
  0
LINE
  5
2E9
330
1F
100
AcDbEntity
  8
0-A_文字
  6
Continuous
 62
    92
370
    13
100
AcDbLine
 10
219.9181716835788
 20
-290.9999919582046
 30
0.0
 11
1719.91817168358
 21
-290.9999919582046
 31
0.0
  0
LINE
  5
2EA
330
1F
100
AcDbEntity
  8
0-A_文字
  6
Continuous
 62
    92
370
    13
100
AcDbLine
 10
1719.91817168358
 20
-290.9999919582046
 30
0.0
 11
3519.918171683582
 21
-290.9999919582046
 31
0.0
  0
LINE
  5
2EB
330
1F
100
AcDbEntity
  8
0-A_文字
  6
Continuous
 62
    92
370
    13
100
AcDbLine
 10
3519.91817168358
 20
-470.9999919582046
 30
0.0
 11
1719.91817168358
 21
-470.9999919582046
 31
0.0
  0
LINE
  5
2EC
330
1F
100
AcDbEntity
  8
0-A_文字
  6
Continuous
 62
    92
370
    13
100
AcDbLine
 10
1719.91817168358
 20
-2010.041548837791
 30
0.0
 11
3519.91817168358
 21
-2010.041548837791
 31
0.0
  0
LINE
  5
2ED
330
1F
100
AcDbEntity
  8
0-A_文字
  6
Continuous
 62
    92
370
    13
100
AcDbLine
 10
1719.91817168358
 20
-2190.041548837789
 30
0.0
 11
3519.91817168358
 21
-2190.041548837789
 31
0.0
  0
LINE
  5
2EE
330
1F
100
AcDbEntity
  8
0-B_寸法
  6
Continuous
 62
   120
370
     5
100
AcDbLine
 10
-2110.225075582644
 20
-417.0001979518571
 30
0.0
 11
-2110.225075582644
 21
-561.0001979518557
 31
0.0
  0
LINE
  5
2EF
330
1F
100
AcDbEntity
  8
0-B_寸法
  6
Continuous
 62
   120
370
     5
100
AcDbLine
 10
-2290.225075582644
 20
-417.0001979518571
 30
0.0
 11
-1930.225075582643
 21
-417.0001979518571
 31
0.0
  0
LINE
  5
2F0
330
1F
100
AcDbEntity
  8
0-B_寸法
  6
Continuous
 62
   120
370
     5
100
AcDbLine
 10
-2110.225075582644
 20
-447.0002380061777
 30
0.0
 11
-1930.225075582643
 21
-447.0002380061777
 31
0.0
  0
LINE
  5
2F1
330
1F
100
AcDbEntity
  8
0-B_寸法
  6
Continuous
 62
   120
370
     5
100
AcDbLine
 10
-2110.225075582644
 20
-501.0001979518557
 30
0.0
 11
-1930.225075582643
 21
-501.0001979518557
 31
0.0
  0
LINE
  5
2F2
330
1F
100
AcDbEntity
  8
0-B_寸法
  6
Continuous
 62
   120
370
     5
100
AcDbLine
 10
-2290.225075582644
 20
-561.0001979518557
 30
0.0
 11
-1930.225075582643
 21
-561.0001979518557
 31
0.0
  0
LINE
  5
2F3
330
1F
100
AcDbEntity
  8
0-B_寸法
  6
Continuous
 62
   120
370
     5
100
AcDbLine
 10
-2290.225075582644
 20
-417.0001979518571
 30
0.0
 11
-2290.225075582644
 21
-561.0001979518557
 31
0.0
  0
LWPOLYLINE
  5
2F4
330
1F
100
AcDbEntity
  8
0-B_寸法
  6
Continuous
 62
     7
370
     9
100
AcDbPolyline
 90
        4
 70
     1
 43
6.0
 10
-2107.225075582644
 20
-417.0001979518571
 42
0.4142135623731
 10
-2110.225075582644
 20
-414.0001979518571
 42
0.4142135623731
 10
-2113.225075582643
 20
-417.0001979518571
 42
0.4142135623731
 10
-2110.225075582644
 20
-420.0001979518571
 42
0.4142135623731
  0
LWPOLYLINE
  5
2F5
330
1F
100
AcDbEntity
  8
0-B_寸法
  6
Continuous
 62
     7
370
     9
100
AcDbPolyline
 90
        4
 70
     1
 43
6.0
 10
-2107.225075582644
 20
-447.0002380061777
 42
0.4142135623731
 10
-2110.225075582644
 20
-444.0002380061777
 42
0.4142135623731
 10
-2113.225075582643
 20
-447.0002380061777
 42
0.4142135623731
 10
-2110.225075582644
 20
-450.0002380061777
 42
0.4142135623731
  0
LWPOLYLINE
  5
2F6
330
1F
100
AcDbEntity
  8
0-B_寸法
  6
Continuous
 62
     7
370
     9
100
AcDbPolyline
 90
        4
 70
     1
 43
6.0
 10
-2107.225075582644
 20
-501.0001979518557
 42
0.4142135623731
 10
-2110.225075582644
 20
-498.0001979518557
 42
0.4142135623731
 10
-2113.225075582643
 20
-501.0001979518557
 42
0.4142135623731
 10
-2110.225075582644
 20
-504.0001979518558
 42
0.4142135623731
  0
LWPOLYLINE
  5
2F7
330
1F
100
AcDbEntity
  8
0-B_寸法
  6
Continuous
 62
     7
370
     9
100
AcDbPolyline
 90
        4
 70
     1
 43
6.0
 10
-2107.225075582644
 20
-561.0001979518557
 42
0.4142135623731
 10
-2110.225075582644
 20
-558.0001979518557
 42
0.4142135623731
 10
-2113.225075582643
 20
-561.0001979518557
 42
0.4142135623731
 10
-2110.225075582644
 20
-564.0001979518557
 42
0.4142135623731
  0
LWPOLYLINE
  5
2F8
330
1F
100
AcDbEntity
  8
0-B_寸法
  6
Continuous
 62
     7
370
     9
100
AcDbPolyline
 90
        4
 70
     1
 43
6.0
 10
-2287.225075582644
 20
-417.0001979518571
 42
0.4142135623731
 10
-2290.225075582644
 20
-414.0001979518571
 42
0.4142135623731
 10
-2293.225075582643
 20
-417.0001979518571
 42
0.4142135623731
 10
-2290.225075582644
 20
-420.0001979518571
 42
0.4142135623731
  0
LWPOLYLINE
  5
2F9
330
1F
100
AcDbEntity
  8
0-B_寸法
  6
Continuous
 62
     7
370
     9
100
AcDbPolyline
 90
        4
 70
     1
 43
6.0
 10
-2287.225075582644
 20
-561.0001979518557
 42
0.4142135623731
 10
-2290.225075582644
 20
-558.0001979518557
 42
0.4142135623731
 10
-2293.225075582643
 20
-561.0001979518557
 42
0.4142135623731
 10
-2290.225075582644
 20
-564.0001979518557
 42
0.4142135623731
  0
LINE
  5
2FA
330
1F
100
AcDbEntity
  8
0-B_寸法
  6
Continuous
 62
   120
370
     5
100
AcDbLine
 10
-2500.225075582644
 20
-3159.000197951857
 30
0.0
 11
-2290.225075582644
 21
-3159.000197951857
 31
0.0
  0
LINE
  5
2FB
330
1F
100
AcDbEntity
  8
0-B_寸法
  6
Continuous
 62
   120
370
     5
100
AcDbLine
 10
-2500.225075582644
 20
-339.0001979518564
 30
0.0
 11
-2290.225075582644
 21
-339.0001979518564
 31
0.0
  0
LINE
  5
2FC
330
1F
100
AcDbEntity
  8
0-B_寸法
  6
Continuous
 62
   120
370
     5
100
AcDbLine
 10
-2500.225075582644
 20
-339.0001979518564
 30
0.0
 11
-2500.225075582644
 21
-3159.000197951857
 31
0.0
  0
LWPOLYLINE
  5
2FD
330
1F
100
AcDbEntity
  8
0-B_寸法
  6
Continuous
 62
     7
370
     9
100
AcDbPolyline
 90
        4
 70
     1
 43
6.0
 10
-2497.225075582644
 20
-339.0001979518564
 42
0.4142135623731
 10
-2500.225075582644
 20
-336.0001979518564
 42
0.4142135623731
 10
-2503.225075582643
 20
-339.0001979518564
 42
0.4142135623731
 10
-2500.225075582644
 20
-342.0001979518564
 42
0.4142135623731
  0
LWPOLYLINE
  5
2FE
330
1F
100
AcDbEntity
  8
0-B_寸法
  6
Continuous
 62
     7
370
     9
100
AcDbPolyline
 90
        4
 70
     1
 43
6.0
 10
-617.0818283164216
 20
-3069.000197951857
 42
0.4142135623731
 10
-620.0818283164216
 20
-3066.000197951857
 42
0.4142135623731
 10
-623.0818283164216
 20
-3069.000197951857
 42
0.4142135623731
 10
-620.0818283164216
 20
-3072.000197951856
 42
0.4142135623731
  0
LINE
  5
2FF
330
1F
100
AcDbEntity
  8
0-B_寸法
  6
Continuous
 62
   120
370
     5
100
AcDbLine
 10
-620.0818283164216
 20
-3039.000197951857
 30
0.0
 11
-830.0818283164216
 21
-3039.000197951857
 31
0.0
  0
LWPOLYLINE
  5
300
330
1F
100
AcDbEntity
  8
0-B_寸法
  6
Continuous
 62
     7
370
     9
100
AcDbPolyline
 90
        4
 70
     1
 43
6.0
 10
-617.0818283164216
 20
-3039.000197951857
 42
0.4142135623731
 10
-620.0818283164216
 20
-3036.000197951857
 42
0.4142135623731
 10
-623.0818283164216
 20
-3039.000197951857
 42
0.4142135623731
 10
-620.0818283164216
 20
-3042.000197951856
 42
0.4142135623731
  0
LINE
  5
301
330
1F
100
AcDbEntity
  8
0-B_寸法
  6
Continuous
 62
   120
370
     5
100
AcDbLine
 10
-620.0818283164182
 20
-579.0001979518564
 30
0.0
 11
-830.0818283164182
 21
-579.0001979518564
 31
0.0
  0
LWPOLYLINE
  5
302
330
1F
100
AcDbEntity
  8
0-B_寸法
  6
Continuous
 62
     7
370
     9
100
AcDbPolyline
 90
        4
 70
     1
 43
6.0
 10
-617.0818283164182
 20
-561.0001979518557
 42
0.4142135623731
 10
-620.0818283164182
 20
-558.0001979518557
 42
0.4142135623731
 10
-623.0818283164182
 20
-561.0001979518557
 42
0.4142135623731
 10
-620.0818283164182
 20
-564.0001979518557
 42
0.4142135623731
  0
LWPOLYLINE
  5
303
330
1F
100
AcDbEntity
  8
0-B_寸法
  6
Continuous
 62
     7
370
     9
100
AcDbPolyline
 90
        4
 70
     1
 43
6.0
 10
-617.0818283164182
 20
-579.0001979518564
 42
0.4142135623731
 10
-620.0818283164182
 20
-576.0001979518564
 42
0.4142135623731
 10
-623.0818283164182
 20
-579.0001979518564
 42
0.4142135623731
 10
-620.0818283164182
 20
-582.0001979518564
 42
0.4142135623731
  0
LINE
  5
304
330
1F
100
AcDbEntity
  8
0-B_寸法
  6
Continuous
 62
   120
370
     5
100
AcDbLine
 10
-620.0818283164182
 20
-561.0001979518557
 30
0.0
 11
-620.0818283164216
 21
-3069.000197951857
 31
0.0
  0
LWPOLYLINE
  5
305
330
1F
100
AcDbEntity
  8
0-B_寸法
  6
Continuous
 62
     7
370
     9
100
AcDbPolyline
 90
        4
 70
     1
 43
6.0
 10
-407.0818283164182
 20
-3159.000197951857
 42
0.4142135623731
 10
-410.0818283164182
 20
-3156.000197951857
 42
0.4142135623731
 10
-413.0818283164182
 20
-3159.000197951857
 42
0.4142135623731
 10
-410.0818283164182
 20
-3162.000197951856
 42
0.4142135623731
  0
LINE
  5
306
330
1F
100
AcDbEntity
  8
0-B_寸法
  6
Continuous
 62
   120
370
     5
100
AcDbLine
 10
-410.0818283164182
 20
-3087.000197951856
 30
0.0
 11
-830.0818283164216
 21
-3087.000197951856
 31
0.0
  0
LWPOLYLINE
  5
307
330
1F
100
AcDbEntity
  8
0-B_寸法
  6
Continuous
 62
     7
370
     9
100
AcDbPolyline
 90
        4
 70
     1
 43
6.0
 10
-407.0818283164182
 20
-3087.000197951856
 42
0.4142135623731
 10
-410.0818283164182
 20
-3084.000197951857
 42
0.4142135623731
 10
-413.0818283164182
 20
-3087.000197951856
 42
0.4142135623731
 10
-410.0818283164182
 20
-3090.000197951856
 42
0.4142135623731
  0
LINE
  5
308
330
1F
100
AcDbEntity
  8
0-B_寸法
  6
Continuous
 62
   120
370
     5
100
AcDbLine
 10
-410.0818283164182
 20
-339.0001979518564
 30
0.0
 11
-410.0818283164182
 21
-3159.000197951857
 31
0.0
  0
LINE
  5
309
330
1F
100
AcDbEntity
  8
0-B_寸法
  6
Continuous
 62
   120
370
     5
100
AcDbLine
 10
-410.0818283164182
 20
-3069.000197951857
 30
0.0
 11
-830.0818283164216
 21
-3069.000197951857
 31
0.0
  0
LWPOLYLINE
  5
30A
330
1F
100
AcDbEntity
  8
0-B_寸法
  6
Continuous
 62
     7
370
     9
100
AcDbPolyline
 90
        4
 70
     1
 43
6.0
 10
-407.0818283164182
 20
-3069.000197951857
 42
0.4142135623731
 10
-410.0818283164182
 20
-3066.000197951857
 42
0.4142135623731
 10
-413.0818283164182
 20
-3069.000197951857
 42
0.4142135623731
 10
-410.0818283164182
 20
-3072.000197951856
 42
0.4142135623731
  0
LINE
  5
30B
330
1F
100
AcDbEntity
  8
0-B_寸法
  6
Continuous
 62
   120
370
     5
100
AcDbLine
 10
-410.0818283164182
 20
-561.0001979518557
 30
0.0
 11
-830.0818283164182
 21
-561.0001979518557
 31
0.0
  0
LWPOLYLINE
  5
30C
330
1F
100
AcDbEntity
  8
0-B_寸法
  6
Continuous
 62
     7
370
     9
100
AcDbPolyline
 90
        4
 70
     1
 43
6.0
 10
-407.0818283164182
 20
-417.0001979518571
 42
0.4142135623731
 10
-410.0818283164182
 20
-414.0001979518571
 42
0.4142135623731
 10
-413.0818283164182
 20
-417.0001979518571
 42
0.4142135623731
 10
-410.0818283164182
 20
-420.0001979518571
 42
0.4142135623731
  0
LWPOLYLINE
  5
30D
330
1F
100
AcDbEntity
  8
0-B_寸法
  6
Continuous
 62
     7
370
     9
100
AcDbPolyline
 90
        4
 70
     1
 43
6.0
 10
-407.0818283164182
 20
-561.0001979518557
 42
0.4142135623731
 10
-410.0818283164182
 20
-558.0001979518557
 42
0.4142135623731
 10
-413.0818283164182
 20
-561.0001979518557
 42
0.4142135623731
 10
-410.0818283164182
 20
-564.0001979518557
 42
0.4142135623731
  0
LWPOLYLINE
  5
30E
330
1F
100
AcDbEntity
  8
0-B_寸法
  6
Continuous
 62
     7
370
     9
100
AcDbPolyline
 90
        4
 70
     1
 43
6.0
 10
-407.0818283164182
 20
-369.0001979518573
 42
0.4142135623731
 10
-410.0818283164182
 20
-366.0001979518573
 42
0.4142135623731
 10
-413.0818283164182
 20
-369.0001979518573
 42
0.4142135623731
 10
-410.0818283164182
 20
-372.0001979518573
 42
0.4142135623731
  0
LINE
  5
30F
330
1F
100
AcDbEntity
  8
0-B_寸法
  6
Continuous
 62
   120
370
     5
100
AcDbLine
 10
-410.0818283164182
 20
-369.0001979518573
 30
0.0
 11
-830.0818283164182
 21
-369.0001979518573
 31
0.0
  0
LWPOLYLINE
  5
310
330
1F
100
AcDbEntity
  8
0-B_寸法
  6
Continuous
 62
     7
370
     9
100
AcDbPolyline
 90
        4
 70
     1
 43
6.0
 10
-407.0818283164182
 20
-339.0001979518564
 42
0.4142135623731
 10
-410.0818283164182
 20
-336.0001979518564
 42
0.4142135623731
 10
-413.0818283164182
 20
-339.0001979518564
 42
0.4142135623731
 10
-410.0818283164182
 20
-342.0001979518564
 42
0.4142135623731
  0
LINE
  5
311
330
1F
100
AcDbEntity
  8
0-B_寸法
  6
Continuous
 62
   120
370
     5
100
AcDbLine
 10
-410.0818283164182
 20
-339.0001979518564
 30
0.0
 11
-830.0818283164182
 21
-339.0001979518564
 31
0.0
  0
LINE
  5
312
330
1F
100
AcDbEntity
  8
0-B_寸法
  6
Continuous
 62
   120
370
     5
100
AcDbLine
 10
-200.0818283164182
 20
-3159.000197951857
 30
0.0
 11
-830.0818283164216
 21
-3159.000197951857
 31
0.0
  0
LWPOLYLINE
  5
313
330
1F
100
AcDbEntity
  8
0-B_寸法
  6
Continuous
 62
     7
370
     9
100
AcDbPolyline
 90
        4
 70
     1
 43
6.0
 10
-197.0818283164182
 20
-3159.000197951857
 42
0.4142135623731
 10
-200.0818283164182
 20
-3156.000197951857
 42
0.4142135623731
 10
-203.0818283164182
 20
-3159.000197951857
 42
0.4142135623731
 10
-200.0818283164182
 20
-3162.000197951856
 42
0.4142135623731
  0
LINE
  5
314
330
1F
100
AcDbEntity
  8
0-B_寸法
  6
Continuous
 62
   120
370
     5
100
AcDbLine
 10
-200.0818283164182
 20
-417.0001979518571
 30
0.0
 11
-830.0818283164182
 21
-417.0001979518571
 31
0.0
  0
LWPOLYLINE
  5
315
330
1F
100
AcDbEntity
  8
0-B_寸法
  6
Continuous
 62
     7
370
     9
100
AcDbPolyline
 90
        4
 70
     1
 43
6.0
 10
-197.0818283164182
 20
-417.0001979518571
 42
0.4142135623731
 10
-200.0818283164182
 20
-414.0001979518571
 42
0.4142135623731
 10
-203.0818283164182
 20
-417.0001979518571
 42
0.4142135623731
 10
-200.0818283164182
 20
-420.0001979518571
 42
0.4142135623731
  0
LINE
  5
316
330
1F
100
AcDbEntity
  8
0-B_寸法
  6
Continuous
 62
   120
370
     5
100
AcDbLine
 10
-200.0818283164182
 20
-411.0001979518557
 30
0.0
 11
-200.0818283164182
 21
-3159.000197951857
 31
0.0
  0
LINE
  5
317
330
1F
100
AcDbEntity
  8
0-1_通り芯
  6
JWW_CENTER1
 62
   120
370
     5
100
AcDbLine
 10
-2663.539734573274
 20
-3159.000197951857
 30
0.0
 11
-140.0818283164182
 21
-3159.000197951857
 31
0.0
  0
LINE
  5
318
330
1F
100
AcDbEntity
  8
0-1_通り芯
  6
JWW_CENTER1
 62
   120
370
     5
100
AcDbLine
 10
-140.0818283164182
 20
-339.0001979518564
 30
0.0
 11
-2663.539734573274
 21
-339.0001979518564
 31
0.0
  0
LINE
  5
319
330
1F
100
AcDbEntity
  8
0-0_補助線
  6
JWW_HOJO
 62
   120
370
     5
100
AcDbLine
 10
-830.0818285538338
 20
9.000008041796264
 30
0.0
 11
-830.0818285538338
 21
-3159.000403945509
 31
0.0
  0
LINE
  5
31A
330
1F
100
AcDbEntity
  8
0-0_補助線
  6
JWW_HOJO
 62
   120
370
     5
100
AcDbLine
 10
-2290.225075824629
 20
9.000008041796264
 30
0.0
 11
-2290.225075824629
 21
-3159.000403945509
 31
0.0
  0
LINE
  5
31B
330
1F
100
AcDbEntity
  8
0-0_補助線
  6
JWW_HOJO
 62
   120
370
     5
100
AcDbLine
 10
-2290.225075824629
 20
9.000008041796264
 30
0.0
 11
-830.0818285538338
 21
9.000008041796264
 31
0.0
  0
LINE
  5
31C
330
1F
100
AcDbEntity
  8
0-0_補助線
  6
JWW_HOJO
 62
   120
370
     5
100
AcDbLine
 10
-2026.756058553834
 20
-1749.000197951857
 30
0.0
 11
-1028.356465672244
 21
-1749.000197951857
 31
0.0
  0
LINE
  5
31D
330
1F
100
AcDbEntity
  8
0-0_補助線
  6
JWW_HOJO
 62
   120
370
     5
100
AcDbLine
 10
-2026.756058553834
 20
-1869.000197951856
 30
0.0
 11
-1028.356465672244
 21
-1869.000197951856
 31
0.0
  0
LINE
  5
31E
330
1F
100
AcDbEntity
  8
0-6_扉
  6
Continuous
 62
   200
370
    20
100
AcDbLine
 10
-1225.756058553833
 20
-3039.000197951857
 30
0.0
 11
-1441.756058553834
 21
-3039.000197951857
 31
0.0
  0
LINE
  5
31F
330
1F
100
AcDbEntity
  8
0-3_仕上げ
  6
Continuous
 62
    40
370
    15
100
AcDbLine
 10
-1228.756058553833
 20
-3087.000197951856
 30
0.0
 11
-1228.756058553833
 21
-3159.000197951857
 31
0.0
  0
LINE
  5
320
330
1F
100
AcDbEntity
  8
0-3_仕上げ
  6
Continuous
 62
    40
370
    15
100
AcDbLine
 10
-1642.756058553835
 20
-3087.000197951856
 30
0.0
 11
-1642.756058553835
 21
-3159.000197951857
 31
0.0
  0
LINE
  5
321
330
1F
100
AcDbEntity
  8
0-7_金物
  6
Continuous
 62
     7
370
     9
100
AcDbLine
 10
-1624.756361822268
 20
-381.0005355525641
 30
0.0
 11
-1444.756499151368
 21
-381.0005355525641
 31
0.0
  0
LINE
  5
322
330
1F
100
AcDbEntity
  8
0-7_金物
  6
Continuous
 62
     7
370
     9
100
AcDbLine
 10
-1444.756499151368
 20
-369.0001979518564
 30
0.0
 11
-1444.756499151368
 21
-381.0005355525641
 31
0.0
  0
LINE
  5
323
330
1F
100
AcDbEntity
  8
0-7_金物
  6
Continuous
 62
     7
370
     9
100
AcDbLine
 10
-1624.756361822268
 20
-369.0001979518564
 30
0.0
 11
-1624.756361822268
 21
-381.0005355525641
 31
0.0
  0
LINE
  5
324
330
1F
100
AcDbEntity
  8
0-7_金物
  6
Continuous
 62
     7
370
     9
100
AcDbLine
 10
-1624.756361822268
 20
-369.0001979518564
 30
0.0
 11
-1444.756499151368
 21
-369.0001979518564
 31
0.0
  0
LINE
  5
325
330
1F
100
AcDbEntity
  8
0-7_金物
  6
Continuous
 62
     7
370
     9
100
AcDbLine
 10
-1594.756258825441
 20
-381.0005355525641
 30
0.0
 11
-1594.756258825441
 21
-393.000129287305
 31
0.0
  0
LINE
  5
326
330
1F
100
AcDbEntity
  8
0-7_金物
  6
Continuous
 62
     7
370
     9
100
AcDbLine
 10
-1474.756602148195
 20
-381.0005355525641
 30
0.0
 11
-1474.756602148195
 21
-393.000129287305
 31
0.0
  0
LINE
  5
327
330
1F
100
AcDbEntity
  8
0-7_金物
  6
Continuous
 62
     7
370
     9
100
AcDbLine
 10
-1594.756258825441
 20
-393.000129287305
 30
0.0
 11
-1474.756602148195
 21
-393.000129287305
 31
0.0
  0
LINE
  5
328
330
1F
100
AcDbEntity
  8
0-7_金物
  6
Continuous
 62
     7
370
     9
100
AcDbLine
 10
-1588.75609288611
 20
-393.000129287305
 30
0.0
 11
-1588.75609288611
 21
-417.0001979518571
 31
0.0
  0
LINE
  5
329
330
1F
100
AcDbEntity
  8
0-7_金物
  6
Continuous
 62
     7
370
     9
100
AcDbLine
 10
-1480.756024221559
 20
-417.0001979518571
 30
0.0
 11
-1480.756024221559
 21
-393.000129287305
 31
0.0
  0
LINE
  5
32A
330
1F
100
AcDbEntity
  8
0-C_ハッチ
  6
JWW_DASHED1
 62
   120
370
     5
100
AcDbLine
 10
-1328.846145642881
 20
-369.000197951853
 30
0.0
 11
-1298.846145642887
 21
-339.0001979518598
 31
0.0
  0
LINE
  5
32B
330
1F
100
AcDbEntity
  8
0-C_ハッチ
  6
JWW_DASHED1
 62
   120
370
     5
100
AcDbLine
 10
-1371.272552514077
 20
-369.0001979518505
 30
0.0
 11
-1341.272552514084
 21
-339.0001979518573
 31
0.0
  0
LINE
  5
32C
330
1F
100
AcDbEntity
  8
0-C_ハッチ
  6
JWW_DASHED1
 62
   120
370
     5
100
AcDbLine
 10
-1413.698959385274
 20
-369.0001979518479
 30
0.0
 11
-1383.698959385281
 21
-339.0001979518547
 31
0.0
  0
LINE
  5
32D
330
1F
100
AcDbEntity
  8
0-C_ハッチ
  6
JWW_DASHED1
 62
   120
370
     5
100
AcDbLine
 10
-1456.12536625647
 20
-369.0001979518436
 30
0.0
 11
-1426.125366256481
 21
-339.000197951853
 31
0.0
  0
LINE
  5
32E
330
1F
100
AcDbEntity
  8
0-C_ハッチ
  6
JWW_DASHED1
 62
   120
370
     5
100
AcDbLine
 10
-1498.551773127684
 20
-369.0001979518573
 30
0.0
 11
-1468.551773127677
 21
-339.0001979518496
 31
0.0
  0
LINE
  5
32F
330
1F
100
AcDbEntity
  8
0-C_ハッチ
  6
JWW_DASHED1
 62
   120
370
     5
100
AcDbLine
 10
-1540.97817999884
 20
-369.0001979518667
 30
0.0
 11
-1510.97817999883
 21
-339.0001979518573
 31
0.0
  0
LINE
  5
330
330
1F
100
AcDbEntity
  8
0-C_ハッチ
  6
JWW_DASHED1
 62
   120
370
     5
100
AcDbLine
 10
-1583.404586870036
 20
-369.0001979518641
 30
0.0
 11
-1553.40458687003
 21
-339.0001979518556
 31
0.0
  0
LINE
  5
331
330
1F
100
AcDbEntity
  8
0-C_ハッチ
  6
JWW_DASHED1
 62
   120
370
     5
100
AcDbLine
 10
-1625.830993741233
 20
-369.0001979518615
 30
0.0
 11
-1595.830993741243
 21
-339.0001979518692
 31
0.0
  0
LINE
  5
332
330
1F
100
AcDbEntity
  8
0-C_ハッチ
  6
JWW_DASHED1
 62
   120
370
     5
100
AcDbLine
 10
-1668.25740061243
 20
-369.000197951859
 30
0.0
 11
-1638.25740061244
 21
-339.0001979518667
 31
0.0
  0
LINE
  5
333
330
1F
100
AcDbEntity
  8
0-C_ハッチ
  6
JWW_DASHED1
 62
   120
370
     5
100
AcDbLine
 10
-1710.68380748363
 20
-369.0001979518556
 30
0.0
 11
-1680.683807483636
 21
-339.0001979518641
 31
0.0
  0
LINE
  5
334
330
1F
100
AcDbEntity
  8
0-C_ハッチ
  6
JWW_DASHED1
 62
   120
370
     5
100
AcDbLine
 10
-1753.110214354826
 20
-369.000197951853
 30
0.0
 11
-1723.110214354833
 21
-339.0001979518598
 31
0.0
  0
LINE
  5
335
330
1F
100
AcDbEntity
  8
0-C_ハッチ
  6
JWW_DASHED1
 62
   120
370
     5
100
AcDbLine
 10
-1795.53662122604
 20
-369.0001979518667
 30
0.0
 11
-1765.53662122603
 21
-339.0001979518573
 31
0.0
  0
LINE
  5
336
330
1F
100
AcDbEntity
  8
0-3_仕上げ
  6
Continuous
 62
     7
370
     9
100
AcDbLine
 10
-1873.756058553833
 20
-369.0001979518573
 30
0.0
 11
-1195.756058553833
 21
-369.0001979518573
 31
0.0
  0
LINE
  5
337
330
1F
100
AcDbEntity
  8
0-3_仕上げ
  6
Continuous
 62
     7
370
     9
100
AcDbLine
 10
-1873.756058553833
 20
-339.0001979518573
 30
0.0
 11
-1195.756058553833
 21
-339.0001979518573
 31
0.0
  0
LINE
  5
338
330
1F
100
AcDbEntity
  8
0-C_ハッチ
  6
JWW_DASHED1
 62
   120
370
     5
100
AcDbLine
 10
-1286.419738771684
 20
-369.0001979518556
 30
0.0
 11
-1256.419738771684
 21
-339.0001979518564
 31
0.0
  0
LINE
  5
339
330
1F
100
AcDbEntity
  8
0-C_ハッチ
  6
JWW_DASHED1
 62
   120
370
     5
100
AcDbLine
 10
-1837.963028097254
 20
-369.0001979518667
 30
0.0
 11
-1807.963028097243
 21
-339.0001979518573
 31
0.0
  0
LINE
  5
33A
330
1F
100
AcDbEntity
  8
0-C_ハッチ
  6
JWW_DASHED1
 62
   120
370
     5
100
AcDbLine
 10
-1201.566925029298
 20
-369.0001979518573
 30
0.0
 11
-1195.756058553833
 21
-363.1893314763906
 31
0.0
  0
LINE
  5
33B
330
1F
100
AcDbEntity
  8
0-C_ハッチ
  6
JWW_DASHED1
 62
   120
370
     5
100
AcDbLine
 10
-1243.993331900491
 20
-369.0001979518564
 30
0.0
 11
-1213.993331900491
 21
-339.0001979518573
 31
0.0
  0
LINE
  5
33C
330
1F
100
AcDbEntity
  8
0-C_ハッチ
  6
JWW_DASHED1
 62
   120
370
     5
100
AcDbLine
 10
-1873.756058553833
 20
-362.3668215372439
 30
0.0
 11
-1850.389434968447
 21
-339.0001979518573
 31
0.0
  0
LINE
  5
33D
330
1F
100
AcDbEntity
  8
0-B_寸法
  6
Continuous
 62
   120
370
     5
100
AcDbLine
 10
-1864.756058553835
 20
-887.5976212451678
 30
0.0
 11
-1204.756058553835
 21
-887.5976212451678
 31
0.0
  0
LWPOLYLINE
  5
33E
330
1F
100
AcDbEntity
  8
0-B_寸法
  6
Continuous
 62
     7
370
     9
100
AcDbPolyline
 90
        4
 70
     1
 43
6.0
 10
-1201.756058553835
 20
-887.5976212451678
 42
0.4142135623731
 10
-1204.756058553835
 20
-884.5976212451678
 42
0.4142135623731
 10
-1207.756058553835
 20
-887.5976212451678
 42
0.4142135623731
 10
-1204.756058553835
 20
-890.5976212451678
 42
0.4142135623731
  0
LINE
  5
33F
330
1F
100
AcDbEntity
  8
0-B_寸法
  6
Continuous
 62
   120
370
     5
100
AcDbLine
 10
-1204.756058553835
 20
-887.5976212451678
 30
0.0
 11
-1204.756058553835
 21
-709.0021892237517
 31
0.0
  0
LWPOLYLINE
  5
340
330
1F
100
AcDbEntity
  8
0-B_寸法
  6
Continuous
 62
     7
370
     9
100
AcDbPolyline
 90
        4
 70
     1
 43
6.0
 10
-1861.756058553835
 20
-887.5976212451678
 42
0.4142135623731
 10
-1864.756058553835
 20
-884.5976212451678
 42
0.4142135623731
 10
-1867.756058553835
 20
-887.5976212451678
 42
0.4142135623731
 10
-1864.756058553835
 20
-890.5976212451678
 42
0.4142135623731
  0
LINE
  5
341
330
1F
100
AcDbEntity
  8
0-B_寸法
  6
Continuous
 62
   120
370
     5
100
AcDbLine
 10
-1864.756058553835
 20
-887.5976212451678
 30
0.0
 11
-1864.756058553835
 21
-709.0021892237517
 31
0.0
  0
LINE
  5
342
330
1F
100
AcDbEntity
  8
0-4_枠
  6
Continuous
 62
    92
370
    13
100
AcDbLine
 10
-1204.756058553835
 20
-417.0001979518571
 30
0.0
 11
-1864.756058553835
 21
-417.0001979518571
 31
0.0
  0
LINE
  5
343
330
1F
100
AcDbEntity
  8
0-4_枠
  6
Continuous
 62
    92
370
    13
100
AcDbLine
 10
-1861.756493429324
 20
-501.0001979518557
 30
0.0
 11
-1861.756493429324
 21
-558.0006328273455
 31
0.0
  0
LINE
  5
344
330
1F
100
AcDbEntity
  8
0-4_枠
  6
Continuous
 62
    92
370
    13
100
AcDbLine
 10
-1864.756058553835
 20
-501.0001979518557
 30
0.0
 11
-1864.756058553835
 21
-561.0001979518557
 31
0.0
  0
LINE
  5
345
330
1F
100
AcDbEntity
  8
0-4_枠
  6
Continuous
 62
    92
370
    13
100
AcDbLine
 10
-1804.756058553835
 20
-501.0001979518557
 30
0.0
 11
-1864.756058553835
 21
-501.0001979518557
 31
0.0
  0
LINE
  5
346
330
1F
100
AcDbEntity
  8
0-4_枠
  6
Continuous
 62
    92
370
    13
100
AcDbLine
 10
-1864.756058553835
 20
-417.0001979518571
 30
0.0
 11
-1864.756058553835
 21
-447.0001979518571
 31
0.0
  0
LINE
  5
347
330
1F
100
AcDbEntity
  8
0-4_枠
  6
Continuous
 62
    92
370
    13
100
AcDbLine
 10
-1804.756058553835
 20
-447.0001979518571
 30
0.0
 11
-1804.756058553835
 21
-501.0001979518557
 31
0.0
  0
LINE
  5
348
330
1F
100
AcDbEntity
  8
0-4_枠
  6
Continuous
 62
    92
370
    13
100
AcDbLine
 10
-1804.756058553835
 20
-447.0001979518571
 30
0.0
 11
-1864.756058553835
 21
-447.0001979518571
 31
0.0
  0
LINE
  5
349
330
1F
100
AcDbEntity
  8
0-4_枠
  6
Continuous
 62
    92
370
    13
100
AcDbLine
 10
-1207.756218771118
 20
-558.0006328273455
 30
0.0
 11
-1207.756218771118
 21
-501.0001979518557
 31
0.0
  0
LINE
  5
34A
330
1F
100
AcDbEntity
  8
0-4_枠
  6
Continuous
 62
    92
370
    13
100
AcDbLine
 10
-1204.756058553835
 20
-561.0001979518557
 30
0.0
 11
-1204.756058553835
 21
-501.0001979518557
 31
0.0
  0
LINE
  5
34B
330
1F
100
AcDbEntity
  8
0-4_枠
  6
Continuous
 62
    92
370
    13
100
AcDbLine
 10
-1264.755646566531
 20
-447.0001979518571
 30
0.0
 11
-1264.755646566531
 21
-501.0001979518557
 31
0.0
  0
LINE
  5
34C
330
1F
100
AcDbEntity
  8
0-4_枠
  6
Continuous
 62
    92
370
    13
100
AcDbLine
 10
-1204.756058553835
 20
-501.0001979518557
 30
0.0
 11
-1264.755646566531
 21
-501.0001979518557
 31
0.0
  0
LINE
  5
34D
330
1F
100
AcDbEntity
  8
0-C_ハッチ
  6
Continuous
 62
   120
370
     5
100
AcDbLine
 10
-1248.509244315349
 20
-558.0006328273319
 30
0.0
 11
-1207.756218771114
 21
-517.2476072830952
 31
0.0
  0
LINE
  5
34E
330
1F
100
AcDbEntity
  8
0-C_ハッチ
  6
Continuous
 62
   120
370
     5
100
AcDbLine
 10
-1307.906213935065
 20
-558.0006328273447
 30
0.0
 11
-1250.905779059579
 21
-501.0001979518557
 31
0.0
  0
LINE
  5
34F
330
1F
100
AcDbEntity
  8
0-C_ハッチ
  6
Continuous
 62
   120
370
     5
100
AcDbLine
 10
-1367.303183554705
 20
-558.0006328273371
 30
0.0
 11
-1264.755646566527
 21
-455.4530958391572
 31
0.0
  0
LINE
  5
350
330
1F
100
AcDbEntity
  8
0-C_ハッチ
  6
Continuous
 62
   120
370
     5
100
AcDbLine
 10
-1256.302748679228
 20
-447.0001979518571
 30
0.0
 11
-1226.302748679235
 21
-417.0001979518682
 31
0.0
  0
LINE
  5
351
330
1F
100
AcDbEntity
  8
0-C_ハッチ
  6
Continuous
 62
   120
370
     5
100
AcDbLine
 10
-1426.700153174346
 20
-558.0006328273303
 30
0.0
 11
-1285.699718298879
 21
-417.0001979518614
 31
0.0
  0
LINE
  5
352
330
1F
100
AcDbEntity
  8
0-C_ハッチ
  6
Continuous
 62
   120
370
     5
100
AcDbLine
 10
-1548.493657538226
 20
-561.0001979518618
 30
0.0
 11
-1404.493657538221
 21
-417.0001979518545
 31
0.0
  0
LINE
  5
353
330
1F
100
AcDbEntity
  8
0-C_ハッチ
  6
Continuous
 62
   120
370
     5
100
AcDbLine
 10
-1664.288031653037
 20
-558.0006328273225
 30
0.0
 11
-1523.287596777563
 21
-417.0001979518494
 31
0.0
  0
LINE
  5
354
330
1F
100
AcDbEntity
  8
0-C_ハッチ
  6
Continuous
 62
   120
370
     5
100
AcDbLine
 10
-1723.685001272749
 20
-558.0006328273345
 30
0.0
 11
-1582.684566397275
 21
-417.0001979518571
 31
0.0
  0
LINE
  5
355
330
1F
100
AcDbEntity
  8
0-C_ハッチ
  6
Continuous
 62
   120
370
     5
100
AcDbLine
 10
-1783.081970892407
 20
-558.0006328273439
 30
0.0
 11
-1642.081536016933
 21
-417.0001979518682
 31
0.0
  0
LINE
  5
356
330
1F
100
AcDbEntity
  8
0-C_ハッチ
  6
Continuous
 62
   120
370
     5
100
AcDbLine
 10
-1842.478940512047
 20
-558.0006328273362
 30
0.0
 11
-1701.478505636563
 21
-417.0001979518528
 31
0.0
  0
LINE
  5
357
330
1F
100
AcDbEntity
  8
0-C_ハッチ
  6
Continuous
 62
   120
370
     5
100
AcDbLine
 10
-1861.756493429327
 20
-517.8812161249132
 30
0.0
 11
-1844.87547525627
 21
-501.0001979518574
 31
0.0
  0
LINE
  5
358
330
1F
100
AcDbEntity
  8
0-C_ハッチ
  6
Continuous
 62
   120
370
     5
100
AcDbLine
 10
-1804.756058553831
 20
-460.8807812494166
 30
0.0
 11
-1760.875475256279
 21
-417.0001979518656
 31
0.0
  0
LINE
  5
359
330
1F
100
AcDbEntity
  8
0-C_ハッチ
  6
Continuous
 62
   120
370
     5
100
AcDbLine
 10
-1850.272444875912
 20
-447.0001979518537
 30
0.0
 11
-1820.272444875905
 21
-417.0001979518469
 31
0.0
  0
LINE
  5
35A
330
1F
100
AcDbEntity
  8
0-6_扉
  6
Continuous
 62
   200
370
    20
100
AcDbLine
 10
-1441.756058553834
 20
-579.0001979518572
 30
0.0
 11
-1225.756058553833
 21
-579.0001979518572
 31
0.0
  0
LINE
  5
35B
330
1F
100
AcDbEntity
  8
0-3_仕上げ
  6
Continuous
 62
    40
370
    15
100
AcDbLine
 10
-830.0818283164216
 20
-3087.000197951856
 30
0.0
 11
-1228.756058553833
 21
-3087.000197951856
 31
0.0
  0
LINE
  5
35C
330
1F
100
AcDbEntity
  8
0-3_仕上げ
  6
Continuous
 62
    40
370
    15
100
AcDbLine
 10
-830.0818283164216
 20
-3159.000197951857
 30
0.0
 11
-1228.756058553833
 21
-3159.000197951857
 31
0.0
  0
LINE
  5
35D
330
1F
100
AcDbEntity
  8
0-3_仕上げ
  6
Continuous
 62
     7
370
     9
100
AcDbLine
 10
-830.0818283164216
 20
-3096.000197951856
 30
0.0
 11
-1228.756058553833
 21
-3096.000197951856
 31
0.0
  0
LINE
  5
35E
330
1F
100
AcDbEntity
  8
0-3_仕上げ
  6
Continuous
 62
     7
370
     9
100
AcDbLine
 10
-830.0818283164216
 20
-3150.000197951855
 30
0.0
 11
-1228.756058553833
 21
-3150.000197951855
 31
0.0
  0
LINE
  5
35F
330
1F
100
AcDbEntity
  8
0-3_仕上げ
  6
Continuous
 62
     7
370
     9
100
AcDbLine
 10
-830.0818283164216
 20
-3105.000197951856
 30
0.0
 11
-1228.756058553833
 21
-3105.000197951856
 31
0.0
  0
LINE
  5
360
330
1F
100
AcDbEntity
  8
0-3_仕上げ
  6
Continuous
 62
     7
370
     9
100
AcDbLine
 10
-830.0818283164216
 20
-3114.000197951856
 30
0.0
 11
-1228.756058553833
 21
-3114.000197951856
 31
0.0
  0
LINE
  5
361
330
1F
100
AcDbEntity
  8
0-3_仕上げ
  6
Continuous
 62
     7
370
     9
100
AcDbLine
 10
-830.0818283164216
 20
-3123.000197951856
 30
0.0
 11
-1228.756058553833
 21
-3123.000197951856
 31
0.0
  0
LINE
  5
362
330
1F
100
AcDbEntity
  8
0-3_仕上げ
  6
Continuous
 62
     7
370
     9
100
AcDbLine
 10
-830.0818283164216
 20
-3132.000197951856
 30
0.0
 11
-1228.756058553833
 21
-3132.000197951856
 31
0.0
  0
LINE
  5
363
330
1F
100
AcDbEntity
  8
0-3_仕上げ
  6
Continuous
 62
     7
370
     9
100
AcDbLine
 10
-830.0818283164216
 20
-3141.000197951856
 30
0.0
 11
-1228.756058553833
 21
-3141.000197951856
 31
0.0
  0
LINE
  5
364
330
1F
100
AcDbEntity
  8
0-3_仕上げ
  6
Continuous
 62
    40
370
    15
100
AcDbLine
 10
-2297.77525851943
 20
-3087.000197951856
 30
0.0
 11
-1642.756058553835
 21
-3087.000197951856
 31
0.0
  0
LINE
  5
365
330
1F
100
AcDbEntity
  8
0-3_仕上げ
  6
Continuous
 62
    40
370
    15
100
AcDbLine
 10
-2297.77525851943
 20
-3159.000197951857
 30
0.0
 11
-1642.756058553835
 21
-3159.000197951857
 31
0.0
  0
LINE
  5
366
330
1F
100
AcDbEntity
  8
0-3_仕上げ
  6
Continuous
 62
     7
370
     9
100
AcDbLine
 10
-2297.77525851943
 20
-3096.000197951856
 30
0.0
 11
-1642.756058553835
 21
-3096.000197951856
 31
0.0
  0
LINE
  5
367
330
1F
100
AcDbEntity
  8
0-3_仕上げ
  6
Continuous
 62
     7
370
     9
100
AcDbLine
 10
-2297.77525851943
 20
-3150.000197951855
 30
0.0
 11
-1642.756058553835
 21
-3150.000197951855
 31
0.0
  0
LINE
  5
368
330
1F
100
AcDbEntity
  8
0-3_仕上げ
  6
Continuous
 62
     7
370
     9
100
AcDbLine
 10
-2297.77525851943
 20
-3105.000197951856
 30
0.0
 11
-1642.756058553835
 21
-3105.000197951856
 31
0.0
  0
LINE
  5
369
330
1F
100
AcDbEntity
  8
0-3_仕上げ
  6
Continuous
 62
     7
370
     9
100
AcDbLine
 10
-2297.77525851943
 20
-3114.000197951856
 30
0.0
 11
-1642.756058553835
 21
-3114.000197951856
 31
0.0
  0
LINE
  5
36A
330
1F
100
AcDbEntity
  8
0-3_仕上げ
  6
Continuous
 62
     7
370
     9
100
AcDbLine
 10
-2297.77525851943
 20
-3123.000197951856
 30
0.0
 11
-1642.756058553835
 21
-3123.000197951856
 31
0.0
  0
LINE
  5
36B
330
1F
100
AcDbEntity
  8
0-3_仕上げ
  6
Continuous
 62
     7
370
     9
100
AcDbLine
 10
-2297.77525851943
 20
-3132.000197951856
 30
0.0
 11
-1642.756058553835
 21
-3132.000197951856
 31
0.0
  0
LINE
  5
36C
330
1F
100
AcDbEntity
  8
0-3_仕上げ
  6
Continuous
 62
     7
370
     9
100
AcDbLine
 10
-2297.77525851943
 20
-3141.000197951856
 30
0.0
 11
-1642.756058553835
 21
-3141.000197951856
 31
0.0
  0
LINE
  5
36D
330
1F
100
AcDbEntity
  8
0-4_枠
  6
Continuous
 62
   120
370
     5
100
AcDbLine
 10
-1864.756058553835
 20
-417.0001979518571
 30
0.0
 11
-1873.756058553833
 21
-417.0001979518571
 31
0.0
  0
LINE
  5
36E
330
1F
100
AcDbEntity
  8
0-4_枠
  6
Continuous
 62
   120
370
     5
100
AcDbLine
 10
-1204.756058553835
 20
-417.0001979518571
 30
0.0
 11
-1195.756058553833
 21
-417.0001979518571
 31
0.0
  0
LINE
  5
36F
330
1F
100
AcDbEntity
  8
0-4_枠
  6
Continuous
 62
    92
370
    13
100
AcDbLine
 10
-1204.756058553835
 20
-417.0001979518571
 30
0.0
 11
-1204.756058553835
 21
-447.0001979518571
 31
0.0
  0
LINE
  5
370
330
1F
100
AcDbEntity
  8
0-4_枠
  6
Continuous
 62
    92
370
    13
100
AcDbLine
 10
-1264.755646566531
 20
-447.0001979518571
 30
0.0
 11
-1204.756058553835
 21
-447.0001979518571
 31
0.0
  0
LINE
  5
371
330
1F
100
AcDbEntity
  8
0-4_枠
  6
Continuous
 62
   120
370
     5
100
AcDbLine
 10
-1873.756058553833
 20
-417.0001979518571
 30
0.0
 11
-1873.756058553833
 21
-1749.000197951857
 31
0.0
  0
LINE
  5
372
330
1F
100
AcDbEntity
  8
0-4_枠
  6
Continuous
 62
   120
370
     5
100
AcDbLine
 10
-1873.756058553833
 20
-1869.000197951856
 30
0.0
 11
-1873.756058553833
 21
-3087.000197951856
 31
0.0
  0
LINE
  5
373
330
1F
100
AcDbEntity
  8
0-6_扉
  6
Continuous
 62
   200
370
    20
100
AcDbLine
 10
-1441.756058553834
 20
-579.0001979518572
 30
0.0
 11
-1441.756058553834
 21
-1749.000197951857
 31
0.0
  0
LINE
  5
374
330
1F
100
AcDbEntity
  8
0-6_扉
  6
Continuous
 62
   200
370
    20
100
AcDbLine
 10
-1225.756058553833
 20
-579.0001979518572
 30
0.0
 11
-1225.756058553833
 21
-1749.000197951857
 31
0.0
  0
LINE
  5
375
330
1F
100
AcDbEntity
  8
0-6_扉
  6
Continuous
 62
   200
370
    20
100
AcDbLine
 10
-1225.756058553833
 20
-1869.000197951856
 30
0.0
 11
-1225.756058553833
 21
-3039.000197951857
 31
0.0
  0
LINE
  5
376
330
1F
100
AcDbEntity
  8
0-4_枠
  6
Continuous
 62
   120
370
     5
100
AcDbLine
 10
-1195.756058553833
 20
-417.0001979518571
 30
0.0
 11
-1195.756058553833
 21
-1749.000197951857
 31
0.0
  0
LINE
  5
377
330
1F
100
AcDbEntity
  8
0-4_枠
  6
Continuous
 62
   120
370
     5
100
AcDbLine
 10
-1195.756058553833
 20
-1869.000197951856
 30
0.0
 11
-1195.756058553833
 21
-3087.000197951856
 31
0.0
  0
LINE
  5
378
330
1F
100
AcDbEntity
  8
0-B_寸法
  6
Continuous
 62
   120
370
     5
100
AcDbLine
 10
-1441.756058553834
 20
-1177.868891373508
 30
0.0
 11
-1225.756058553833
 21
-1177.868891373508
 31
0.0
  0
LWPOLYLINE
  5
379
330
1F
100
AcDbEntity
  8
0-B_寸法
  6
Continuous
 62
     7
370
     9
100
AcDbPolyline
 90
        4
 70
     1
 43
6.0
 10
-1438.756058553834
 20
-1177.868891373508
 42
0.4142135623731
 10
-1441.756058553834
 20
-1174.868891373508
 42
0.4142135623731
 10
-1444.756058553834
 20
-1177.868891373508
 42
0.4142135623731
 10
-1441.756058553834
 20
-1180.868891373508
 42
0.4142135623731
  0
LWPOLYLINE
  5
37A
330
1F
100
AcDbEntity
  8
0-B_寸法
  6
Continuous
 62
     7
370
     9
100
AcDbPolyline
 90
        4
 70
     1
 43
6.0
 10
-1222.756058553833
 20
-1177.868891373508
 42
0.4142135623731
 10
-1225.756058553833
 20
-1174.868891373508
 42
0.4142135623731
 10
-1228.756058553833
 20
-1177.868891373508
 42
0.4142135623731
 10
-1225.756058553833
 20
-1180.868891373508
 42
0.4142135623731
  0
LINE
  5
37B
330
1F
100
AcDbEntity
  8
0-3_仕上げ
  6
Continuous
 62
     7
370
     9
100
AcDbLine
 10
-1873.756058553833
 20
9.000008068689738
 30
0.0
 11
-1873.756058553833
 21
-369.0001979518573
 31
0.0
  0
LINE
  5
37C
330
1F
100
AcDbEntity
  8
0-3_仕上げ
  6
Continuous
 62
     7
370
     9
100
AcDbLine
 10
-1195.756058553833
 20
9.000008068689738
 30
0.0
 11
-1195.756058553833
 21
-369.0001979518573
 31
0.0
  0
LINE
  5
37D
330
1F
100
AcDbEntity
  8
0-4_枠
  6
Continuous
 62
    92
370
    13
100
AcDbLine
 10
-1456.631932124732
 20
-510.0003009486846
 30
0.0
 11
-1478.831932124732
 21
-510.0003009486846
 31
0.0
  0
LINE
  5
37E
330
1F
100
AcDbEntity
  8
0-4_枠
  6
Continuous
 62
    92
370
    13
100
AcDbLine
 10
-1478.831932124732
 20
-561.0001979518574
 30
0.0
 11
-1590.431932124731
 21
-561.0001979518574
 31
0.0
  0
LINE
  5
37F
330
1F
100
AcDbEntity
  8
0-4_枠
  6
Continuous
 62
    92
370
    13
100
AcDbLine
 10
-1456.631932124732
 20
-510.0003009486846
 30
0.0
 11
-1456.631932124732
 21
-561.0003009486834
 31
0.0
  0
LINE
  5
380
330
1F
100
AcDbEntity
  8
0-4_枠
  6
Continuous
 62
    92
370
    13
100
AcDbLine
 10
-1478.831932124732
 20
-561.0001979518574
 30
0.0
 11
-1478.831932124732
 21
-510.0003009486846
 31
0.0
  0
LINE
  5
381
330
1F
100
AcDbEntity
  8
0-4_枠
  6
Continuous
 62
    92
370
    13
100
AcDbLine
 10
-1590.431932124731
 20
-561.0001979518574
 30
0.0
 11
-1590.431932124731
 21
-510.0001979518578
 31
0.0
  0
LINE
  5
382
330
1F
100
AcDbEntity
  8
0-4_枠
  6
Continuous
 62
    92
370
    13
100
AcDbLine
 10
-1590.431932124731
 20
-510.0001979518578
 30
0.0
 11
-1612.631932124732
 21
-510.0001979518578
 31
0.0
  0
LINE
  5
383
330
1F
100
AcDbEntity
  8
0-4_枠
  6
Continuous
 62
    92
370
    13
100
AcDbLine
 10
-1612.631932124732
 20
-510.0001979518578
 30
0.0
 11
-1612.631932124732
 21
-561.0003009486834
 31
0.0
  0
ARC
  5
384
330
1F
100
AcDbEntity
  8
0-8_戸当
  6
Continuous
 62
     7
370
     9
100
AcDbCircle
 10
-1480.331932124733
 20
-591.9601979518569
 30
0.0
 40
7.199999999999999
100
AcDbArc
 50
342.6701739020166
 51
41.40962210927217
  0
LINE
  5
385
330
1F
100
AcDbEntity
  8
0-8_戸当
  6
Continuous
 62
     7
370
     9
100
AcDbLine
 10
-1472.531932124733
 20
-612.0001979518566
 30
0.0
 11
-1472.531932124733
 21
-588.0001979518559
 31
0.0
  0
LINE
  5
386
330
1F
100
AcDbEntity
  8
0-8_戸当
  6
Continuous
 62
     7
370
     9
100
AcDbLine
 10
-1610.53193212473
 20
-612.0001979518566
 30
0.0
 11
-1610.53193212473
 21
-599.4001979518575
 31
0.0
  0
LINE
  5
387
330
1F
100
AcDbEntity
  8
0-8_戸当
  6
Continuous
 62
     7
370
     9
100
AcDbLine
 10
-1610.53193212473
 20
-599.4001979518575
 30
0.0
 11
-1598.531932124731
 21
-599.4001979518575
 31
0.0
  0
LINE
  5
388
330
1F
100
AcDbEntity
  8
0-8_戸当
  6
Continuous
 62
     7
370
     9
100
AcDbLine
 10
-1598.531932124731
 20
-599.4001979518575
 30
0.0
 11
-1598.531932124731
 21
-592.2001979518573
 31
0.0
  0
LINE
  5
389
330
1F
100
AcDbEntity
  8
0-8_戸当
  6
Continuous
 62
     7
370
     9
100
AcDbLine
 10
-1598.531932124731
 20
-592.2001979518573
 30
0.0
 11
-1610.53193212473
 21
-592.2001979518573
 31
0.0
  0
LINE
  5
38A
330
1F
100
AcDbEntity
  8
0-8_戸当
  6
Continuous
 62
     7
370
     9
100
AcDbLine
 10
-1610.53193212473
 20
-592.2001979518573
 30
0.0
 11
-1610.53193212473
 21
-576.0001979518574
 31
0.0
  0
ARC
  5
38B
330
1F
100
AcDbEntity
  8
0-8_戸当
  6
Continuous
 62
     7
370
     9
100
AcDbCircle
 10
-1617.731932124731
 20
-562.8001979518575
 30
0.0
 40
1.8
100
AcDbArc
 50
41.34777721969273
 51
180.0
  0
LINE
  5
38C
330
1F
100
AcDbEntity
  8
0-8_戸当
  6
Continuous
 62
     7
370
     9
100
AcDbLine
 10
-1619.531932124732
 20
-615.000197951857
 30
0.0
 11
-1619.531932124732
 21
-562.8001979518575
 31
0.0
  0
ARC
  5
38D
330
1F
100
AcDbEntity
  8
0-8_戸当
  6
Continuous
 62
     7
370
     9
100
AcDbCircle
 10
-1613.531932124733
 20
-615.000197951857
 30
0.0
 40
6.0
100
AcDbArc
 50
180.0
 51
270.0
  0
LINE
  5
38E
330
1F
100
AcDbEntity
  8
0-8_戸当
  6
Continuous
 62
     7
370
     9
100
AcDbLine
 10
-1444.872970215787
 20
-580.831807915579
 30
0.0
 11
-1463.531932124733
 21
-618.0001979518559
 31
0.0
  0
LINE
  5
38F
330
1F
100
AcDbEntity
  8
0-8_戸当
  6
Continuous
 62
     7
370
     9
100
AcDbLine
 10
-1454.531932124732
 20
-565.2001979518561
 30
0.0
 11
-1463.531932124733
 21
-565.2001979518561
 31
0.0
  0
ARC
  5
390
330
1F
100
AcDbEntity
  8
0-8_戸当
  6
Continuous
 62
     7
370
     9
100
AcDbCircle
 10
-1466.531932124732
 20
-618.0001979518559
 30
0.0
 40
3.0
100
AcDbArc
 50
270.0
 51
0.0
  0
LINE
  5
391
330
1F
100
AcDbEntity
  8
0-8_戸当
  6
Continuous
 62
     7
370
     9
100
AcDbLine
 10
-1463.531932124733
 20
-576.0001979518557
 30
0.0
 11
-1467.731932124731
 21
-576.0001979518557
 31
0.0
  0
LINE
  5
392
330
1F
100
AcDbEntity
  8
0-8_戸当
  6
Continuous
 62
     7
370
     9
100
AcDbLine
 10
-1472.531932124733
 20
-612.0001979518566
 30
0.0
 11
-1610.53193212473
 21
-612.0001979518566
 31
0.0
  0
LINE
  5
393
330
1F
100
AcDbEntity
  8
0-8_戸当
  6
Continuous
 62
     7
370
     9
100
AcDbLine
 10
-1463.531932124733
 20
-618.0001979518559
 30
0.0
 11
-1463.531932124733
 21
-576.0001979518557
 31
0.0
  0
LINE
  5
394
330
1F
100
AcDbEntity
  8
0-8_戸当
  6
Continuous
 62
     7
370
     9
100
AcDbLine
 10
-1613.531932124733
 20
-621.0001979518574
 30
0.0
 11
-1466.531932124732
 21
-621.0001979518562
 31
0.0
  0
ARC
  5
395
330
1F
100
AcDbEntity
  8
0-8_戸当
  6
Continuous
 62
     7
370
     9
100
AcDbCircle
 10
-1454.531932124732
 20
-576.0001979518557
 30
0.0
 40
10.8
100
AcDbArc
 50
333.4248464959397
 51
89.99999999999994
  0
ARC
  5
396
330
1F
100
AcDbEntity
  8
0-8_戸当
  6
Continuous
 62
     7
370
     9
100
AcDbCircle
 10
-1454.531932124732
 20
-576.0001979518557
 30
0.0
 40
6.6
100
AcDbArc
 50
333.4248464959397
 51
89.99999999999994
  0
LINE
  5
397
330
1F
100
AcDbEntity
  8
0-8_戸当
  6
Continuous
 62
     7
370
     9
100
AcDbLine
 10
-1448.626539331832
 20
-578.9474727832132
 30
0.0
 11
-1463.531932124733
 21
-608.6388058634748
 31
0.0
  0
LINE
  5
398
330
1F
100
AcDbEntity
  8
0-8_戸当
  6
Continuous
 62
     7
370
     9
100
AcDbLine
 10
-1605.731932124731
 20
-561.0001979518574
 30
0.0
 11
-1607.231932124733
 21
-561.0001979518574
 31
0.0
  0
LINE
  5
399
330
1F
100
AcDbEntity
  8
0-8_戸当
  6
Continuous
 62
     7
370
     9
100
AcDbLine
 10
-1607.231932124733
 20
-561.0001979518574
 30
0.0
 11
-1607.231932124733
 21
-576.0001979518574
 31
0.0
  0
LINE
  5
39A
330
1F
100
AcDbEntity
  8
0-8_戸当
  6
Continuous
 62
     7
370
     9
100
AcDbLine
 10
-1605.731932124731
 20
-561.0001979518574
 30
0.0
 11
-1605.731932124731
 21
-534.0001979518572
 31
0.0
  0
ARC
  5
39B
330
1F
100
AcDbEntity
  8
0-8_戸当
  6
Continuous
 62
     7
370
     9
100
AcDbCircle
 10
-1604.231932124733
 20
-587.4001979518564
 30
0.0
 40
3.600000000000001
100
AcDbArc
 50
196.7900255983375
 51
270.0
  0
ARC
  5
39C
330
1F
100
AcDbEntity
  8
0-8_戸当
  6
Continuous
 62
     7
370
     9
100
AcDbCircle
 10
-1604.231932124733
 20
-587.4001979518564
 30
0.0
 40
3.600000000000001
100
AcDbArc
 50
270.0
 51
23.33765268897096
  0
LINE
  5
39D
330
1F
100
AcDbEntity
  8
0-8_戸当
  6
Continuous
 62
     7
370
     9
100
AcDbLine
 10
-1602.722285829948
 20
-581.0048199559077
 30
0.0
 11
-1600.847707168016
 21
-586.1725899352888
 31
0.0
  0
ARC
  5
39E
330
1F
100
AcDbEntity
  8
0-8_戸当
  6
Continuous
 62
     7
370
     9
100
AcDbCircle
 10
-1606.031932124731
 20
-576.0001979518574
 30
0.0
 40
5.999999999999659
100
AcDbArc
 50
303.4773790501727
 51
0.0000000000000127
  0
LINE
  5
39F
330
1F
100
AcDbEntity
  8
0-8_戸当
  6
Continuous
 62
     7
370
     9
100
AcDbLine
 10
-1605.731932124731
 20
-534.0001979518572
 30
0.0
 11
-1612.631932124732
 21
-534.0001979518572
 31
0.0
  0
LINE
  5
3A0
330
1F
100
AcDbEntity
  8
0-8_戸当
  6
Continuous
 62
     7
370
     9
100
AcDbLine
 10
-1592.231932124733
 20
-534.0001979518572
 30
0.0
 11
-1596.731932124733
 21
-534.0001979518572
 31
0.0
  0
LINE
  5
3A1
330
1F
100
AcDbEntity
  8
0-8_戸当
  6
Continuous
 62
     7
370
     9
100
AcDbLine
 10
-1596.731932124733
 20
-534.0001979518572
 30
0.0
 11
-1596.731932124733
 21
-561.0001979518574
 31
0.0
  0
LINE
  5
3A2
330
1F
100
AcDbEntity
  8
0-8_戸当
  6
Continuous
 62
     7
370
     9
100
AcDbLine
 10
-1592.231932124733
 20
-534.0001979518572
 30
0.0
 11
-1601.231932124732
 21
-516.0001979518574
 31
0.0
  0
LINE
  5
3A3
330
1F
100
AcDbEntity
  8
0-8_戸当
  6
Continuous
 62
     7
370
     9
100
AcDbLine
 10
-1601.231932124732
 20
-516.0001979518574
 30
0.0
 11
-1612.631932124732
 21
-534.0001979518572
 31
0.0
  0
LINE
  5
3A4
330
1F
100
AcDbEntity
  8
0-8_戸当
  6
Continuous
 62
     7
370
     9
100
AcDbLine
 10
-1600.031932124733
 20
-573.0001979518559
 30
0.0
 11
-1600.031932124733
 21
-576.0001979518574
 31
0.0
  0
ARC
  5
3A5
330
1F
100
AcDbEntity
  8
0-8_戸当
  6
Continuous
 62
     7
370
     9
100
AcDbCircle
 10
-1597.031932124732
 20
-573.0001979518559
 30
0.0
 40
3.0
100
AcDbArc
 50
90.0
 51
180.0
  0
ARC
  5
3A6
330
1F
100
AcDbEntity
  8
0-8_戸当
  6
Continuous
 62
     7
370
     9
100
AcDbCircle
 10
-1487.531932124731
 20
-573.0001979518559
 30
0.0
 40
3.0
100
AcDbArc
 50
0.0000000000000035
 51
90.0
  0
LINE
  5
3A7
330
1F
100
AcDbEntity
  8
0-8_戸当
  6
Continuous
 62
     7
370
     9
100
AcDbLine
 10
-1484.531932124732
 20
-573.0001979518559
 30
0.0
 11
-1484.531932124732
 21
-584.7601979518566
 31
0.0
  0
LINE
  5
3A8
330
1F
100
AcDbEntity
  8
0-8_戸当
  6
Continuous
 62
     7
370
     9
100
AcDbLine
 10
-1487.531932124731
 20
-570.000197951857
 30
0.0
 11
-1597.031932124732
 21
-570.000197951857
 31
0.0
  0
ARC
  5
3A9
330
1F
100
AcDbEntity
  8
0-8_戸当
  6
Continuous
 62
     7
370
     9
100
AcDbCircle
 10
-1477.331932124732
 20
-584.7601979518566
 30
0.0
 40
7.199999999999999
100
AcDbArc
 50
180.0
 51
237.2112623503457
  0
LINE
  5
3AA
330
1F
100
AcDbEntity
  8
0-8_戸当
  6
Continuous
 62
     7
370
     9
100
AcDbLine
 10
-1481.231041535835
 20
-590.813044042766
 30
0.0
 11
-1486.141276689199
 21
-606.5491359376483
 31
0.0
  0
ARC
  5
3AB
330
1F
100
AcDbEntity
  8
0-8_戸当
  6
Continuous
 62
     7
370
     9
100
AcDbCircle
 10
-1482.131932124731
 20
-607.8001979518567
 30
0.0
 40
4.2
100
AcDbArc
 50
162.6701702617455
 51
342.6701720818837
  0
LINE
  5
3AC
330
1F
100
AcDbEntity
  8
0-8_戸当
  6
Continuous
 62
     7
370
     9
100
AcDbLine
 10
-1473.458769877959
 20
-594.1048752538154
 30
0.0
 11
-1478.122587480783
 21
-609.0512597113329
 31
0.0
  0
ARC
  5
3AD
330
1F
100
AcDbEntity
  8
0-8_戸当
  6
Continuous
 62
     7
370
     9
100
AcDbCircle
 10
-1471.331932124732
 20
-584.0229440186615
 30
0.0
 40
4.800000000000001
100
AcDbArc
 50
180.0
 51
221.4096221092701
  0
LINE
  5
3AE
330
1F
100
AcDbEntity
  8
0-8_戸当
  6
Continuous
 62
     7
370
     9
100
AcDbLine
 10
-1476.131932124733
 20
-570.000197951857
 30
0.0
 11
-1476.131932124733
 21
-584.0229440186615
 31
0.0
  0
LINE
  5
3AF
330
1F
100
AcDbEntity
  8
0-8_戸当
  6
Continuous
 62
     7
370
     9
100
AcDbLine
 10
-1469.531932124732
 20
-570.000197951857
 30
0.0
 11
-1476.131932124733
 21
-570.000197951857
 31
0.0
  0
LINE
  5
3B0
330
1F
100
AcDbEntity
  8
0-8_戸当
  6
Continuous
 62
     7
370
     9
100
AcDbLine
 10
-1469.531932124732
 20
-565.2001979518561
 30
0.0
 11
-1469.531932124732
 21
-570.000197951857
 31
0.0
  0
LINE
  5
3B1
330
1F
100
AcDbEntity
  8
0-8_戸当
  6
Continuous
 62
     7
370
     9
100
AcDbLine
 10
-1463.531932124733
 20
-565.2001979518561
 30
0.0
 11
-1469.531932124732
 21
-565.2001979518561
 31
0.0
  0
LINE
  5
3B2
330
1F
100
AcDbEntity
  8
0-8_戸当
  6
Continuous
 62
     7
370
     9
100
AcDbLine
 10
-1463.531932124733
 20
-565.2001979518561
 30
0.0
 11
-1463.531932124733
 21
-534.0001979518564
 31
0.0
  0
LINE
  5
3B3
330
1F
100
AcDbEntity
  8
0-8_戸当
  6
Continuous
 62
     7
370
     9
100
AcDbLine
 10
-1472.531932124733
 20
-561.0001979518557
 30
0.0
 11
-1596.731932124733
 21
-561.0001979518574
 31
0.0
  0
LINE
  5
3B4
330
1F
100
AcDbEntity
  8
0-8_戸当
  6
Continuous
 62
     7
370
     9
100
AcDbLine
 10
-1468.03193212473
 20
-516.0001979518557
 30
0.0
 11
-1456.631932124732
 21
-534.0001979518564
 31
0.0
  0
LINE
  5
3B5
330
1F
100
AcDbEntity
  8
0-8_戸当
  6
Continuous
 62
     7
370
     9
100
AcDbLine
 10
-1477.031932124732
 20
-534.0001979518564
 30
0.0
 11
-1468.03193212473
 21
-516.0001979518557
 31
0.0
  0
LINE
  5
3B6
330
1F
100
AcDbEntity
  8
0-8_戸当
  6
Continuous
 62
     7
370
     9
100
AcDbLine
 10
-1472.531932124733
 20
-534.0001979518564
 30
0.0
 11
-1472.531932124733
 21
-561.0001979518557
 31
0.0
  0
LINE
  5
3B7
330
1F
100
AcDbEntity
  8
0-8_戸当
  6
Continuous
 62
     7
370
     9
100
AcDbLine
 10
-1477.031932124732
 20
-534.0001979518564
 30
0.0
 11
-1472.531932124733
 21
-534.0001979518564
 31
0.0
  0
LINE
  5
3B8
330
1F
100
AcDbEntity
  8
0-8_戸当
  6
Continuous
 62
     7
370
     9
100
AcDbLine
 10
-1463.531932124733
 20
-534.0001979518564
 30
0.0
 11
-1456.631932124732
 21
-534.0001979518564
 31
0.0
  0
LINE
  5
3B9
330
1F
100
AcDbEntity
  8
0-8_戸当
  6
Continuous
 62
     7
370
     9
100
AcDbLine
 10
-1454.531932124732
 20
-569.4001979518566
 30
0.0
 11
-1469.531932124732
 21
-569.4001979518566
 31
0.0
  0
ARC
  5
3BA
330
1F
100
AcDbEntity
  8
0-8_戸当
  6
Continuous
 62
     7
370
     9
100
AcDbCircle
 10
-1472.829407878236
 20
-585.000197951857
 30
0.0
 40
3.0
100
AcDbArc
 50
143.6152131060223
 51
270.0
  0
LINE
  5
3BB
330
1F
100
AcDbEntity
  8
0-8_戸当
  6
Continuous
 62
     7
370
     9
100
AcDbLine
 10
-1467.731932124731
 20
-576.0001979518557
 30
0.0
 11
-1475.244561876775
 21
-583.220582498073
 31
0.0
  0
LINE
  5
3BC
330
1F
100
AcDbEntity
  8
0-8_戸当
  6
Continuous
 62
     7
370
     9
100
AcDbLine
 10
-1472.829407878236
 20
-588.0001979518559
 30
0.0
 11
-1472.531932124733
 21
-588.0001979518559
 31
0.0
  0
LINE
  5
3BD
330
1F
100
AcDbEntity
  8
0-8_戸当
  6
Continuous
 62
     7
370
     9
100
AcDbLine
 10
-1609.031932124732
 20
-576.0001979518574
 30
0.0
 11
-1610.53193212473
 21
-576.0001979518574
 31
0.0
  0
ARC
  5
3BE
330
1F
100
AcDbEntity
  8
0-8_戸当
  6
Continuous
 62
     7
370
     9
100
AcDbCircle
 10
-1609.031932124732
 20
-574.2001979518574
 30
0.0
 40
1.8
100
AcDbArc
 50
270.0
 51
41.34777721969354
  0
LINE
  5
3BF
330
1F
100
AcDbEntity
  8
0-8_戸当
  6
Continuous
 62
     7
370
     9
100
AcDbLine
 10
-1616.380647794273
 20
-561.6110677410516
 30
0.0
 11
-1607.680647794272
 21
-573.0110677410514
 31
0.0
  0
LINE
  5
3C0
330
1F
100
AcDbEntity
  8
0-8_戸当
  6
Continuous
 62
     7
370
     9
100
AcDbLine
 10
-1608.731932124732
 20
-576.0001979518574
 30
0.0
 11
-1607.231932124733
 21
-576.0001979518574
 31
0.0
  0
LINE
  5
3C1
330
1F
100
AcDbEntity
  8
0-8_戸当
  6
Continuous
 62
     7
370
     9
100
AcDbLine
 10
-1610.455197763758
 20
-578.3201551975571
 30
0.0
 11
-1607.61615707691
 21
-588.6278059809325
 31
0.0
  0
ARC
  5
3C2
330
1F
100
AcDbEntity
  8
0-8_戸当
  6
Continuous
 62
     7
370
     9
100
AcDbCircle
 10
-1608.731932124732
 20
-577.8001979518575
 30
0.0
 40
1.8
100
AcDbArc
 50
90.0
 51
196.7900255983358
  0
LINE
  5
3C3
330
1F
100
AcDbEntity
  8
0-4_枠
  6
Continuous
 62
    92
370
    13
100
AcDbLine
 10
-1864.756058553835
 20
-561.0001979518557
 30
0.0
 11
-1612.631932124732
 21
-561.0001979518557
 31
0.0
  0
LINE
  5
3C4
330
1F
100
AcDbEntity
  8
0-4_枠
  6
Continuous
 62
    92
370
    13
100
AcDbLine
 10
-1861.756493429324
 20
-558.0006328273455
 30
0.0
 11
-1612.631932124732
 21
-558.0006328273455
 31
0.0
  0
LINE
  5
3C5
330
1F
100
AcDbEntity
  8
0-C_ハッチ
  6
Continuous
 62
   120
370
     5
100
AcDbLine
 10
-1590.431932124731
 20
-543.5415029186657
 30
0.0
 11
-1463.890627157926
 21
-417.0001979518614
 31
0.0
  0
LINE
  5
3C6
330
1F
100
AcDbEntity
  8
0-C_ハッチ
  6
Continuous
 62
   120
370
     5
100
AcDbLine
 10
-1489.096687918572
 20
-561.0001979518531
 30
0.0
 11
-1478.831932124732
 21
-550.735442158014
 31
0.0
  0
LINE
  5
3C7
330
1F
100
AcDbEntity
  8
0-C_ハッチ
  6
Continuous
 62
   120
370
     5
100
AcDbLine
 10
-1456.631932124732
 20
-528.5354421580155
 30
0.0
 11
-1345.096687918581
 21
-417.0001979518639
 31
0.0
  0
LINE
  5
3C8
330
1F
100
AcDbEntity
  8
0-4_枠
  6
Continuous
 62
    92
370
    13
100
AcDbLine
 10
-1207.756218771118
 20
-558.0006328273455
 30
0.0
 11
-1456.631932124732
 21
-558.0006328273455
 31
0.0
  0
LINE
  5
3C9
330
1F
100
AcDbEntity
  8
0-4_枠
  6
Continuous
 62
    92
370
    13
100
AcDbLine
 10
-1204.756058553835
 20
-561.0001979518557
 30
0.0
 11
-1456.631932124732
 21
-561.0001979518557
 31
0.0
  0
TEXT
  5
3CA
330
1F
100
AcDbEntity
  8
0-B_寸法
  6
Continuous
 62
     7
370
   211
100
AcDbText
 10
-2142.145075582644
 20
-421.2233478157654
 30
0.0
 40
91.44
  1
5
 50
90.0
  7
ＭＳ ゴシック
100
AcDbText
  0
TEXT
  5
3CB
330
1F
100
AcDbEntity
  8
0-B_寸法
  6
Continuous
 62
     7
370
   211
100
AcDbText
 10
-2142.145075582644
 20
-504.0002179790176
 30
0.0
 40
91.44
  1
9
 50
90.0
  7
ＭＳ ゴシック
100
AcDbText
  0
TEXT
  5
3CC
330
1F
100
AcDbEntity
  8
0-B_寸法
  6
Continuous
 62
     7
370
   211
100
AcDbText
 10
-2322.145075582644
 20
-552.7501979518556
 30
0.0
 40
91.44
  1
24
 50
90.0
 41
1.0625
  7
ＭＳ ゴシック
100
AcDbText
  0
TEXT
  5
3CD
330
1F
100
AcDbEntity
  8
0-B_寸法
  6
Continuous
 62
     7
370
   211
100
AcDbText
 10
-442.0018283164182
 20
-552.7501979518556
 30
0.0
 40
91.44
  1
24
 50
90.0
 41
1.0625
  7
ＭＳ ゴシック
100
AcDbText
  0
TEXT
  5
3CE
330
1F
100
AcDbEntity
  8
0-B_寸法
  6
Continuous
 62
     7
370
   211
100
AcDbText
 10
-2142.145075582644
 20
-681.5138449396409
 30
0.0
 40
91.44
  1
10
 50
90.0
 41
1.0625
  7
ＭＳ ゴシック
100
AcDbText
  0
TEXT
  5
3CF
330
1F
100
AcDbEntity
  8
0-B_寸法
  6
Continuous
 62
     7
370
     0
100
AcDbText
 10
-1634.725018362184
 20
-855.6776212451679
 30
0.0
 40
91.44
  1
110
 41
1.083333333333333
  7
ＭＳ ゴシック
100
AcDbText
  0
TEXT
  5
3D0
330
1F
100
AcDbEntity
  8
0-B_寸法
  6
Continuous
 62
     7
370
   211
100
AcDbText
 10
-1397.506058553833
 20
-1145.948891373508
 30
0.0
 40
91.44
  1
36
 41
1.0625
  7
ＭＳ ゴシック
100
AcDbText
  0
TEXT
  5
3D1
330
1F
100
AcDbEntity
  8
0-B_寸法
  6
Continuous
 62
     7
370
     0
100
AcDbText
 10
-652.0018283164216
 20
-3031.500197951857
 30
0.0
 40
91.44
  1
5
 50
90.0
  7
ＭＳ ゴシック
100
AcDbText
  0
TEXT
  5
3D2
330
1F
100
AcDbEntity
  8
0-B_寸法
  6
Continuous
 62
     7
370
   211
100
AcDbText
 10
-442.0018283164182
 20
-3061.499894683423
 30
0.0
 40
91.44
  1
3
 50
90.0
  7
ＭＳ ゴシック
100
AcDbText
  0
TEXT
  5
3D3
330
1F
100
AcDbEntity
  8
0-B_寸法
  6
Continuous
 62
     7
370
   211
100
AcDbText
 10
-442.0018283164182
 20
-3286.500197951857
 30
0.0
 40
91.44
  1
12
 50
90.0
 41
1.0625
  7
ＭＳ ゴシック
100
AcDbText
  0
LINE
  5
3D4
330
1F
100
AcDbEntity
  8
0-6_扉
  6
Continuous
 62
   200
370
    20
100
AcDbLine
 10
-1441.756058553834
 20
-1869.000197951856
 30
0.0
 11
-1441.756058553834
 21
-3039.000197951857
 31
0.0
  0
LINE
  5
3D5
330
1F
100
AcDbEntity
  8
0-4_枠
  6
Continuous
 62
    92
370
    13
100
AcDbLine
 10
-1288.756058553836
 20
-3159.000197951857
 30
0.0
 11
-1288.756058553836
 21
-3122.999929015699
 31
0.0
  0
LINE
  5
3D6
330
1F
100
AcDbEntity
  8
0-4_枠
  6
Continuous
 62
    92
370
    13
100
AcDbLine
 10
-1582.756058553835
 20
-3159.000197951857
 30
0.0
 11
-1582.756058553835
 21
-3122.999929015699
 31
0.0
  0
LINE
  5
3D7
330
1F
100
AcDbEntity
  8
0-4_枠
  6
Continuous
 62
    92
370
    13
100
AcDbLine
 10
-1582.756058553835
 20
-3122.999929015699
 30
0.0
 11
-1288.756012777472
 21
-3122.999929015699
 31
0.0
  0
LINE
  5
3D8
330
1F
100
AcDbEntity
  8
0-4_枠
  6
Continuous
 62
    92
370
    13
100
AcDbLine
 10
-1642.756310323854
 20
-3071.999911849561
 30
0.0
 11
-1228.755806783818
 21
-3071.999911849561
 31
0.0
  0
ARC
  5
3D9
330
1F
100
AcDbEntity
  8
0-4_枠
  6
Continuous
 62
    92
370
    13
100
AcDbCircle
 10
-1228.756058553836
 20
-3087.000197951856
 30
0.0
 40
18.0
100
AcDbArc
 50
0.0000000000000127
 51
90.00000000000001
  0
LINE
  5
3DA
330
1F
100
AcDbEntity
  8
0-4_枠
  6
Continuous
 62
    92
370
    13
100
AcDbLine
 10
-1642.756058553835
 20
-3069.000197951857
 30
0.0
 11
-1228.756058553836
 21
-3069.000197951857
 31
0.0
  0
ARC
  5
3DB
330
1F
100
AcDbEntity
  8
0-4_枠
  6
Continuous
 62
    92
370
    13
100
AcDbCircle
 10
-1642.756058553835
 20
-3087.000197951856
 30
0.0
 40
18.0
100
AcDbArc
 50
90.0
 51
180.0
  0
ARC
  5
3DC
330
1F
100
AcDbEntity
  8
0-4_枠
  6
Continuous
 62
    92
370
    13
100
AcDbCircle
 10
-1642.756058553835
 20
-3087.000197951856
 30
0.0
 40
15.0
100
AcDbArc
 50
90.0
 51
180.0
  0
ARC
  5
3DD
330
1F
100
AcDbEntity
  8
0-4_枠
  6
Continuous
 62
    92
370
    13
100
AcDbCircle
 10
-1228.756058553836
 20
-3087.000197951856
 30
0.0
 40
15.0
100
AcDbArc
 50
0.0000000000000127
 51
90.00000000000001
  0
LINE
  5
3DE
330
1F
100
AcDbEntity
  8
0-C_ハッチ
  6
Continuous
 62
   120
370
     5
100
AcDbLine
 10
-1356.786142002127
 20
-3159.000197951848
 30
0.0
 11
-1269.78585589985
 21
-3071.999911849571
 31
0.0
  0
LINE
  5
3DF
330
1F
100
AcDbEntity
  8
0-C_ハッチ
  6
Continuous
 62
   120
370
     5
100
AcDbLine
 10
-1416.183111621782
 20
-3159.000197951858
 30
0.0
 11
-1329.18282551949
 21
-3071.999911849566
 31
0.0
  0
LINE
  5
3E0
330
1F
100
AcDbEntity
  8
0-C_ハッチ
  6
Continuous
 62
   120
370
     5
100
AcDbLine
 10
-1475.580081241469
 20
-3159.000197951843
 30
0.0
 11
-1388.579795139192
 21
-3071.999911849566
 31
0.0
  0
LINE
  5
3E1
330
1F
100
AcDbEntity
  8
0-C_ハッチ
  6
Continuous
 62
   120
370
     5
100
AcDbLine
 10
-1534.977050861124
 20
-3159.000197951853
 30
0.0
 11
-1447.976764758833
 21
-3071.99991184956
 31
0.0
  0
LINE
  5
3E2
330
1F
100
AcDbEntity
  8
0-C_ハッチ
  6
Continuous
 62
   120
370
     5
100
AcDbLine
 10
-1594.37402048084
 20
-3159.000197951867
 30
0.0
 11
-1507.373734378548
 21
-3071.999911849571
 31
0.0
  0
LINE
  5
3E3
330
1F
100
AcDbEntity
  8
0-C_ハッチ
  6
Continuous
 62
   120
370
     5
100
AcDbLine
 10
-1641.167959720179
 20
-3087.000197951856
 30
0.0
 11
-1626.167673617891
 21
-3071.999911849569
 31
0.0
  0
LINE
  5
3E4
330
1F
100
AcDbEntity
  8
0-4_枠
  6
Continuous
 62
    92
370
    13
100
AcDbLine
 10
-1636.756058553835
 20
-3087.000197951856
 30
0.0
 11
-1660.756058553839
 21
-3087.000197951856
 31
0.0
  0
LINE
  5
3E5
330
1F
100
AcDbEntity
  8
0-4_枠
  6
Continuous
 62
    92
370
    13
100
AcDbLine
 10
-1636.756058553835
 20
-3159.000197951857
 30
0.0
 11
-1636.756058553835
 21
-3087.000197951856
 31
0.0
  0
LINE
  5
3E6
330
1F
100
AcDbEntity
  8
0-4_枠
  6
Continuous
 62
    92
370
    13
100
AcDbLine
 10
-1234.756058553836
 20
-3159.000197951857
 30
0.0
 11
-1636.756058553835
 21
-3159.000197951857
 31
0.0
  0
LINE
  5
3E7
330
1F
100
AcDbEntity
  8
0-4_枠
  6
Continuous
 62
    92
370
    13
100
AcDbLine
 10
-1234.756058553836
 20
-3159.000197951857
 30
0.0
 11
-1234.756058553836
 21
-3087.000197951856
 31
0.0
  0
LINE
  5
3E8
330
1F
100
AcDbEntity
  8
0-4_枠
  6
Continuous
 62
    92
370
    13
100
AcDbLine
 10
-1234.756058553836
 20
-3087.000197951856
 30
0.0
 11
-1210.756058553839
 21
-3087.000197951856
 31
0.0
  0
LINE
  5
3E9
330
1F
100
AcDbEntity
  8
0-C_ハッチ
  6
Continuous
 62
   120
370
     5
100
AcDbLine
 10
-1636.756058553835
 20
-3141.98526640521
 30
0.0
 11
-1566.770703998176
 21
-3071.999911849554
 31
0.0
  0
LINE
  5
3EA
330
1F
100
AcDbEntity
  8
0-C_ハッチ
  6
Continuous
 62
   120
370
     5
100
AcDbLine
 10
-1297.389172382487
 20
-3159.000197951857
 30
0.0
 11
-1234.756058553836
 21
-3096.367084123209
 31
0.0
  0
LINE
  5
3EB
330
1F
100
AcDbEntity
  8
0-B_寸法
  6
Continuous
 62
   120
370
     5
100
AcDbLine
 10
-1642.756058553835
 20
-3399.000197951857
 30
0.0
 11
-1636.756058553835
 21
-3399.000197951857
 31
0.0
  0
LWPOLYLINE
  5
3EC
330
1F
100
AcDbEntity
  8
0-B_寸法
  6
Continuous
 62
     7
370
     9
100
AcDbPolyline
 90
        4
 70
     1
 43
6.0
 10
-1639.756058553835
 20
-3399.000197951857
 42
0.4142135623731
 10
-1642.756058553835
 20
-3396.000197951857
 42
0.4142135623731
 10
-1645.756058553836
 20
-3399.000197951857
 42
0.4142135623731
 10
-1642.756058553835
 20
-3402.000197951856
 42
0.4142135623731
  0
LWPOLYLINE
  5
3ED
330
1F
100
AcDbEntity
  8
0-B_寸法
  6
Continuous
 62
     7
370
     9
100
AcDbPolyline
 90
        4
 70
     1
 43
6.0
 10
-1633.756058553835
 20
-3399.000197951857
 42
0.4142135623731
 10
-1636.756058553835
 20
-3396.000197951857
 42
0.4142135623731
 10
-1639.756058553835
 20
-3399.000197951857
 42
0.4142135623731
 10
-1636.756058553835
 20
-3402.000197951856
 42
0.4142135623731
  0
LINE
  5
3EE
330
1F
100
AcDbEntity
  8
0-B_寸法
  6
Continuous
 62
   120
370
     5
100
AcDbLine
 10
-1642.756058553835
 20
-3399.000197951857
 30
0.0
 11
-1642.756058553835
 21
-3219.000197951857
 31
0.0
  0
LINE
  5
3EF
330
1F
100
AcDbEntity
  8
0-B_寸法
  6
Continuous
 62
   120
370
     5
100
AcDbLine
 10
-1636.756058553835
 20
-3399.000197951857
 30
0.0
 11
-1636.756058553835
 21
-3219.000197951857
 31
0.0
  0
LINE
  5
3F0
330
1F
100
AcDbEntity
  8
0-B_寸法
  6
Continuous
 62
   120
370
     5
100
AcDbLine
 10
-1636.756058553835
 20
-3399.000197951857
 30
0.0
 11
-1234.756058553836
 21
-3399.000197951857
 31
0.0
  0
LWPOLYLINE
  5
3F1
330
1F
100
AcDbEntity
  8
0-B_寸法
  6
Continuous
 62
     7
370
     9
100
AcDbPolyline
 90
        4
 70
     1
 43
6.0
 10
-1231.756058553836
 20
-3399.000197951857
 42
0.4142135623731
 10
-1234.756058553836
 20
-3396.000197951857
 42
0.4142135623731
 10
-1237.756058553836
 20
-3399.000197951857
 42
0.4142135623731
 10
-1234.756058553836
 20
-3402.000197951856
 42
0.4142135623731
  0
LINE
  5
3F2
330
1F
100
AcDbEntity
  8
0-B_寸法
  6
Continuous
 62
   120
370
     5
100
AcDbLine
 10
-1234.756058553836
 20
-3399.000197951857
 30
0.0
 11
-1234.756058553836
 21
-3219.000197951857
 31
0.0
  0
TEXT
  5
3F3
330
1F
100
AcDbEntity
  8
0-B_寸法
  6
Continuous
 62
     7
370
   211
100
AcDbText
 10
-1499.506058553835
 20
-3367.080197951856
 30
0.0
 40
91.44
  1
67
 41
1.0625
  7
ＭＳ ゴシック
100
AcDbText
  0
LINE
  5
3F4
330
1F
100
AcDbEntity
  8
0-B_寸法
  6
Continuous
 62
   120
370
     5
100
AcDbLine
 10
-1234.756058553836
 20
-3399.000197951857
 30
0.0
 11
-1228.756058553837
 21
-3399.000197951857
 31
0.0
  0
LWPOLYLINE
  5
3F5
330
1F
100
AcDbEntity
  8
0-B_寸法
  6
Continuous
 62
     7
370
     9
100
AcDbPolyline
 90
        4
 70
     1
 43
6.0
 10
-1225.756058553837
 20
-3399.000197951857
 42
0.4142135623731
 10
-1228.756058553837
 20
-3396.000197951857
 42
0.4142135623731
 10
-1231.756058553837
 20
-3399.000197951857
 42
0.4142135623731
 10
-1228.756058553837
 20
-3402.000197951856
 42
0.4142135623731
  0
LINE
  5
3F6
330
1F
100
AcDbEntity
  8
0-B_寸法
  6
Continuous
 62
   120
370
     5
100
AcDbLine
 10
-1228.756058553837
 20
-3399.000197951857
 30
0.0
 11
-1228.756058553837
 21
-3219.000197951857
 31
0.0
  0
TEXT
  5
3F7
330
1F
100
AcDbEntity
  8
0-B_寸法
  6
Continuous
 62
     7
370
   211
100
AcDbText
 10
-1723.756058553835
 20
-3367.080197951856
 30
0.0
 40
91.44
  1
1
  7
ＭＳ ゴシック
100
AcDbText
  0
TEXT
  5
3F8
330
1F
100
AcDbEntity
  8
0-B_寸法
  6
Continuous
 62
     7
370
   211
100
AcDbText
 10
-1207.756058553836
 20
-3367.080197951856
 30
0.0
 40
91.44
  1
1
  7
ＭＳ ゴシック
100
AcDbText
  0
LINE
  5
3F9
330
1F
100
AcDbEntity
  8
0-1_通り芯
  6
JWW_CENTER1
 62
   120
370
     5
100
AcDbLine
 10
-1534.756058553835
 20
9.000008068689738
 30
0.0
 11
-1534.756058553835
 21
-3159.000197951857
 31
0.0
  0
LINE
  5
3FA
330
1F
100
AcDbEntity
  8
0-0_補助線
  6
JWW_HOJO
 62
   120
370
     5
100
AcDbLine
 10
-1333.756058553833
 20
9.000008041797969
 30
0.0
 11
-1333.756058553833
 21
-3159.000197951857
 31
0.0
  0
TEXT
  5
3FB
330
1F
100
AcDbEntity
  8
0-B_寸法
  6
Continuous
 62
     7
370
     0
100
AcDbText
 10
-225.9164787431212
 20
-2319.000046317639
 30
0.0
 40
91.44
  1
枠外＝2,042(2,242)
 50
90.0
  7
ＭＳ ゴシック
100
AcDbText
  0
TEXT
  5
3FC
330
1F
100
AcDbEntity
  8
0-B_寸法
  6
Continuous
 62
     7
370
   211
100
AcDbText
 10
-442.0018283164182
 20
-2319.00004631764
 30
0.0
 40
91.44
  1
枠内＝2,003(2,203)
 50
90.0
  7
ＭＳ ゴシック
100
AcDbText
  0
TEXT
  5
3FD
330
1F
100
AcDbEntity
  8
0-B_寸法
  6
Continuous
 62
     7
370
     0
100
AcDbText
 10
-650.0826489610961
 20
-2319.00004631764
 30
0.0
 40
91.44
  1
ＤＨ＝1,995(2,195)
 50
90.0
  7
ＭＳ ゴシック
100
AcDbText
  0
TEXT
  5
3FE
330
1F
100
AcDbEntity
  8
0-B_寸法
  6
Continuous
 62
     7
370
     0
100
AcDbText
 10
-2542.971092216676
 20
-2399.389668784085
 30
0.0
 40
91.44
  1
ＲＯＨ＝2,055(2,255)
 50
90.0
 41
1.11875
  7
ＭＳ ゴシック
100
AcDbText
  0
TEXT
  5
3FF
330
1F
100
AcDbEntity
  8
0-A_文字
  6
Continuous
 62
     7
370
     9
100
AcDbText
 10
-2500.225075582644
 20
114.4562179836355
 30
0.0
 40
91.44
  1
■縦断面図
 41
1.1
  7
ＭＳ ゴシック
100
AcDbText
  0
TEXT
  5
400
330
1F
100
AcDbEntity
  8
0-A_文字
  6
Continuous
 62
     7
370
     0
100
AcDbText
 10
-1304.447556495777
 20
-3615.089471410497
 30
0.0
 40
68.58
  1
※(　)内寸法はハイドア
 41
1.151515151515152
  7
ＭＳ ゴシック
100
AcDbText
  0
TEXT
  5
401
330
1F
100
AcDbEntity
  8
0-B_寸法
  6
Continuous
 62
     7
370
   211
100
AcDbText
 10
-854.1334038800704
 20
-423.47442680776
 30
0.0
 40
91.44
  1
8
 50
90.0
  7
ＭＳ ゴシック
100
AcDbText
  0
TEXT
  5
402
330
1F
100
AcDbEntity
  8
0-B_寸法
  6
Continuous
 62
     7
370
   211
100
AcDbText
 10
-292.5813756613757
 20
-385.379188712522
 30
0.0
 40
91.44
  1
5
 50
90.0
  7
ＭＳ ゴシック
100
AcDbText
  0
TEXT
  5
403
330
1F
100
AcDbEntity
  8
0-B_寸法
  6
Continuous
 62
     7
370
     0
100
AcDbText
 10
-861.1880776014108
 20
-601.2522045855378
 30
0.0
 40
91.44
  1
3
 50
90.0
  7
ＭＳ ゴシック
100
AcDbText
  0
LWPOLYLINE
  5
404
330
1F
100
AcDbEntity
  8
0-B_寸法
  6
Continuous
 62
     7
370
     9
100
AcDbPolyline
 90
        4
 70
     1
 43
6.0
 10
733.6262195267731
 20
-1742.877906267151
 42
0.4142135623731
 10
730.6262195267731
 20
-1739.87790626715
 42
0.4142135623731
 10
727.626219526773
 20
-1742.877906267151
 42
0.4142135623731
 10
730.6262195267731
 20
-1745.877906267151
 42
0.4142135623731
  0
LINE
  5
405
330
1F
100
AcDbEntity
  8
0-B_寸法
  6
Continuous
 62
   120
370
     5
100
AcDbLine
 10
730.6262195267731
 20
-1742.877906267151
 30
0.0
 11
730.6262195267731
 21
-1592.877906267151
 31
0.0
  0
LWPOLYLINE
  5
406
330
1F
100
AcDbEntity
  8
0-B_寸法
  6
Continuous
 62
     7
370
     9
100
AcDbPolyline
 90
        4
 70
     1
 43
6.0
 10
970.6262195267719
 20
-1742.877906267151
 42
0.4142135623731
 10
967.6262195267719
 20
-1739.87790626715
 42
0.4142135623731
 10
964.6262195267719
 20
-1742.877906267151
 42
0.4142135623731
 10
967.6262195267719
 20
-1745.877906267151
 42
0.4142135623731
  0
LINE
  5
407
330
1F
100
AcDbEntity
  8
0-B_寸法
  6
Continuous
 62
   120
370
     5
100
AcDbLine
 10
967.6262195267719
 20
-1742.877906267151
 30
0.0
 11
967.6262195267719
 21
-1592.877906267151
 31
0.0
  0
LWPOLYLINE
  5
408
330
1F
100
AcDbEntity
  8
0-B_寸法
  6
Continuous
 62
     7
370
     9
100
AcDbPolyline
 90
        4
 70
     1
 43
6.0
 10
1024.626219526771
 20
-1742.877906267151
 42
0.4142135623731
 10
1021.626219526771
 20
-1739.87790626715
 42
0.4142135623731
 10
1018.626219526771
 20
-1742.877906267151
 42
0.4142135623731
 10
1021.626219526771
 20
-1745.877906267151
 42
0.4142135623731
  0
LINE
  5
409
330
1F
100
AcDbEntity
  8
0-B_寸法
  6
Continuous
 62
   120
370
     5
100
AcDbLine
 10
1021.626219526771
 20
-1742.877906267151
 30
0.0
 11
1021.626219526771
 21
-1592.877906267151
 31
0.0
  0
LWPOLYLINE
  5
40A
330
1F
100
AcDbEntity
  8
0-B_寸法
  6
Continuous
 62
     7
370
     9
100
AcDbPolyline
 90
        4
 70
     1
 43
6.0
 10
1318.626219526773
 20
-1742.877906267151
 42
0.4142135623731
 10
1315.626219526773
 20
-1739.87790626715
 42
0.4142135623731
 10
1312.626219526773
 20
-1742.877906267151
 42
0.4142135623731
 10
1315.626219526773
 20
-1745.877906267151
 42
0.4142135623731
  0
LINE
  5
40B
330
1F
100
AcDbEntity
  8
0-B_寸法
  6
Continuous
 62
   120
370
     5
100
AcDbLine
 10
1315.626219526773
 20
-1742.877906267151
 30
0.0
 11
1315.626219526773
 21
-1592.877906267151
 31
0.0
  0
LWPOLYLINE
  5
40C
330
1F
100
AcDbEntity
  8
0-B_寸法
  6
Continuous
 62
     7
370
     9
100
AcDbPolyline
 90
        4
 70
     1
 43
6.0
 10
1372.626219526772
 20
-1742.877906267151
 42
0.4142135623731
 10
1369.626219526772
 20
-1739.87790626715
 42
0.4142135623731
 10
1366.626219526772
 20
-1742.877906267151
 42
0.4142135623731
 10
1369.626219526772
 20
-1745.877906267151
 42
0.4142135623731
  0
LINE
  5
40D
330
1F
100
AcDbEntity
  8
0-B_寸法
  6
Continuous
 62
   120
370
     5
100
AcDbLine
 10
1369.626219526772
 20
-1742.877906267151
 30
0.0
 11
1369.626219526772
 21
-1592.877906267151
 31
0.0
  0
LWPOLYLINE
  5
40E
330
1F
100
AcDbEntity
  8
0-B_寸法
  6
Continuous
 62
     7
370
     9
100
AcDbPolyline
 90
        4
 70
     1
 43
6.0
 10
1411.626219526773
 20
-1742.877906267151
 42
0.4142135623731
 10
1408.626219526773
 20
-1739.87790626715
 42
0.4142135623731
 10
1405.626219526773
 20
-1742.877906267151
 42
0.4142135623731
 10
1408.626219526773
 20
-1745.877906267151
 42
0.4142135623731
  0
LINE
  5
40F
330
1F
100
AcDbEntity
  8
0-B_寸法
  6
Continuous
 62
   120
370
     5
100
AcDbLine
 10
1408.626219526773
 20
-1742.877906267151
 30
0.0
 11
1408.626219526773
 21
-1592.877906267151
 31
0.0
  0
TEXT
  5
410
330
1F
100
AcDbEntity
  8
0-B_寸法
  6
Continuous
 62
     7
370
   211
100
AcDbText
 10
1108.626219526775
 20
-1710.957906267151
 30
0.0
 40
91.44
  1
49
  7
ＭＳ ゴシック
100
AcDbText
  0
TEXT
  5
411
330
1F
100
AcDbEntity
  8
0-B_寸法
  6
Continuous
 62
     7
370
   211
100
AcDbText
 10
723.1262195267726
 20
-1710.957906267151
 30
0.0
 40
91.44
  1
39.5
  7
ＭＳ ゴシック
100
AcDbText
  0
TEXT
  5
412
330
1F
100
AcDbEntity
  8
0-B_寸法
  6
Continuous
 62
     7
370
   211
100
AcDbText
 10
1424.992085185911
 20
-1710.957906267151
 30
0.0
 40
91.44
  1
6.5
  7
ＭＳ ゴシック
100
AcDbText
  0
LINE
  5
413
330
1F
100
AcDbEntity
  8
0-B_寸法
  6
Continuous
 62
   120
370
     5
100
AcDbLine
 10
730.6262195267731
 20
-1742.877906267151
 30
0.0
 11
1617.187248862933
 21
-1742.877906267151
 31
0.0
  0
TEXT
  5
414
330
1F
100
AcDbEntity
  8
0-B_寸法
  6
Continuous
 62
     7
370
   211
100
AcDbText
 10
964.6262195267713
 20
-1864.032380952381
 30
0.0
 40
91.44
  1
9
  7
ＭＳ ゴシック
100
AcDbText
  0
TEXT
  5
415
330
1F
100
AcDbEntity
  8
0-B_寸法
  6
Continuous
 62
     7
370
   211
100
AcDbText
 10
1312.626219526772
 20
-1864.032380952381
 30
0.0
 40
91.44
  1
9
  7
ＭＳ ゴシック
100
AcDbText
  0
ENDSEC
  0
SECTION
  2
OBJECTS
  0
DICTIONARY
  5
C
330
0
100
AcDbDictionary
281
     1
  3
ACAD_DETAILVIEWSTYLE
350
44D
  3
ACAD_GROUP
350
D
  3
ACAD_LAYOUT
350
1A
  3
ACAD_MATERIAL
350
43
  3
ACAD_MLEADERSTYLE
350
6B
  3
ACAD_MLINESTYLE
350
17
  3
ACAD_PLOTSETTINGS
350
19
  3
ACAD_PLOTSTYLENAME
350
E
  3
ACAD_SCALELIST
350
47
  3
ACAD_SECTIONVIEWSTYLE
350
44E
  3
ACAD_TABLESTYLE
350
69
  3
ACAD_VISUALSTYLE
350
2A
  3
ACDB_RECOMPOSE_DATA
350
44A
  3
AcDbVariableDictionary
350
416
  0
SUN
  5
6D
330
29
100
AcDbSun
 90
        1
290
     0
 63
     7
421
 16777215
 40
1.0
291
     1
 91
  2455826
 92
 54000000
292
     0
 70
     2
 71
   256
280
     1
  0
DICTIONARY
  5
44D
102
{ACAD_REACTORS
330
C
102
}
330
C
100
AcDbDictionary
281
     1
  0
DICTIONARY
  5
D
102
{ACAD_REACTORS
330
C
102
}
330
C
100
AcDbDictionary
281
     1
  0
DICTIONARY
  5
1A
102
{ACAD_REACTORS
330
C
102
}
330
C
100
AcDbDictionary
281
     1
  3
Layout1
350
1E
  3
Layout2
350
26
  3
Model
350
22
  0
DICTIONARY
  5
43
102
{ACAD_REACTORS
330
C
102
}
330
C
100
AcDbDictionary
281
     1
  3
ByBlock
350
45
  3
ByLayer
350
44
  3
Global
350
46
  0
DICTIONARY
  5
6B
102
{ACAD_REACTORS
330
C
102
}
330
C
100
AcDbDictionary
281
     1
  3
Standard
350
6C
  0
DICTIONARY
  5
17
102
{ACAD_REACTORS
330
C
102
}
330
C
100
AcDbDictionary
281
     1
  3
Standard
350
18
  0
DICTIONARY
  5
19
102
{ACAD_REACTORS
330
C
102
}
330
C
100
AcDbDictionary
281
     1
  0
ACDBDICTIONARYWDFLT
  5
E
102
{ACAD_REACTORS
330
C
102
}
330
C
100
AcDbDictionary
281
     1
  3
Normal
350
F
100
AcDbDictionaryWithDefault
340
F
  0
DICTIONARY
  5
47
102
{ACAD_REACTORS
330
C
102
}
330
C
100
AcDbDictionary
281
     1
  3
A0
350
48
  3
A1
350
49
  3
A2
350
4A
  3
A3
350
4B
  3
A4
350
4C
  3
A5
350
4D
  3
A6
350
4E
  3
A7
350
4F
  3
A8
350
50
  3
A9
350
51
  3
B0
350
52
  3
B1
350
53
  3
B2
350
54
  3
B3
350
55
  3
B4
350
56
  3
B5
350
57
  3
B6
350
58
  3
B7
350
59
  3
B8
350
5A
  3
B9
350
5B
  3
C0
350
5C
  3
C1
350
5D
  3
C2
350
5E
  3
C3
350
5F
  3
C4
350
60
  3
C5
350
61
  3
C6
350
62
  3
C7
350
63
  3
C8
350
64
  3
C9
350
65
  3
D0
350
66
  3
D1
350
67
  3
D2
350
68
  0
DICTIONARY
  5
44E
102
{ACAD_REACTORS
330
C
102
}
330
C
100
AcDbDictionary
281
     1
  0
DICTIONARY
  5
69
102
{ACAD_REACTORS
330
C
102
}
330
C
100
AcDbDictionary
281
     1
  3
Standard
350
6A
  0
DICTIONARY
  5
2A
102
{ACAD_REACTORS
330
C
102
}
330
C
100
AcDbDictionary
281
     1
  3
2dWireframe
350
2F
  3
Basic
350
32
  3
Brighten
350
36
  3
ColorChange
350
3A
  3
Conceptual
350
34
  3
Dim
350
35
  3
EdgeColorOff
350
3D
  3
Facepattern
350
39
  3
Flat
350
2B
  3
FlatWithEdges
350
2C
  3
Gouraud
350
2D
  3
GouraudWithEdges
350
2E
  3
Hidden
350
31
  3
JitterOff
350
3B
  3
Linepattern
350
38
  3
OverhangOff
350
3C
  3
Realistic
350
33
  3
Shaded
350
42
  3
Shaded with edges
350
41
  3
Shades of Gray
350
3E
  3
Sketchy
350
3F
  3
Thicken
350
37
  3
Wireframe
350
30
  3
X-Ray
350
40
  0
XRECORD
  5
44A
102
{ACAD_REACTORS
330
C
102
}
330
C
100
AcDbXrecord
280
     1
 90
        1
330
6A
  0
DICTIONARY
  5
416
102
{ACAD_REACTORS
330
C
102
}
330
C
100
AcDbDictionary
281
     1
  3
CANNOSCALE
350
417
  3
CENTEREXE
350
44F
  3
CENTERLTYPEFILE
350
450
  3
CMLEADERSTYLE
350
44C
  3
CTABLESTYLE
350
44B
  0
LAYOUT
  5
1E
102
{ACAD_REACTORS
330
1A
102
}
330
1A
100
AcDbPlotSettings
  1

  2
none_device
  4

  6

 40
0.0
 41
0.0
 42
0.0
 43
0.0
 44
0.0
 45
0.0
 46
0.0
 47
0.0
 48
0.0
 49
0.0
140
0.0
141
0.0
142
1.0
143
1.0
 70
   688
 72
     1
 73
     0
 74
     5
  7

 75
    16
 76
     0
 77
     5
 78
   300
147
1.0
148
0.0
149
0.0
100
AcDbLayout
  1
Layout1
 70
     1
 71
     1
 10
0.0
 20
0.0
 11
420.0
 21
297.0
 12
0.0
 22
0.0
 32
0.0
 14
1.000000000000000E+20
 24
1.000000000000000E+20
 34
1.000000000000000E+20
 15
-1.000000000000000E+20
 25
-1.000000000000000E+20
 35
-1.000000000000000E+20
146
0.0
 13
0.0
 23
0.0
 33
0.0
 16
1.0
 26
0.0
 36
0.0
 17
0.0
 27
1.0
 37
0.0
 76
     0
330
1B
  0
LAYOUT
  5
26
102
{ACAD_REACTORS
330
1A
102
}
330
1A
100
AcDbPlotSettings
  1

  2
none_device
  4

  6

 40
0.0
 41
0.0
 42
0.0
 43
0.0
 44
0.0
 45
0.0
 46
0.0
 47
0.0
 48
0.0
 49
0.0
140
0.0
141
0.0
142
1.0
143
1.0
 70
   688
 72
     1
 73
     0
 74
     5
  7

 75
    16
 76
     0
 77
     5
 78
   300
147
1.0
148
0.0
149
0.0
100
AcDbLayout
  1
Layout2
 70
     1
 71
     2
 10
0.0
 20
0.0
 11
0.0
 21
0.0
 12
0.0
 22
0.0
 32
0.0
 14
0.0
 24
0.0
 34
0.0
 15
0.0
 25
0.0
 35
0.0
146
0.0
 13
0.0
 23
0.0
 33
0.0
 16
1.0
 26
0.0
 36
0.0
 17
0.0
 27
1.0
 37
0.0
 76
     0
330
23
  0
LAYOUT
  5
22
102
{ACAD_REACTORS
330
1A
102
}
330
1A
100
AcDbPlotSettings
  1

  2
none_device
  4
Letter_(8.50_x_11.00_Inches)
  6

 40
6.35
 41
6.35
 42
6.35000508
 43
6.35000508
 44
215.9
 45
279.4
 46
0.0
 47
0.0
 48
0.0
 49
0.0
140
0.0
141
0.0
142
1.0
143
1.0
 70
  1712
 72
     1
 73
     0
 74
     0
  7

 75
     0
 76
     0
 77
     5
 78
   300
147
1.0
148
0.0
149
0.0
100
AcDbLayout
  1
Model
 70
     1
 71
     0
 10
-6300.0
 20
-4455.0
 11
6300.0
 21
4455.0
 12
0.0
 22
0.0
 32
0.0
 14
-6300.0
 24
-4455.0
 34
0.0
 15
6300.0
 25
4455.0
 35
0.0
146
0.0
 13
0.0
 23
0.0
 33
0.0
 16
1.0
 26
0.0
 36
0.0
 17
0.0
 27
1.0
 37
0.0
 76
     0
330
1F
331
29
  0
MATERIAL
  5
45
102
{ACAD_REACTORS
330
43
102
}
330
43
100
AcDbMaterial
  1
ByBlock
 72
     1
 94
      127
  0
MATERIAL
  5
44
102
{ACAD_REACTORS
330
43
102
}
330
43
100
AcDbMaterial
  1
ByLayer
 72
     1
 94
      127
  0
MATERIAL
  5
46
102
{ACAD_REACTORS
330
43
102
}
330
43
100
AcDbMaterial
  1
Global
 72
     1
 94
      127
  0
MLEADERSTYLE
  5
6C
102
{ACAD_REACTORS
330
6B
102
}
330
6B
100
AcDbMLeaderStyle
179
     2
170
     2
171
     1
172
     0
 90
        2
 40
0.0
 41
0.0
173
     1
 91
-1056964608
340
14
 92
       -2
290
     1
 42
2.0
291
     1
 43
8.0
  3
Standard
341
0
 44
4.0
300

342
11
174
     1
178
     6
175
     1
176
     0
 93
-1056964608
 45
4.0
292
     0
297
     0
 46
4.0
343
0
 94
-1056964608
 47
1.0
 49
1.0
140
1.0
293
     1
141
0.0
294
     1
177
     0
142
1.0
295
     0
296
     0
143
3.75
271
     0
272
     9
273
     9
  0
MLINESTYLE
  5
18
102
{ACAD_REACTORS
330
17
102
}
330
17
100
AcDbMlineStyle
  2
Standard
 70
     0
  3

 62
   256
 51
90.0
 52
90.0
 71
     2
 49
0.5
 62
   256
  6
BYLAYER
 49
-0.5
 62
   256
  6
BYLAYER
  0
ACDBPLACEHOLDER
  5
F
102
{ACAD_REACTORS
330
E
102
}
330
E
  0
SCALE
  5
48
102
{ACAD_REACTORS
330
47
102
}
330
47
100
AcDbScale
 70
     0
300
1:1
140
1.0
141
1.0
290
     1
  0
SCALE
  5
49
102
{ACAD_REACTORS
330
47
102
}
330
47
100
AcDbScale
 70
     0
300
1:2
140
1.0
141
2.0
290
     0
  0
SCALE
  5
4A
102
{ACAD_REACTORS
330
47
102
}
330
47
100
AcDbScale
 70
     0
300
1:4
140
1.0
141
4.0
290
     0
  0
SCALE
  5
4B
102
{ACAD_REACTORS
330
47
102
}
330
47
100
AcDbScale
 70
     0
300
1:5
140
1.0
141
5.0
290
     0
  0
SCALE
  5
4C
102
{ACAD_REACTORS
330
47
102
}
330
47
100
AcDbScale
 70
     0
300
1:8
140
1.0
141
8.0
290
     0
  0
SCALE
  5
4D
102
{ACAD_REACTORS
330
47
102
}
330
47
100
AcDbScale
 70
     0
300
1:10
140
1.0
141
10.0
290
     0
  0
SCALE
  5
4E
102
{ACAD_REACTORS
330
47
102
}
330
47
100
AcDbScale
 70
     0
300
1:16
140
1.0
141
16.0
290
     0
  0
SCALE
  5
4F
102
{ACAD_REACTORS
330
47
102
}
330
47
100
AcDbScale
 70
     0
300
1:20
140
1.0
141
20.0
290
     0
  0
SCALE
  5
50
102
{ACAD_REACTORS
330
47
102
}
330
47
100
AcDbScale
 70
     0
300
1:30
140
1.0
141
30.0
290
     0
  0
SCALE
  5
51
102
{ACAD_REACTORS
330
47
102
}
330
47
100
AcDbScale
 70
     0
300
1:40
140
1.0
141
40.0
290
     0
  0
SCALE
  5
52
102
{ACAD_REACTORS
330
47
102
}
330
47
100
AcDbScale
 70
     0
300
1:50
140
1.0
141
50.0
290
     0
  0
SCALE
  5
53
102
{ACAD_REACTORS
330
47
102
}
330
47
100
AcDbScale
 70
     0
300
1:100
140
1.0
141
100.0
290
     0
  0
SCALE
  5
54
102
{ACAD_REACTORS
330
47
102
}
330
47
100
AcDbScale
 70
     0
300
2:1
140
2.0
141
1.0
290
     0
  0
SCALE
  5
55
102
{ACAD_REACTORS
330
47
102
}
330
47
100
AcDbScale
 70
     0
300
4:1
140
4.0
141
1.0
290
     0
  0
SCALE
  5
56
102
{ACAD_REACTORS
330
47
102
}
330
47
100
AcDbScale
 70
     0
300
8:1
140
8.0
141
1.0
290
     0
  0
SCALE
  5
57
102
{ACAD_REACTORS
330
47
102
}
330
47
100
AcDbScale
 70
     0
300
10:1
140
10.0
141
1.0
290
     0
  0
SCALE
  5
58
102
{ACAD_REACTORS
330
47
102
}
330
47
100
AcDbScale
 70
     0
300
100:1
140
100.0
141
1.0
290
     0
  0
SCALE
  5
59
102
{ACAD_REACTORS
330
47
102
}
330
47
100
AcDbScale
 70
     0
300
1/128" = 1'-0"
140
0.0078125
141
12.0
290
     0
  0
SCALE
  5
5A
102
{ACAD_REACTORS
330
47
102
}
330
47
100
AcDbScale
 70
     0
300
1/64" = 1'-0"
140
0.015625
141
12.0
290
     0
  0
SCALE
  5
5B
102
{ACAD_REACTORS
330
47
102
}
330
47
100
AcDbScale
 70
     0
300
1/32" = 1'-0"
140
0.03125
141
12.0
290
     0
  0
SCALE
  5
5C
102
{ACAD_REACTORS
330
47
102
}
330
47
100
AcDbScale
 70
     0
300
1/16" = 1'-0"
140
0.0625
141
12.0
290
     0
  0
SCALE
  5
5D
102
{ACAD_REACTORS
330
47
102
}
330
47
100
AcDbScale
 70
     0
300
3/32" = 1'-0"
140
0.09375
141
12.0
290
     0
  0
SCALE
  5
5E
102
{ACAD_REACTORS
330
47
102
}
330
47
100
AcDbScale
 70
     0
300
1/8" = 1'-0"
140
0.125
141
12.0
290
     0
  0
SCALE
  5
5F
102
{ACAD_REACTORS
330
47
102
}
330
47
100
AcDbScale
 70
     0
300
3/16" = 1'-0"
140
0.1875
141
12.0
290
     0
  0
SCALE
  5
60
102
{ACAD_REACTORS
330
47
102
}
330
47
100
AcDbScale
 70
     0
300
1/4" = 1'-0"
140
0.25
141
12.0
290
     0
  0
SCALE
  5
61
102
{ACAD_REACTORS
330
47
102
}
330
47
100
AcDbScale
 70
     0
300
3/8" = 1'-0"
140
0.375
141
12.0
290
     0
  0
SCALE
  5
62
102
{ACAD_REACTORS
330
47
102
}
330
47
100
AcDbScale
 70
     0
300
1/2" = 1'-0"
140
0.5
141
12.0
290
     0
  0
SCALE
  5
63
102
{ACAD_REACTORS
330
47
102
}
330
47
100
AcDbScale
 70
     0
300
3/4" = 1'-0"
140
0.75
141
12.0
290
     0
  0
SCALE
  5
64
102
{ACAD_REACTORS
330
47
102
}
330
47
100
AcDbScale
 70
     0
300
1" = 1'-0"
140
1.0
141
12.0
290
     0
  0
SCALE
  5
65
102
{ACAD_REACTORS
330
47
102
}
330
47
100
AcDbScale
 70
     0
300
1-1/2" = 1'-0"
140
1.5
141
12.0
290
     0
  0
SCALE
  5
66
102
{ACAD_REACTORS
330
47
102
}
330
47
100
AcDbScale
 70
     0
300
3" = 1'-0"
140
3.0
141
12.0
290
     0
  0
SCALE
  5
67
102
{ACAD_REACTORS
330
47
102
}
330
47
100
AcDbScale
 70
     0
300
6" = 1'-0"
140
6.0
141
12.0
290
     0
  0
SCALE
  5
68
102
{ACAD_REACTORS
330
47
102
}
330
47
100
AcDbScale
 70
     0
300
1'-0" = 1'-0"
140
12.0
141
12.0
290
     0
  0
TABLESTYLE
  5
6A
102
{ACAD_REACTORS
330
69
102
}
102
{ACAD_XDICTIONARY
360
448
102
}
330
69
100
AcDbTableStyle
  3
Standard
 70
     0
 71
     0
 40
0.06
 41
0.06
280
     0
281
     0
  7
Standard
140
4.5
170
     2
 62
     0
 63
   257
283
     0
 90
        4
 91
        0
  1

274
    -2
284
     1
 64
     0
275
    -2
285
     1
 65
     0
276
    -2
286
     1
 66
     0
277
    -2
287
     1
 67
     0
278
    -2
288
     1
 68
     0
279
    -2
289
     1
 69
     0
  7
Standard
140
6.0
170
     5
 62
     0
 63
   257
283
     0
 90
        4
 91
        0
  1

274
    -2
284
     1
 64
     0
275
    -2
285
     1
 65
     0
276
    -2
286
     1
 66
     0
277
    -2
287
     1
 67
     0
278
    -2
288
     1
 68
     0
279
    -2
289
     1
 69
     0
  7
Standard
140
4.5
170
     5
 62
     0
 63
   257
283
     0
 90
        4
 91
        0
  1

274
    -2
284
     1
 64
     0
275
    -2
285
     1
 65
     0
276
    -2
286
     1
 66
     0
277
    -2
287
     1
 67
     0
278
    -2
288
     1
 68
     0
279
    -2
289
     1
 69
     0
  0
VISUALSTYLE
  5
2F
102
{ACAD_REACTORS
330
2A
102
}
102
{ACAD_XDICTIONARY
360
420
102
}
330
2A
100
AcDbVisualStyle
  2
2dWireframe
 70
     4
177
     2
291
     0
 71
     0
176
     1
 72
     2
176
     1
 73
     0
176
     1
 90
        0
176
     1
 40
0.6
176
     1
 41
30.0
176
     1
 62
     5
 63
     7
421
 16777215
176
     1
 74
     1
176
     1
 91
        4
176
     1
 64
     7
176
     1
 65
   257
176
     1
 75
     1
176
     1
175
     1
176
     1
 42
1.0
176
     1
 92
        0
176
     1
 66
   257
176
     1
 43
1.0
176
     1
 76
     1
176
     1
 77
     6
176
     1
 78
     2
176
     1
 67
     7
176
     1
 79
     5
176
     1
170
     0
176
     1
171
     0
176
     1
290
     0
176
     1
 93
        1
176
     1
 44
0.0
176
     1
173
     0
176
     1
  0
VISUALSTYLE
  5
32
102
{ACAD_REACTORS
330
2A
102
}
102
{ACAD_XDICTIONARY
360
426
102
}
330
2A
100
AcDbVisualStyle
  2
Basic
 70
     7
177
     2
291
     1
 71
     1
176
     1
 72
     0
176
     1
 73
     1
176
     1
 90
        0
176
     1
 40
0.6
176
     1
 41
30.0
176
     1
 62
     5
 63
     7
421
 16777215
176
     1
 74
     0
176
     1
 91
        4
176
     1
 64
     7
176
     1
 65
   257
176
     1
 75
     1
176
     1
175
     1
176
     1
 42
1.0
176
     1
 92
        8
176
     1
 66
     7
176
     1
 43
1.0
176
     1
 76
     1
176
     1
 77
     6
176
     1
 78
     2
176
     1
 67
     7
176
     1
 79
     5
176
     1
170
     0
176
     1
171
     0
176
     1
290
     0
176
     1
 93
        1
176
     1
 44
0.0
176
     1
173
     0
176
     1
  0
VISUALSTYLE
  5
36
102
{ACAD_REACTORS
330
2A
102
}
102
{ACAD_XDICTIONARY
360
42E
102
}
330
2A
100
AcDbVisualStyle
  2
Brighten
 70
    12
177
     2
291
     1
 71
     2
176
     1
 72
     2
176
     1
 73
     0
176
     1
 90
        0
176
     1
 40
0.6
176
     1
 41
30.0
176
     1
 62
     5
 63
     7
421
 16777215
176
     1
 74
     1
176
     1
 91
        4
176
     1
 64
     7
176
     1
 65
   257
176
     1
 75
     1
176
     1
175
     1
176
     1
 42
1.0
176
     1
 92
        8
176
     1
 66
     7
176
     1
 43
1.0
176
     1
 76
     1
176
     1
 77
     6
176
     1
 78
     2
176
     1
 67
     7
176
     1
 79
     5
176
     1
170
     0
176
     1
171
     0
176
     1
290
     0
176
     1
 93
        1
176
     1
 44
50.0
176
     1
173
     0
176
     1
  0
VISUALSTYLE
  5
3A
102
{ACAD_REACTORS
330
2A
102
}
102
{ACAD_XDICTIONARY
360
436
102
}
330
2A
100
AcDbVisualStyle
  2
ColorChange
 70
    16
177
     2
291
     1
 71
     2
176
     1
 72
     2
176
     1
 73
     3
176
     1
 90
        0
176
     1
 40
0.6
176
     1
 41
30.0
176
     1
 62
     5
 63
     8
421
  8421504
176
     1
 74
     1
176
     1
 91
        4
176
     1
 64
     7
176
     1
 65
   257
176
     1
 75
     1
176
     1
175
     1
176
     1
 42
1.0
176
     1
 92
        8
176
     1
 66
     8
424
  8421504
176
     1
 43
1.0
176
     1
 76
     1
176
     1
 77
     6
176
     1
 78
     2
176
     1
 67
     7
176
     1
 79
     5
176
     1
170
     0
176
     1
171
     0
176
     1
290
     0
176
     1
 93
        1
176
     1
 44
0.0
176
     1
173
     0
176
     1
  0
VISUALSTYLE
  5
34
102
{ACAD_REACTORS
330
2A
102
}
102
{ACAD_XDICTIONARY
360
42A
102
}
330
2A
100
AcDbVisualStyle
  2
Conceptual
 70
     9
177
     2
291
     0
 71
     3
176
     1
 72
     2
176
     1
 73
     0
176
     1
 90
        0
176
     1
 40
0.6
176
     1
 41
30.0
176
     1
 62
     5
 63
     7
421
 16777215
176
     1
 74
     2
176
     1
 91
        2
176
     1
 64
     7
176
     1
 65
   257
176
     1
 75
     1
176
     1
175
     1
176
     1
 42
179.0
176
     1
 92
        8
176
     1
 66
     7
176
     1
 43
1.0
176
     1
 76
     1
176
     1
 77
     6
176
     1
 78
     2
176
     1
 67
     7
176
     1
 79
     3
176
     1
170
     0
176
     1
171
     0
176
     1
290
     0
176
     1
 93
        1
176
     1
 44
0.0
176
     1
173
     0
176
     1
  0
VISUALSTYLE
  5
35
102
{ACAD_REACTORS
330
2A
102
}
102
{ACAD_XDICTIONARY
360
42C
102
}
330
2A
100
AcDbVisualStyle
  2
Dim
 70
    11
177
     2
291
     1
 71
     2
176
     1
 72
     2
176
     1
 73
     0
176
     1
 90
        0
176
     1
 40
0.6
176
     1
 41
30.0
176
     1
 62
     5
 63
     7
421
 16777215
176
     1
 74
     1
176
     1
 91
        4
176
     1
 64
     7
176
     1
 65
   257
176
     1
 75
     1
176
     1
175
     1
176
     1
 42
1.0
176
     1
 92
        8
176
     1
 66
     7
176
     1
 43
1.0
176
     1
 76
     1
176
     1
 77
     6
176
     1
 78
     2
176
     1
 67
     7
176
     1
 79
     5
176
     1
170
     0
176
     1
171
     0
176
     1
290
     0
176
     1
 93
        1
176
     1
 44
-50.0
176
     1
173
     0
176
     1
  0
VISUALSTYLE
  5
3D
102
{ACAD_REACTORS
330
2A
102
}
102
{ACAD_XDICTIONARY
360
43C
102
}
330
2A
100
AcDbVisualStyle
  2
EdgeColorOff
 70
    22
177
     2
291
     1
 71
     2
176
     0
 72
     2
176
     0
 73
     0
176
     0
 90
        0
176
     0
 40
0.6
176
     0
 41
30.0
176
     0
 62
     5
 63
     7
421
 16777215
176
     0
 74
     1
176
     0
 91
        4
176
     0
 64
     7
176
     0
 65
   257
176
     0
 75
     1
176
     0
175
     1
176
     0
 42
1.0
176
     0
 92
        8
176
     2
 66
     7
176
     0
 43
1.0
176
     0
 76
     1
176
     0
 77
     6
176
     0
 78
     2
176
     0
 67
     7
176
     0
 79
     5
176
     0
170
     0
176
     0
171
     0
176
     0
290
     0
176
     0
 93
        1
176
     0
 44
0.0
176
     0
173
     0
176
     0
  0
VISUALSTYLE
  5
39
102
{ACAD_REACTORS
330
2A
102
}
102
{ACAD_XDICTIONARY
360
434
102
}
330
2A
100
AcDbVisualStyle
  2
Facepattern
 70
    15
177
     2
291
     1
 71
     2
176
     1
 72
     2
176
     1
 73
     0
176
     1
 90
        0
176
     1
 40
0.6
176
     1
 41
30.0
176
     1
 62
     5
 63
     7
421
 16777215
176
     1
 74
     1
176
     1
 91
        4
176
     1
 64
     7
176
     1
 65
   257
176
     1
 75
     1
176
     1
175
     1
176
     1
 42
1.0
176
     1
 92
        8
176
     1
 66
     7
176
     1
 43
1.0
176
     1
 76
     1
176
     1
 77
     6
176
     1
 78
     2
176
     1
 67
     7
176
     1
 79
     5
176
     1
170
     0
176
     1
171
     0
176
     1
290
     0
176
     1
 93
        1
176
     1
 44
0.0
176
     1
173
     0
176
     1
  0
VISUALSTYLE
  5
2B
102
{ACAD_REACTORS
330
2A
102
}
102
{ACAD_XDICTIONARY
360
418
102
}
330
2A
100
AcDbVisualStyle
  2
Flat
 70
     0
177
     2
291
     1
 71
     2
176
     1
 72
     1
176
     1
 73
     1
176
     1
 90
        2
176
     1
 40
0.6
176
     1
 41
30.0
176
     1
 62
     5
 63
     7
421
 16777215
176
     1
 74
     0
176
     1
 91
        0
176
     1
 64
     7
176
     1
 65
   257
176
     1
 75
     1
176
     1
175
     1
176
     1
 42
1.0
176
     1
 92
        8
176
     1
 66
     7
176
     1
 43
1.0
176
     1
 76
     1
176
     1
 77
     6
176
     1
 78
     2
176
     1
 67
     7
176
     1
 79
     5
176
     1
170
     0
176
     1
171
     0
176
     1
290
     0
176
     1
 93
       13
176
     1
 44
0.0
176
     1
173
     0
176
     1
  0
VISUALSTYLE
  5
2C
102
{ACAD_REACTORS
330
2A
102
}
102
{ACAD_XDICTIONARY
360
41A
102
}
330
2A
100
AcDbVisualStyle
  2
FlatWithEdges
 70
     1
177
     2
291
     1
 71
     2
176
     1
 72
     1
176
     1
 73
     1
176
     1
 90
        2
176
     1
 40
0.6
176
     1
 41
30.0
176
     1
 62
     5
 63
     7
421
 16777215
176
     1
 74
     1
176
     1
 91
        0
176
     1
 64
     7
176
     1
 65
   257
176
     1
 75
     1
176
     1
175
     1
176
     1
 42
1.0
176
     1
 92
        0
176
     1
 66
   257
176
     1
 43
1.0
176
     1
 76
     1
176
     1
 77
     6
176
     1
 78
     2
176
     1
 67
     7
176
     1
 79
     5
176
     1
170
     0
176
     1
171
     0
176
     1
290
     0
176
     1
 93
       13
176
     1
 44
0.0
176
     1
173
     0
176
     1
  0
VISUALSTYLE
  5
2D
102
{ACAD_REACTORS
330
2A
102
}
102
{ACAD_XDICTIONARY
360
41C
102
}
330
2A
100
AcDbVisualStyle
  2
Gouraud
 70
     2
177
     2
291
     1
 71
     2
176
     1
 72
     2
176
     1
 73
     1
176
     1
 90
        2
176
     1
 40
0.6
176
     1
 41
30.0
176
     1
 62
     5
 63
     7
421
 16777215
176
     1
 74
     0
176
     1
 91
        0
176
     1
 64
     7
176
     1
 65
   257
176
     1
 75
     1
176
     1
175
     1
176
     1
 42
1.0
176
     1
 92
        0
176
     1
 66
     7
176
     1
 43
1.0
176
     1
 76
     1
176
     1
 77
     6
176
     1
 78
     2
176
     1
 67
     7
176
     1
 79
     5
176
     1
170
     0
176
     1
171
     0
176
     1
290
     0
176
     1
 93
       13
176
     1
 44
0.0
176
     1
173
     0
176
     1
  0
VISUALSTYLE
  5
2E
102
{ACAD_REACTORS
330
2A
102
}
102
{ACAD_XDICTIONARY
360
41E
102
}
330
2A
100
AcDbVisualStyle
  2
GouraudWithEdges
 70
     3
177
     2
291
     1
 71
     2
176
     1
 72
     2
176
     1
 73
     1
176
     1
 90
        2
176
     1
 40
0.6
176
     1
 41
30.0
176
     1
 62
     5
 63
     7
421
 16777215
176
     1
 74
     1
176
     1
 91
        0
176
     1
 64
     7
176
     1
 65
   257
176
     1
 75
     1
176
     1
175
     1
176
     1
 42
1.0
176
     1
 92
        0
176
     1
 66
   257
176
     1
 43
1.0
176
     1
 76
     1
176
     1
 77
     6
176
     1
 78
     2
176
     1
 67
     7
176
     1
 79
     5
176
     1
170
     0
176
     1
171
     0
176
     1
290
     0
176
     1
 93
       13
176
     1
 44
0.0
176
     1
173
     0
176
     1
  0
VISUALSTYLE
  5
31
102
{ACAD_REACTORS
330
2A
102
}
102
{ACAD_XDICTIONARY
360
424
102
}
330
2A
100
AcDbVisualStyle
  2
Hidden
 70
     6
177
     2
291
     0
 71
     1
176
     1
 72
     2
176
     1
 73
     2
176
     1
 90
        0
176
     1
 40
0.6
176
     1
 41
30.0
176
     1
 62
     5
 63
     7
421
 16777215
176
     1
 74
     2
176
     1
 91
        2
176
     1
 64
     7
176
     1
 65
   257
176
     1
 75
     2
176
     1
175
     1
176
     1
 42
40.0
176
     1
 92
        0
176
     1
 66
   257
176
     1
 43
1.0
176
     1
 76
     1
176
     1
 77
     6
176
     1
 78
     2
176
     1
 67
     7
176
     1
 79
     3
176
     1
170
     0
176
     1
171
     0
176
     1
290
     0
176
     1
 93
        1
176
     1
 44
0.0
176
     1
173
     0
176
     1
  0
VISUALSTYLE
  5
3B
102
{ACAD_REACTORS
330
2A
102
}
102
{ACAD_XDICTIONARY
360
438
102
}
330
2A
100
AcDbVisualStyle
  2
JitterOff
 70
    20
177
     2
291
     1
 71
     2
176
     0
 72
     2
176
     0
 73
     0
176
     0
 90
        0
176
     0
 40
0.6
176
     0
 41
30.0
176
     0
 62
     5
 63
     7
421
 16777215
176
     0
 74
     1
176
     0
 91
        4
176
     0
 64
     7
176
     0
 65
   257
176
     0
 75
     1
176
     0
175
     1
176
     0
 42
1.0
176
     0
 92
       10
176
     2
 66
     7
176
     0
 43
1.0
176
     0
 76
     1
176
     0
 77
     6
176
     0
 78
     2
176
     0
 67
     7
176
     0
 79
     5
176
     0
170
     0
176
     0
171
     0
176
     0
290
     0
176
     0
 93
        1
176
     0
 44
0.0
176
     0
173
     0
176
     0
  0
VISUALSTYLE
  5
38
102
{ACAD_REACTORS
330
2A
102
}
102
{ACAD_XDICTIONARY
360
432
102
}
330
2A
100
AcDbVisualStyle
  2
Linepattern
 70
    14
177
     2
291
     1
 71
     2
176
     1
 72
     2
176
     1
 73
     0
176
     1
 90
        0
176
     1
 40
0.6
176
     1
 41
30.0
176
     1
 62
     5
 63
     7
421
 16777215
176
     1
 74
     1
176
     1
 91
        4
176
     1
 64
     7
176
     1
 65
   257
176
     1
 75
     7
176
     1
175
     7
176
     1
 42
1.0
176
     1
 92
        8
176
     1
 66
     7
176
     1
 43
1.0
176
     1
 76
     1
176
     1
 77
     6
176
     1
 78
     2
176
     1
 67
     7
176
     1
 79
     5
176
     1
170
     0
176
     1
171
     0
176
     1
290
     0
176
     1
 93
        1
176
     1
 44
0.0
176
     1
173
     0
176
     1
  0
VISUALSTYLE
  5
3C
102
{ACAD_REACTORS
330
2A
102
}
102
{ACAD_XDICTIONARY
360
43A
102
}
330
2A
100
AcDbVisualStyle
  2
OverhangOff
 70
    21
177
     2
291
     1
 71
     2
176
     0
 72
     2
176
     0
 73
     0
176
     0
 90
        0
176
     0
 40
0.6
176
     0
 41
30.0
176
     0
 62
     5
 63
     7
421
 16777215
176
     0
 74
     1
176
     0
 91
        4
176
     0
 64
     7
176
     0
 65
   257
176
     0
 75
     1
176
     0
175
     1
176
     0
 42
1.0
176
     0
 92
        9
176
     2
 66
     7
176
     0
 43
1.0
176
     0
 76
     1
176
     0
 77
     6
176
     0
 78
     2
176
     0
 67
     7
176
     0
 79
     5
176
     0
170
     0
176
     0
171
     0
176
     0
290
     0
176
     0
 93
        1
176
     0
 44
0.0
176
     0
173
     0
176
     0
  0
VISUALSTYLE
  5
33
102
{ACAD_REACTORS
330
2A
102
}
102
{ACAD_XDICTIONARY
360
428
102
}
330
2A
100
AcDbVisualStyle
  2
Realistic
 70
     8
177
     2
291
     0
 71
     2
176
     1
 72
     3
176
     1
 73
     0
176
     1
 90
        2
176
     1
 40
0.6
176
     1
 41
30.0
176
     1
 62
     5
 63
     7
421
 16777215
176
     1
 74
     0
176
     1
 91
        0
176
     1
 64
     7
176
     1
 65
   257
176
     1
 75
     1
176
     1
175
     1
176
     1
 42
1.0
176
     1
 92
        8
176
     1
 66
   257
176
     1
 43
1.0
176
     1
 76
     1
176
     1
 77
     6
176
     1
 78
     2
176
     1
 67
     7
176
     1
 79
     3
176
     1
170
     0
176
     1
171
     0
176
     1
290
     0
176
     1
 93
       13
176
     1
 44
0.0
176
     1
173
     0
176
     1
  0
VISUALSTYLE
  5
42
102
{ACAD_REACTORS
330
2A
102
}
102
{ACAD_XDICTIONARY
360
446
102
}
330
2A
100
AcDbVisualStyle
  2
Shaded
 70
    27
177
     2
291
     0
 71
     2
176
     1
 72
     2
176
     1
 73
     1
176
     1
 90
        2
176
     1
 40
0.6
176
     1
 41
30.0
176
     1
 62
     5
 63
     7
421
 16777215
176
     1
 74
     0
176
     1
 91
        4
176
     1
 64
     7
176
     1
 65
   257
176
     1
 75
     1
176
     1
175
     1
176
     1
 42
1.0
176
     1
 92
        8
176
     1
 66
   257
176
     1
 43
1.0
176
     1
 76
     1
176
     1
 77
     6
176
     1
 78
     2
176
     1
 67
     8
425
  7895160
176
     1
 79
     3
176
     1
170
     0
176
     1
171
     0
176
     1
290
     0
176
     1
 93
        5
176
     1
 44
0.0
176
     1
173
     0
176
     1
  0
VISUALSTYLE
  5
41
102
{ACAD_REACTORS
330
2A
102
}
102
{ACAD_XDICTIONARY
360
444
102
}
330
2A
100
AcDbVisualStyle
  2
Shaded with edges
 70
    26
177
     2
291
     0
 71
     2
176
     1
 72
     2
176
     1
 73
     1
176
     1
 90
        2
176
     1
 40
0.6
176
     1
 41
30.0
176
     1
 62
     5
 63
     7
421
 16777215
176
     1
 74
     1
176
     1
 91
       10
176
     1
 64
     7
176
     1
 65
   257
176
     1
 75
     2
176
     1
175
     1
176
     1
 42
1.0
176
     1
 92
        8
176
     1
 66
   257
176
     1
 43
1.0
176
     1
 76
     1
176
     1
 77
     6
176
     1
 78
     2
176
     1
 67
     7
176
     1
 79
     3
176
     1
170
     0
176
     1
171
     0
176
     1
290
     0
176
     1
 93
        5
176
     1
 44
0.0
176
     1
173
     0
176
     1
  0
VISUALSTYLE
  5
3E
102
{ACAD_REACTORS
330
2A
102
}
102
{ACAD_XDICTIONARY
360
43E
102
}
330
2A
100
AcDbVisualStyle
  2
Shades of Gray
 70
    23
177
     2
291
     0
 71
     2
176
     1
 72
     2
176
     1
 73
     3
176
     1
 90
        0
176
     1
 40
0.6
176
     1
 41
30.0
176
     1
 62
     5
 63
     7
421
 16777215
176
     1
 74
     2
176
     1
 91
        2
176
     1
 64
     7
176
     1
 65
     7
176
     1
 75
     1
176
     1
175
     1
176
     1
 42
40.0
176
     1
 92
        8
176
     1
 66
     7
176
     1
 43
1.0
176
     1
 76
     1
176
     1
 77
     6
176
     1
 78
     2
176
     1
 67
     7
176
     1
 79
     3
176
     1
170
     0
176
     1
171
     0
176
     1
290
     0
176
     1
 93
        1
176
     1
 44
0.0
176
     1
173
     0
176
     1
  0
VISUALSTYLE
  5
3F
102
{ACAD_REACTORS
330
2A
102
}
102
{ACAD_XDICTIONARY
360
440
102
}
330
2A
100
AcDbVisualStyle
  2
Sketchy
 70
    24
177
     2
291
     0
 71
     1
176
     1
 72
     2
176
     1
 73
     2
176
     1
 90
        0
176
     1
 40
0.6
176
     1
 41
30.0
176
     1
 62
     5
 63
     7
421
 16777215
176
     1
 74
     2
176
     1
 91
        2
176
     1
 64
     7
176
     1
 65
     7
176
     1
 75
     1
176
     1
175
     1
176
     1
 42
40.0
176
     1
 92
       11
176
     1
 66
     7
176
     1
 43
1.0
176
     1
 76
     1
176
     1
 77
     6
176
     1
 78
     2
176
     1
 67
     7
176
     1
 79
     6
176
     1
170
     0
176
     1
171
     0
176
     1
290
     0
176
     1
 93
        1
176
     1
 44
0.0
176
     1
173
     0
176
     1
  0
VISUALSTYLE
  5
37
102
{ACAD_REACTORS
330
2A
102
}
102
{ACAD_XDICTIONARY
360
430
102
}
330
2A
100
AcDbVisualStyle
  2
Thicken
 70
    13
177
     2
291
     1
 71
     2
176
     1
 72
     2
176
     1
 73
     0
176
     1
 90
        0
176
     1
 40
0.6
176
     1
 41
30.0
176
     1
 62
     5
 63
     7
421
 16777215
176
     1
 74
     1
176
     1
 91
        4
176
     1
 64
     7
176
     1
 65
   257
176
     1
 75
     1
176
     1
175
     1
176
     1
 42
1.0
176
     1
 92
       12
176
     1
 66
     7
176
     1
 43
1.0
176
     1
 76
     1
176
     1
 77
     6
176
     1
 78
     2
176
     1
 67
     7
176
     1
 79
     5
176
     1
170
     0
176
     1
171
     0
176
     1
290
     0
176
     1
 93
        1
176
     1
 44
0.0
176
     1
173
     0
176
     1
  0
VISUALSTYLE
  5
30
102
{ACAD_REACTORS
330
2A
102
}
102
{ACAD_XDICTIONARY
360
422
102
}
330
2A
100
AcDbVisualStyle
  2
Wireframe
 70
     5
177
     2
291
     0
 71
     0
176
     1
 72
     2
176
     1
 73
     0
176
     1
 90
        0
176
     1
 40
0.6
176
     1
 41
30.0
176
     1
 62
     5
 63
     7
421
 16777215
176
     1
 74
     1
176
     1
 91
        4
176
     1
 64
     7
176
     1
 65
   257
176
     1
 75
     1
176
     1
175
     1
176
     1
 42
1.0
176
     1
 92
        0
176
     1
 66
   257
176
     1
 43
1.0
176
     1
 76
     1
176
     1
 77
     6
176
     1
 78
     2
176
     1
 67
     7
176
     1
 79
     3
176
     1
170
     0
176
     1
171
     0
176
     1
290
     0
176
     1
 93
        1
176
     1
 44
0.0
176
     1
173
     0
176
     1
  0
VISUALSTYLE
  5
40
102
{ACAD_REACTORS
330
2A
102
}
102
{ACAD_XDICTIONARY
360
442
102
}
330
2A
100
AcDbVisualStyle
  2
X-Ray
 70
    25
177
     2
291
     0
 71
     2
176
     1
 72
     2
176
     1
 73
     1
176
     1
 90
        1
176
     1
 40
0.5
176
     1
 41
30.0
176
     1
 62
     5
 63
     7
421
 16777215
176
     1
 74
     1
176
     1
 91
        0
176
     1
 64
     7
176
     1
 65
   257
176
     1
 75
     1
176
     1
175
     1
176
     1
 42
1.0
176
     1
 92
        8
176
     1
 66
     7
176
     1
 43
1.0
176
     1
 76
     1
176
     1
 77
     6
176
     1
 78
     2
176
     1
 67
     7
176
     1
 79
     3
176
     1
170
     0
176
     1
171
     0
176
     1
290
     0
176
     1
 93
       13
176
     1
 44
0.0
176
     1
173
     0
176
     1
  0
DICTIONARYVAR
  5
417
102
{ACAD_REACTORS
330
416
102
}
330
416
100
DictionaryVariables
280
     0
  1
1:1
  0
DICTIONARYVAR
  5
44F
102
{ACAD_REACTORS
330
416
102
}
330
416
100
DictionaryVariables
280
     0
  1
3.500000
  0
DICTIONARYVAR
  5
450
102
{ACAD_REACTORS
330
416
102
}
330
416
100
DictionaryVariables
280
     0
  1
acadiso.lin
  0
DICTIONARYVAR
  5
44C
102
{ACAD_REACTORS
330
416
102
}
330
416
100
DictionaryVariables
280
     0
  1
Standard
  0
DICTIONARYVAR
  5
44B
102
{ACAD_REACTORS
330
416
102
}
330
416
100
DictionaryVariables
280
     0
  1
Standard
  0
DICTIONARY
  5
448
330
6A
100
AcDbDictionary
280
     1
281
     1
  3
ACAD_ROUNDTRIP_2008_TABLESTYLE_CELLSTYLEMAP
360
449
  0
DICTIONARY
  5
420
330
2F
100
AcDbDictionary
280
     1
281
     1
  3
ACAD_XREC_ROUNDTRIP
360
421
  0
DICTIONARY
  5
426
330
32
100
AcDbDictionary
280
     1
281
     1
  3
ACAD_XREC_ROUNDTRIP
360
427
  0
DICTIONARY
  5
42E
330
36
100
AcDbDictionary
280
     1
281
     1
  3
ACAD_XREC_ROUNDTRIP
360
42F
  0
DICTIONARY
  5
436
330
3A
100
AcDbDictionary
280
     1
281
     1
  3
ACAD_XREC_ROUNDTRIP
360
437
  0
DICTIONARY
  5
42A
330
34
100
AcDbDictionary
280
     1
281
     1
  3
ACAD_XREC_ROUNDTRIP
360
42B
  0
DICTIONARY
  5
42C
330
35
100
AcDbDictionary
280
     1
281
     1
  3
ACAD_XREC_ROUNDTRIP
360
42D
  0
DICTIONARY
  5
43C
330
3D
100
AcDbDictionary
280
     1
281
     1
  3
ACAD_XREC_ROUNDTRIP
360
43D
  0
DICTIONARY
  5
434
330
39
100
AcDbDictionary
280
     1
281
     1
  3
ACAD_XREC_ROUNDTRIP
360
435
  0
DICTIONARY
  5
418
330
2B
100
AcDbDictionary
280
     1
281
     1
  3
ACAD_XREC_ROUNDTRIP
360
419
  0
DICTIONARY
  5
41A
330
2C
100
AcDbDictionary
280
     1
281
     1
  3
ACAD_XREC_ROUNDTRIP
360
41B
  0
DICTIONARY
  5
41C
330
2D
100
AcDbDictionary
280
     1
281
     1
  3
ACAD_XREC_ROUNDTRIP
360
41D
  0
DICTIONARY
  5
41E
330
2E
100
AcDbDictionary
280
     1
281
     1
  3
ACAD_XREC_ROUNDTRIP
360
41F
  0
DICTIONARY
  5
424
330
31
100
AcDbDictionary
280
     1
281
     1
  3
ACAD_XREC_ROUNDTRIP
360
425
  0
DICTIONARY
  5
438
330
3B
100
AcDbDictionary
280
     1
281
     1
  3
ACAD_XREC_ROUNDTRIP
360
439
  0
DICTIONARY
  5
432
330
38
100
AcDbDictionary
280
     1
281
     1
  3
ACAD_XREC_ROUNDTRIP
360
433
  0
DICTIONARY
  5
43A
330
3C
100
AcDbDictionary
280
     1
281
     1
  3
ACAD_XREC_ROUNDTRIP
360
43B
  0
DICTIONARY
  5
428
330
33
100
AcDbDictionary
280
     1
281
     1
  3
ACAD_XREC_ROUNDTRIP
360
429
  0
DICTIONARY
  5
446
330
42
100
AcDbDictionary
280
     1
281
     1
  3
ACAD_XREC_ROUNDTRIP
360
447
  0
DICTIONARY
  5
444
330
41
100
AcDbDictionary
280
     1
281
     1
  3
ACAD_XREC_ROUNDTRIP
360
445
  0
DICTIONARY
  5
43E
330
3E
100
AcDbDictionary
280
     1
281
     1
  3
ACAD_XREC_ROUNDTRIP
360
43F
  0
DICTIONARY
  5
440
330
3F
100
AcDbDictionary
280
     1
281
     1
  3
ACAD_XREC_ROUNDTRIP
360
441
  0
DICTIONARY
  5
430
330
37
100
AcDbDictionary
280
     1
281
     1
  3
ACAD_XREC_ROUNDTRIP
360
431
  0
DICTIONARY
  5
422
330
30
100
AcDbDictionary
280
     1
281
     1
  3
ACAD_XREC_ROUNDTRIP
360
423
  0
DICTIONARY
  5
442
330
40
100
AcDbDictionary
280
     1
281
     1
  3
ACAD_XREC_ROUNDTRIP
360
443
  0
CELLSTYLEMAP
  5
449
102
{ACAD_REACTORS
330
448
102
}
330
448
100
AcDbCellStyleMap
 90
        3
300
CELLSTYLE
  1
TABLEFORMAT_BEGIN
 90
        5
170
     1
 91
        0
 92
    32768
 62
   257
 93
        1
300
CONTENTFORMAT
  1
CONTENTFORMAT_BEGIN
 90
        0
 91
        0
 92
        4
 93
        0
300

 40
0.0
140
1.0
 94
        5
 62
     0
340
11
144
6.0
309
CONTENTFORMAT_END
171
     1
301
MARGIN
  1
CELLMARGIN_BEGIN
 40
1.5
 40
1.5
 40
1.5
 40
1.5
 40
1.5
 40
1.5
309
CELLMARGIN_END
 94
        6
 95
        1
302
GRIDFORMAT
  1
GRIDFORMAT_BEGIN
 90
        0
 91
        1
 62
     0
 92
       -2
340
14
 93
        0
 40
0.045
309
GRIDFORMAT_END
 95
        2
302
GRIDFORMAT
  1
GRIDFORMAT_BEGIN
 90
        0
 91
        1
 62
     0
 92
       -2
340
14
 93
        0
 40
0.045
309
GRIDFORMAT_END
 95
        4
302
GRIDFORMAT
  1
GRIDFORMAT_BEGIN
 90
        0
 91
        1
 62
     0
 92
       -2
340
14
 93
        0
 40
0.045
309
GRIDFORMAT_END
 95
        8
302
GRIDFORMAT
  1
GRIDFORMAT_BEGIN
 90
        0
 91
        1
 62
     0
 92
       -2
340
14
 93
        0
 40
0.045
309
GRIDFORMAT_END
 95
       16
302
GRIDFORMAT
  1
GRIDFORMAT_BEGIN
 90
        0
 91
        1
 62
     0
 92
       -2
340
14
 93
        0
 40
0.045
309
GRIDFORMAT_END
 95
       32
302
GRIDFORMAT
  1
GRIDFORMAT_BEGIN
 90
        0
 91
        1
 62
     0
 92
       -2
340
14
 93
        0
 40
0.045
309
GRIDFORMAT_END
309
TABLEFORMAT_END
  1
CELLSTYLE_BEGIN
 90
        1
 91
        1
300
_TITLE
309
CELLSTYLE_END
300
CELLSTYLE
  1
TABLEFORMAT_BEGIN
 90
        5
170
     1
 91
        0
 92
        0
 62
   257
 93
        1
300
CONTENTFORMAT
  1
CONTENTFORMAT_BEGIN
 90
        0
 91
        0
 92
        4
 93
        0
300

 40
0.0
140
1.0
 94
        5
 62
     0
340
11
144
4.5
309
CONTENTFORMAT_END
171
     1
301
MARGIN
  1
CELLMARGIN_BEGIN
 40
1.5
 40
1.5
 40
1.5
 40
1.5
 40
1.5
 40
1.5
309
CELLMARGIN_END
 94
        6
 95
        1
302
GRIDFORMAT
  1
GRIDFORMAT_BEGIN
 90
        0
 91
        1
 62
     0
 92
       -2
340
14
 93
        0
 40
0.045
309
GRIDFORMAT_END
 95
        2
302
GRIDFORMAT
  1
GRIDFORMAT_BEGIN
 90
        0
 91
        1
 62
     0
 92
       -2
340
14
 93
        0
 40
0.045
309
GRIDFORMAT_END
 95
        4
302
GRIDFORMAT
  1
GRIDFORMAT_BEGIN
 90
        0
 91
        1
 62
     0
 92
       -2
340
14
 93
        0
 40
0.045
309
GRIDFORMAT_END
 95
        8
302
GRIDFORMAT
  1
GRIDFORMAT_BEGIN
 90
        0
 91
        1
 62
     0
 92
       -2
340
14
 93
        0
 40
0.045
309
GRIDFORMAT_END
 95
       16
302
GRIDFORMAT
  1
GRIDFORMAT_BEGIN
 90
        0
 91
        1
 62
     0
 92
       -2
340
14
 93
        0
 40
0.045
309
GRIDFORMAT_END
 95
       32
302
GRIDFORMAT
  1
GRIDFORMAT_BEGIN
 90
        0
 91
        1
 62
     0
 92
       -2
340
14
 93
        0
 40
0.045
309
GRIDFORMAT_END
309
TABLEFORMAT_END
  1
CELLSTYLE_BEGIN
 90
        2
 91
        1
300
_HEADER
309
CELLSTYLE_END
300
CELLSTYLE
  1
TABLEFORMAT_BEGIN
 90
        5
170
     1
 91
        0
 92
        0
 62
   257
 93
        1
300
CONTENTFORMAT
  1
CONTENTFORMAT_BEGIN
 90
        0
 91
        0
 92
        4
 93
        0
300

 40
0.0
140
1.0
 94
        2
 62
     0
340
11
144
4.5
309
CONTENTFORMAT_END
171
     1
301
MARGIN
  1
CELLMARGIN_BEGIN
 40
1.5
 40
1.5
 40
1.5
 40
1.5
 40
1.5
 40
1.5
309
CELLMARGIN_END
 94
        6
 95
        1
302
GRIDFORMAT
  1
GRIDFORMAT_BEGIN
 90
        0
 91
        1
 62
     0
 92
       -2
340
14
 93
        0
 40
0.045
309
GRIDFORMAT_END
 95
        2
302
GRIDFORMAT
  1
GRIDFORMAT_BEGIN
 90
        0
 91
        1
 62
     0
 92
       -2
340
14
 93
        0
 40
0.045
309
GRIDFORMAT_END
 95
        4
302
GRIDFORMAT
  1
GRIDFORMAT_BEGIN
 90
        0
 91
        1
 62
     0
 92
       -2
340
14
 93
        0
 40
0.045
309
GRIDFORMAT_END
 95
        8
302
GRIDFORMAT
  1
GRIDFORMAT_BEGIN
 90
        0
 91
        1
 62
     0
 92
       -2
340
14
 93
        0
 40
0.045
309
GRIDFORMAT_END
 95
       16
302
GRIDFORMAT
  1
GRIDFORMAT_BEGIN
 90
        0
 91
        1
 62
     0
 92
       -2
340
14
 93
        0
 40
0.045
309
GRIDFORMAT_END
 95
       32
302
GRIDFORMAT
  1
GRIDFORMAT_BEGIN
 90
        0
 91
        1
 62
     0
 92
       -2
340
14
 93
        0
 40
0.045
309
GRIDFORMAT_END
309
TABLEFORMAT_END
  1
CELLSTYLE_BEGIN
 90
        3
 91
        2
300
_DATA
309
CELLSTYLE_END
  0
XRECORD
  5
421
102
{ACAD_REACTORS
330
420
102
}
330
420
100
AcDbXrecord
280
     1
102
RTVSPost2010Prop28
280
     1
102
RTVSPost2010PropOp28
 70
     1
102
RTVSPost2010Prop29
280
     1
102
RTVSPost2010PropOp29
 70
     1
102
RTVSPost2010Prop30
280
     0
102
RTVSPost2010PropOp30
 70
     1
102
RTVSPost2010Prop31
280
     0
102
RTVSPost2010PropOp31
 70
     1
102
RTVSPost2010Prop32
280
     0
102
RTVSPost2010PropOp32
 70
     1
102
RTVSPost2010Prop33
280
     0
102
RTVSPost2010PropOp33
 70
     1
102
RTVSPost2010Prop34
280
     0
102
RTVSPost2010PropOp34
 70
     1
102
RTVSPost2010Prop35
280
     0
102
RTVSPost2010PropOp35
 70
     1
102
RTVSPost2010Prop36
280
     0
102
RTVSPost2010PropOp36
 70
     1
102
RTVSPost2010Prop37
 90
       50
102
RTVSPost2010PropOp37
 70
     1
102
RTVSPost2010Prop38
140
0.0
102
RTVSPost2010PropOp38
 70
     1
102
RTVSPost2010Prop39
140
1.0
102
RTVSPost2010PropOp39
 70
     1
102
RTVSPost2010Prop40
 90
        0
102
RTVSPost2010PropOp40
 70
     1
102
RTVSPost2010Prop41ColorIndex
 90
       18
102
RTVSPost2010Prop41ColorRGB
 90
        0
102
RTVSPost2010PropOp41
 70
     1
102
RTVSPost2010Prop42
 90
       50
102
RTVSPost2010PropOp42
 70
     1
102
RTVSPost2010Prop43
 90
        3
102
RTVSPost2010PropOp43
 70
     1
102
RTVSPost2010Prop44ColorIndex
 90
        5
102
RTVSPost2010Prop44ColorRGB
 90
      255
102
RTVSPost2010PropOp44
 70
     1
102
RTVSPost2010Prop45
280
     0
102
RTVSPost2010PropOp45
 70
     1
102
RTVSPost2010Prop46
 90
       50
102
RTVSPost2010PropOp46
 70
     1
102
RTVSPost2010Prop47
 90
       50
102
RTVSPost2010PropOp47
 70
     1
102
RTVSPost2010Prop48
 90
       50
102
RTVSPost2010PropOp48
 70
     1
102
RTVSPost2010Prop49
280
     0
102
RTVSPost2010PropOp49
 70
     1
102
RTVSPost2010Prop50
 90
       50
102
RTVSPost2010PropOp50
 70
     1
102
RTVSPost2010Prop51ColorIndex
 90
      256
102
RTVSPost2010Prop51ColorRGB
 90
-16777216
102
RTVSPost2010PropOp51
 70
     0
102
RTVSPost2010Prop52
140
1.0
102
RTVSPost2010PropOp52
 70
     0
102
RTVSPost2010Prop53
 90
        2
102
RTVSPost2010PropOp53
 70
     1
102
RTVSPost2010Prop54
  1
strokes_ogs.tif
102
RTVSPost2010PropOp54
 70
     1
102
RTVSPost2010Prop55
280
     0
102
RTVSPost2010PropOp55
 70
     1
102
RTVSPost2010Prop56
140
1.0
102
RTVSPost2010PropOp56
 70
     1
102
RTVSPost2010Prop57
140
1.0
102
RTVSPost2010PropOp57
 70
     1
  0
XRECORD
  5
427
102
{ACAD_REACTORS
330
426
102
}
330
426
100
AcDbXrecord
280
     1
102
RTVSPost2010Prop28
280
     0
102
RTVSPost2010PropOp28
 70
     1
102
RTVSPost2010Prop29
280
     1
102
RTVSPost2010PropOp29
 70
     1
102
RTVSPost2010Prop30
280
     1
102
RTVSPost2010PropOp30
 70
     1
102
RTVSPost2010Prop31
280
     0
102
RTVSPost2010PropOp31
 70
     1
102
RTVSPost2010Prop32
280
     0
102
RTVSPost2010PropOp32
 70
     1
102
RTVSPost2010Prop33
280
     0
102
RTVSPost2010PropOp33
 70
     1
102
RTVSPost2010Prop34
280
     0
102
RTVSPost2010PropOp34
 70
     1
102
RTVSPost2010Prop35
280
     0
102
RTVSPost2010PropOp35
 70
     1
102
RTVSPost2010Prop36
280
     0
102
RTVSPost2010PropOp36
 70
     1
102
RTVSPost2010Prop37
 90
       50
102
RTVSPost2010PropOp37
 70
     1
102
RTVSPost2010Prop38
140
0.0
102
RTVSPost2010PropOp38
 70
     1
102
RTVSPost2010Prop39
140
1.0
102
RTVSPost2010PropOp39
 70
     1
102
RTVSPost2010Prop40
 90
        0
102
RTVSPost2010PropOp40
 70
     1
102
RTVSPost2010Prop41ColorIndex
 90
       18
102
RTVSPost2010Prop41ColorRGB
 90
        0
102
RTVSPost2010PropOp41
 70
     1
102
RTVSPost2010Prop42
 90
       50
102
RTVSPost2010PropOp42
 70
     1
102
RTVSPost2010Prop43
 90
        3
102
RTVSPost2010PropOp43
 70
     1
102
RTVSPost2010Prop44ColorIndex
 90
        5
102
RTVSPost2010Prop44ColorRGB
 90
      255
102
RTVSPost2010PropOp44
 70
     1
102
RTVSPost2010Prop45
280
     0
102
RTVSPost2010PropOp45
 70
     1
102
RTVSPost2010Prop46
 90
       50
102
RTVSPost2010PropOp46
 70
     1
102
RTVSPost2010Prop47
 90
       50
102
RTVSPost2010PropOp47
 70
     1
102
RTVSPost2010Prop48
 90
       50
102
RTVSPost2010PropOp48
 70
     1
102
RTVSPost2010Prop49
280
     0
102
RTVSPost2010PropOp49
 70
     1
102
RTVSPost2010Prop50
 90
       50
102
RTVSPost2010PropOp50
 70
     1
102
RTVSPost2010Prop51ColorIndex
 90
      256
102
RTVSPost2010Prop51ColorRGB
 90
-16777216
102
RTVSPost2010PropOp51
 70
     0
102
RTVSPost2010Prop52
140
1.0
102
RTVSPost2010PropOp52
 70
     0
102
RTVSPost2010Prop53
 90
        2
102
RTVSPost2010PropOp53
 70
     1
102
RTVSPost2010Prop54
  1
strokes_ogs.tif
102
RTVSPost2010PropOp54
 70
     1
102
RTVSPost2010Prop55
280
     0
102
RTVSPost2010PropOp55
 70
     1
102
RTVSPost2010Prop56
140
1.0
102
RTVSPost2010PropOp56
 70
     1
102
RTVSPost2010Prop57
140
1.0
102
RTVSPost2010PropOp57
 70
     1
  0
XRECORD
  5
42F
102
{ACAD_REACTORS
330
42E
102
}
330
42E
100
AcDbXrecord
280
     1
102
RTVSPost2010Prop28
280
     0
102
RTVSPost2010PropOp28
 70
     1
102
RTVSPost2010Prop29
280
     1
102
RTVSPost2010PropOp29
 70
     1
102
RTVSPost2010Prop30
280
     1
102
RTVSPost2010PropOp30
 70
     1
102
RTVSPost2010Prop31
280
     0
102
RTVSPost2010PropOp31
 70
     1
102
RTVSPost2010Prop32
280
     0
102
RTVSPost2010PropOp32
 70
     1
102
RTVSPost2010Prop33
280
     0
102
RTVSPost2010PropOp33
 70
     1
102
RTVSPost2010Prop34
280
     0
102
RTVSPost2010PropOp34
 70
     1
102
RTVSPost2010Prop35
280
     0
102
RTVSPost2010PropOp35
 70
     1
102
RTVSPost2010Prop36
280
     0
102
RTVSPost2010PropOp36
 70
     1
102
RTVSPost2010Prop37
 90
       50
102
RTVSPost2010PropOp37
 70
     1
102
RTVSPost2010Prop38
140
0.0
102
RTVSPost2010PropOp38
 70
     1
102
RTVSPost2010Prop39
140
1.0
102
RTVSPost2010PropOp39
 70
     1
102
RTVSPost2010Prop40
 90
        0
102
RTVSPost2010PropOp40
 70
     1
102
RTVSPost2010Prop41ColorIndex
 90
       18
102
RTVSPost2010Prop41ColorRGB
 90
        0
102
RTVSPost2010PropOp41
 70
     1
102
RTVSPost2010Prop42
 90
       50
102
RTVSPost2010PropOp42
 70
     1
102
RTVSPost2010Prop43
 90
        3
102
RTVSPost2010PropOp43
 70
     1
102
RTVSPost2010Prop44ColorIndex
 90
        5
102
RTVSPost2010Prop44ColorRGB
 90
      255
102
RTVSPost2010PropOp44
 70
     1
102
RTVSPost2010Prop45
280
     0
102
RTVSPost2010PropOp45
 70
     1
102
RTVSPost2010Prop46
 90
       50
102
RTVSPost2010PropOp46
 70
     1
102
RTVSPost2010Prop47
 90
       50
102
RTVSPost2010PropOp47
 70
     1
102
RTVSPost2010Prop48
 90
       50
102
RTVSPost2010PropOp48
 70
     1
102
RTVSPost2010Prop49
280
     0
102
RTVSPost2010PropOp49
 70
     1
102
RTVSPost2010Prop50
 90
       50
102
RTVSPost2010PropOp50
 70
     1
102
RTVSPost2010Prop51ColorIndex
 90
      256
102
RTVSPost2010Prop51ColorRGB
 90
-16777216
102
RTVSPost2010PropOp51
 70
     0
102
RTVSPost2010Prop52
140
1.0
102
RTVSPost2010PropOp52
 70
     0
102
RTVSPost2010Prop53
 90
        2
102
RTVSPost2010PropOp53
 70
     1
102
RTVSPost2010Prop54
  1
strokes_ogs.tif
102
RTVSPost2010PropOp54
 70
     1
102
RTVSPost2010Prop55
280
     0
102
RTVSPost2010PropOp55
 70
     1
102
RTVSPost2010Prop56
140
1.0
102
RTVSPost2010PropOp56
 70
     1
102
RTVSPost2010Prop57
140
1.0
102
RTVSPost2010PropOp57
 70
     1
  0
XRECORD
  5
437
102
{ACAD_REACTORS
330
436
102
}
330
436
100
AcDbXrecord
280
     1
102
RTVSPost2010Prop28
280
     0
102
RTVSPost2010PropOp28
 70
     1
102
RTVSPost2010Prop29
280
     1
102
RTVSPost2010PropOp29
 70
     1
102
RTVSPost2010Prop30
280
     1
102
RTVSPost2010PropOp30
 70
     1
102
RTVSPost2010Prop31
280
     0
102
RTVSPost2010PropOp31
 70
     1
102
RTVSPost2010Prop32
280
     0
102
RTVSPost2010PropOp32
 70
     1
102
RTVSPost2010Prop33
280
     0
102
RTVSPost2010PropOp33
 70
     1
102
RTVSPost2010Prop34
280
     0
102
RTVSPost2010PropOp34
 70
     1
102
RTVSPost2010Prop35
280
     0
102
RTVSPost2010PropOp35
 70
     1
102
RTVSPost2010Prop36
280
     0
102
RTVSPost2010PropOp36
 70
     1
102
RTVSPost2010Prop37
 90
       50
102
RTVSPost2010PropOp37
 70
     1
102
RTVSPost2010Prop38
140
0.0
102
RTVSPost2010PropOp38
 70
     1
102
RTVSPost2010Prop39
140
1.0
102
RTVSPost2010PropOp39
 70
     1
102
RTVSPost2010Prop40
 90
        0
102
RTVSPost2010PropOp40
 70
     1
102
RTVSPost2010Prop41ColorIndex
 90
       18
102
RTVSPost2010Prop41ColorRGB
 90
        0
102
RTVSPost2010PropOp41
 70
     1
102
RTVSPost2010Prop42
 90
       50
102
RTVSPost2010PropOp42
 70
     1
102
RTVSPost2010Prop43
 90
        3
102
RTVSPost2010PropOp43
 70
     1
102
RTVSPost2010Prop44ColorIndex
 90
        5
102
RTVSPost2010Prop44ColorRGB
 90
      255
102
RTVSPost2010PropOp44
 70
     1
102
RTVSPost2010Prop45
280
     0
102
RTVSPost2010PropOp45
 70
     1
102
RTVSPost2010Prop46
 90
       50
102
RTVSPost2010PropOp46
 70
     1
102
RTVSPost2010Prop47
 90
       50
102
RTVSPost2010PropOp47
 70
     1
102
RTVSPost2010Prop48
 90
       50
102
RTVSPost2010PropOp48
 70
     1
102
RTVSPost2010Prop49
280
     0
102
RTVSPost2010PropOp49
 70
     1
102
RTVSPost2010Prop50
 90
       50
102
RTVSPost2010PropOp50
 70
     1
102
RTVSPost2010Prop51ColorIndex
 90
      256
102
RTVSPost2010Prop51ColorRGB
 90
-16777216
102
RTVSPost2010PropOp51
 70
     0
102
RTVSPost2010Prop52
140
1.0
102
RTVSPost2010PropOp52
 70
     0
102
RTVSPost2010Prop53
 90
        2
102
RTVSPost2010PropOp53
 70
     1
102
RTVSPost2010Prop54
  1
strokes_ogs.tif
102
RTVSPost2010PropOp54
 70
     1
102
RTVSPost2010Prop55
280
     0
102
RTVSPost2010PropOp55
 70
     1
102
RTVSPost2010Prop56
140
1.0
102
RTVSPost2010PropOp56
 70
     1
102
RTVSPost2010Prop57
140
1.0
102
RTVSPost2010PropOp57
 70
     1
  0
XRECORD
  5
42B
102
{ACAD_REACTORS
330
42A
102
}
330
42A
100
AcDbXrecord
280
     1
102
RTVSPost2010Prop28
280
     0
102
RTVSPost2010PropOp28
 70
     1
102
RTVSPost2010Prop29
280
     1
102
RTVSPost2010PropOp29
 70
     1
102
RTVSPost2010Prop30
280
     1
102
RTVSPost2010PropOp30
 70
     1
102
RTVSPost2010Prop31
280
     0
102
RTVSPost2010PropOp31
 70
     1
102
RTVSPost2010Prop32
280
     0
102
RTVSPost2010PropOp32
 70
     1
102
RTVSPost2010Prop33
280
     0
102
RTVSPost2010PropOp33
 70
     1
102
RTVSPost2010Prop34
280
     0
102
RTVSPost2010PropOp34
 70
     1
102
RTVSPost2010Prop35
280
     0
102
RTVSPost2010PropOp35
 70
     1
102
RTVSPost2010Prop36
280
     0
102
RTVSPost2010PropOp36
 70
     1
102
RTVSPost2010Prop37
 90
       50
102
RTVSPost2010PropOp37
 70
     1
102
RTVSPost2010Prop38
140
0.0
102
RTVSPost2010PropOp38
 70
     1
102
RTVSPost2010Prop39
140
1.0
102
RTVSPost2010PropOp39
 70
     1
102
RTVSPost2010Prop40
 90
        0
102
RTVSPost2010PropOp40
 70
     1
102
RTVSPost2010Prop41ColorIndex
 90
       18
102
RTVSPost2010Prop41ColorRGB
 90
        0
102
RTVSPost2010PropOp41
 70
     1
102
RTVSPost2010Prop42
 90
       50
102
RTVSPost2010PropOp42
 70
     1
102
RTVSPost2010Prop43
 90
        3
102
RTVSPost2010PropOp43
 70
     1
102
RTVSPost2010Prop44ColorIndex
 90
        5
102
RTVSPost2010Prop44ColorRGB
 90
      255
102
RTVSPost2010PropOp44
 70
     1
102
RTVSPost2010Prop45
280
     0
102
RTVSPost2010PropOp45
 70
     1
102
RTVSPost2010Prop46
 90
       50
102
RTVSPost2010PropOp46
 70
     1
102
RTVSPost2010Prop47
 90
       50
102
RTVSPost2010PropOp47
 70
     1
102
RTVSPost2010Prop48
 90
       50
102
RTVSPost2010PropOp48
 70
     1
102
RTVSPost2010Prop49
280
     0
102
RTVSPost2010PropOp49
 70
     1
102
RTVSPost2010Prop50
 90
       50
102
RTVSPost2010PropOp50
 70
     1
102
RTVSPost2010Prop51ColorIndex
 90
      256
102
RTVSPost2010Prop51ColorRGB
 90
-16777216
102
RTVSPost2010PropOp51
 70
     0
102
RTVSPost2010Prop52
140
1.0
102
RTVSPost2010PropOp52
 70
     0
102
RTVSPost2010Prop53
 90
        2
102
RTVSPost2010PropOp53
 70
     1
102
RTVSPost2010Prop54
  1
strokes_ogs.tif
102
RTVSPost2010PropOp54
 70
     1
102
RTVSPost2010Prop55
280
     0
102
RTVSPost2010PropOp55
 70
     1
102
RTVSPost2010Prop56
140
1.0
102
RTVSPost2010PropOp56
 70
     1
102
RTVSPost2010Prop57
140
1.0
102
RTVSPost2010PropOp57
 70
     1
  0
XRECORD
  5
42D
102
{ACAD_REACTORS
330
42C
102
}
330
42C
100
AcDbXrecord
280
     1
102
RTVSPost2010Prop28
280
     0
102
RTVSPost2010PropOp28
 70
     1
102
RTVSPost2010Prop29
280
     1
102
RTVSPost2010PropOp29
 70
     1
102
RTVSPost2010Prop30
280
     1
102
RTVSPost2010PropOp30
 70
     1
102
RTVSPost2010Prop31
280
     0
102
RTVSPost2010PropOp31
 70
     1
102
RTVSPost2010Prop32
280
     0
102
RTVSPost2010PropOp32
 70
     1
102
RTVSPost2010Prop33
280
     0
102
RTVSPost2010PropOp33
 70
     1
102
RTVSPost2010Prop34
280
     0
102
RTVSPost2010PropOp34
 70
     1
102
RTVSPost2010Prop35
280
     0
102
RTVSPost2010PropOp35
 70
     1
102
RTVSPost2010Prop36
280
     0
102
RTVSPost2010PropOp36
 70
     1
102
RTVSPost2010Prop37
 90
       50
102
RTVSPost2010PropOp37
 70
     1
102
RTVSPost2010Prop38
140
0.0
102
RTVSPost2010PropOp38
 70
     1
102
RTVSPost2010Prop39
140
1.0
102
RTVSPost2010PropOp39
 70
     1
102
RTVSPost2010Prop40
 90
        0
102
RTVSPost2010PropOp40
 70
     1
102
RTVSPost2010Prop41ColorIndex
 90
       18
102
RTVSPost2010Prop41ColorRGB
 90
        0
102
RTVSPost2010PropOp41
 70
     1
102
RTVSPost2010Prop42
 90
       50
102
RTVSPost2010PropOp42
 70
     1
102
RTVSPost2010Prop43
 90
        3
102
RTVSPost2010PropOp43
 70
     1
102
RTVSPost2010Prop44ColorIndex
 90
        5
102
RTVSPost2010Prop44ColorRGB
 90
      255
102
RTVSPost2010PropOp44
 70
     1
102
RTVSPost2010Prop45
280
     0
102
RTVSPost2010PropOp45
 70
     1
102
RTVSPost2010Prop46
 90
       50
102
RTVSPost2010PropOp46
 70
     1
102
RTVSPost2010Prop47
 90
       50
102
RTVSPost2010PropOp47
 70
     1
102
RTVSPost2010Prop48
 90
       50
102
RTVSPost2010PropOp48
 70
     1
102
RTVSPost2010Prop49
280
     0
102
RTVSPost2010PropOp49
 70
     1
102
RTVSPost2010Prop50
 90
       50
102
RTVSPost2010PropOp50
 70
     1
102
RTVSPost2010Prop51ColorIndex
 90
      256
102
RTVSPost2010Prop51ColorRGB
 90
-16777216
102
RTVSPost2010PropOp51
 70
     0
102
RTVSPost2010Prop52
140
1.0
102
RTVSPost2010PropOp52
 70
     0
102
RTVSPost2010Prop53
 90
        2
102
RTVSPost2010PropOp53
 70
     1
102
RTVSPost2010Prop54
  1
strokes_ogs.tif
102
RTVSPost2010PropOp54
 70
     1
102
RTVSPost2010Prop55
280
     0
102
RTVSPost2010PropOp55
 70
     1
102
RTVSPost2010Prop56
140
1.0
102
RTVSPost2010PropOp56
 70
     1
102
RTVSPost2010Prop57
140
1.0
102
RTVSPost2010PropOp57
 70
     1
  0
XRECORD
  5
43D
102
{ACAD_REACTORS
330
43C
102
}
330
43C
100
AcDbXrecord
280
     1
102
RTVSPost2010Prop28
280
     0
102
RTVSPost2010PropOp28
 70
     0
102
RTVSPost2010Prop29
280
     1
102
RTVSPost2010PropOp29
 70
     0
102
RTVSPost2010Prop30
280
     1
102
RTVSPost2010PropOp30
 70
     0
102
RTVSPost2010Prop31
280
     0
102
RTVSPost2010PropOp31
 70
     0
102
RTVSPost2010Prop32
280
     0
102
RTVSPost2010PropOp32
 70
     0
102
RTVSPost2010Prop33
280
     0
102
RTVSPost2010PropOp33
 70
     0
102
RTVSPost2010Prop34
280
     0
102
RTVSPost2010PropOp34
 70
     0
102
RTVSPost2010Prop35
280
     0
102
RTVSPost2010PropOp35
 70
     0
102
RTVSPost2010Prop36
280
     0
102
RTVSPost2010PropOp36
 70
     0
102
RTVSPost2010Prop37
 90
       50
102
RTVSPost2010PropOp37
 70
     0
102
RTVSPost2010Prop38
140
0.0
102
RTVSPost2010PropOp38
 70
     0
102
RTVSPost2010Prop39
140
1.0
102
RTVSPost2010PropOp39
 70
     0
102
RTVSPost2010Prop40
 90
        0
102
RTVSPost2010PropOp40
 70
     0
102
RTVSPost2010Prop41ColorIndex
 90
       18
102
RTVSPost2010Prop41ColorRGB
 90
        0
102
RTVSPost2010PropOp41
 70
     0
102
RTVSPost2010Prop42
 90
       50
102
RTVSPost2010PropOp42
 70
     0
102
RTVSPost2010Prop43
 90
        3
102
RTVSPost2010PropOp43
 70
     0
102
RTVSPost2010Prop44ColorIndex
 90
        5
102
RTVSPost2010Prop44ColorRGB
 90
      255
102
RTVSPost2010PropOp44
 70
     0
102
RTVSPost2010Prop45
280
     0
102
RTVSPost2010PropOp45
 70
     0
102
RTVSPost2010Prop46
 90
       50
102
RTVSPost2010PropOp46
 70
     0
102
RTVSPost2010Prop47
 90
       50
102
RTVSPost2010PropOp47
 70
     0
102
RTVSPost2010Prop48
 90
       50
102
RTVSPost2010PropOp48
 70
     0
102
RTVSPost2010Prop49
280
     0
102
RTVSPost2010PropOp49
 70
     0
102
RTVSPost2010Prop50
 90
       50
102
RTVSPost2010PropOp50
 70
     0
102
RTVSPost2010Prop51ColorIndex
 90
      256
102
RTVSPost2010Prop51ColorRGB
 90
-16777216
102
RTVSPost2010PropOp51
 70
     0
102
RTVSPost2010Prop52
140
1.0
102
RTVSPost2010PropOp52
 70
     0
102
RTVSPost2010Prop53
 90
        2
102
RTVSPost2010PropOp53
 70
     0
102
RTVSPost2010Prop54
  1
strokes_ogs.tif
102
RTVSPost2010PropOp54
 70
     0
102
RTVSPost2010Prop55
280
     0
102
RTVSPost2010PropOp55
 70
     0
102
RTVSPost2010Prop56
140
1.0
102
RTVSPost2010PropOp56
 70
     0
102
RTVSPost2010Prop57
140
1.0
102
RTVSPost2010PropOp57
 70
     0
  0
XRECORD
  5
435
102
{ACAD_REACTORS
330
434
102
}
330
434
100
AcDbXrecord
280
     1
102
RTVSPost2010Prop28
280
     0
102
RTVSPost2010PropOp28
 70
     1
102
RTVSPost2010Prop29
280
     1
102
RTVSPost2010PropOp29
 70
     1
102
RTVSPost2010Prop30
280
     1
102
RTVSPost2010PropOp30
 70
     1
102
RTVSPost2010Prop31
280
     0
102
RTVSPost2010PropOp31
 70
     1
102
RTVSPost2010Prop32
280
     0
102
RTVSPost2010PropOp32
 70
     1
102
RTVSPost2010Prop33
280
     0
102
RTVSPost2010PropOp33
 70
     1
102
RTVSPost2010Prop34
280
     0
102
RTVSPost2010PropOp34
 70
     1
102
RTVSPost2010Prop35
280
     0
102
RTVSPost2010PropOp35
 70
     1
102
RTVSPost2010Prop36
280
     0
102
RTVSPost2010PropOp36
 70
     1
102
RTVSPost2010Prop37
 90
       50
102
RTVSPost2010PropOp37
 70
     1
102
RTVSPost2010Prop38
140
0.0
102
RTVSPost2010PropOp38
 70
     1
102
RTVSPost2010Prop39
140
1.0
102
RTVSPost2010PropOp39
 70
     1
102
RTVSPost2010Prop40
 90
        0
102
RTVSPost2010PropOp40
 70
     1
102
RTVSPost2010Prop41ColorIndex
 90
       18
102
RTVSPost2010Prop41ColorRGB
 90
        0
102
RTVSPost2010PropOp41
 70
     1
102
RTVSPost2010Prop42
 90
       50
102
RTVSPost2010PropOp42
 70
     1
102
RTVSPost2010Prop43
 90
        3
102
RTVSPost2010PropOp43
 70
     1
102
RTVSPost2010Prop44ColorIndex
 90
        5
102
RTVSPost2010Prop44ColorRGB
 90
      255
102
RTVSPost2010PropOp44
 70
     1
102
RTVSPost2010Prop45
280
     0
102
RTVSPost2010PropOp45
 70
     1
102
RTVSPost2010Prop46
 90
       50
102
RTVSPost2010PropOp46
 70
     1
102
RTVSPost2010Prop47
 90
       50
102
RTVSPost2010PropOp47
 70
     1
102
RTVSPost2010Prop48
 90
       50
102
RTVSPost2010PropOp48
 70
     1
102
RTVSPost2010Prop49
280
     0
102
RTVSPost2010PropOp49
 70
     1
102
RTVSPost2010Prop50
 90
       50
102
RTVSPost2010PropOp50
 70
     1
102
RTVSPost2010Prop51ColorIndex
 90
      256
102
RTVSPost2010Prop51ColorRGB
 90
-16777216
102
RTVSPost2010PropOp51
 70
     0
102
RTVSPost2010Prop52
140
1.0
102
RTVSPost2010PropOp52
 70
     0
102
RTVSPost2010Prop53
 90
        2
102
RTVSPost2010PropOp53
 70
     1
102
RTVSPost2010Prop54
  1
strokes_ogs.tif
102
RTVSPost2010PropOp54
 70
     1
102
RTVSPost2010Prop55
280
     0
102
RTVSPost2010PropOp55
 70
     1
102
RTVSPost2010Prop56
140
1.0
102
RTVSPost2010PropOp56
 70
     1
102
RTVSPost2010Prop57
140
1.0
102
RTVSPost2010PropOp57
 70
     1
  0
XRECORD
  5
419
102
{ACAD_REACTORS
330
418
102
}
330
418
100
AcDbXrecord
280
     1
102
RTVSPost2010Prop28
280
     0
102
RTVSPost2010PropOp28
 70
     1
102
RTVSPost2010Prop29
280
     1
102
RTVSPost2010PropOp29
 70
     1
102
RTVSPost2010Prop30
280
     1
102
RTVSPost2010PropOp30
 70
     1
102
RTVSPost2010Prop31
280
     0
102
RTVSPost2010PropOp31
 70
     1
102
RTVSPost2010Prop32
280
     0
102
RTVSPost2010PropOp32
 70
     1
102
RTVSPost2010Prop33
280
     0
102
RTVSPost2010PropOp33
 70
     1
102
RTVSPost2010Prop34
280
     0
102
RTVSPost2010PropOp34
 70
     1
102
RTVSPost2010Prop35
280
     0
102
RTVSPost2010PropOp35
 70
     1
102
RTVSPost2010Prop36
280
     0
102
RTVSPost2010PropOp36
 70
     1
102
RTVSPost2010Prop37
 90
       50
102
RTVSPost2010PropOp37
 70
     1
102
RTVSPost2010Prop38
140
0.0
102
RTVSPost2010PropOp38
 70
     1
102
RTVSPost2010Prop39
140
1.0
102
RTVSPost2010PropOp39
 70
     1
102
RTVSPost2010Prop40
 90
        0
102
RTVSPost2010PropOp40
 70
     1
102
RTVSPost2010Prop41ColorIndex
 90
       18
102
RTVSPost2010Prop41ColorRGB
 90
        0
102
RTVSPost2010PropOp41
 70
     1
102
RTVSPost2010Prop42
 90
       50
102
RTVSPost2010PropOp42
 70
     1
102
RTVSPost2010Prop43
 90
        3
102
RTVSPost2010PropOp43
 70
     1
102
RTVSPost2010Prop44ColorIndex
 90
        5
102
RTVSPost2010Prop44ColorRGB
 90
      255
102
RTVSPost2010PropOp44
 70
     1
102
RTVSPost2010Prop45
280
     0
102
RTVSPost2010PropOp45
 70
     1
102
RTVSPost2010Prop46
 90
       50
102
RTVSPost2010PropOp46
 70
     1
102
RTVSPost2010Prop47
 90
       50
102
RTVSPost2010PropOp47
 70
     1
102
RTVSPost2010Prop48
 90
       50
102
RTVSPost2010PropOp48
 70
     1
102
RTVSPost2010Prop49
280
     0
102
RTVSPost2010PropOp49
 70
     1
102
RTVSPost2010Prop50
 90
       50
102
RTVSPost2010PropOp50
 70
     1
102
RTVSPost2010Prop51ColorIndex
 90
      256
102
RTVSPost2010Prop51ColorRGB
 90
-16777216
102
RTVSPost2010PropOp51
 70
     0
102
RTVSPost2010Prop52
140
1.0
102
RTVSPost2010PropOp52
 70
     0
102
RTVSPost2010Prop53
 90
        2
102
RTVSPost2010PropOp53
 70
     1
102
RTVSPost2010Prop54
  1
strokes_ogs.tif
102
RTVSPost2010PropOp54
 70
     1
102
RTVSPost2010Prop55
280
     0
102
RTVSPost2010PropOp55
 70
     1
102
RTVSPost2010Prop56
140
1.0
102
RTVSPost2010PropOp56
 70
     1
102
RTVSPost2010Prop57
140
1.0
102
RTVSPost2010PropOp57
 70
     1
  0
XRECORD
  5
41B
102
{ACAD_REACTORS
330
41A
102
}
330
41A
100
AcDbXrecord
280
     1
102
RTVSPost2010Prop28
280
     0
102
RTVSPost2010PropOp28
 70
     1
102
RTVSPost2010Prop29
280
     1
102
RTVSPost2010PropOp29
 70
     1
102
RTVSPost2010Prop30
280
     1
102
RTVSPost2010PropOp30
 70
     1
102
RTVSPost2010Prop31
280
     0
102
RTVSPost2010PropOp31
 70
     1
102
RTVSPost2010Prop32
280
     0
102
RTVSPost2010PropOp32
 70
     1
102
RTVSPost2010Prop33
280
     0
102
RTVSPost2010PropOp33
 70
     1
102
RTVSPost2010Prop34
280
     0
102
RTVSPost2010PropOp34
 70
     1
102
RTVSPost2010Prop35
280
     0
102
RTVSPost2010PropOp35
 70
     1
102
RTVSPost2010Prop36
280
     0
102
RTVSPost2010PropOp36
 70
     1
102
RTVSPost2010Prop37
 90
       50
102
RTVSPost2010PropOp37
 70
     1
102
RTVSPost2010Prop38
140
0.0
102
RTVSPost2010PropOp38
 70
     1
102
RTVSPost2010Prop39
140
1.0
102
RTVSPost2010PropOp39
 70
     1
102
RTVSPost2010Prop40
 90
        0
102
RTVSPost2010PropOp40
 70
     1
102
RTVSPost2010Prop41ColorIndex
 90
       18
102
RTVSPost2010Prop41ColorRGB
 90
        0
102
RTVSPost2010PropOp41
 70
     1
102
RTVSPost2010Prop42
 90
       50
102
RTVSPost2010PropOp42
 70
     1
102
RTVSPost2010Prop43
 90
        3
102
RTVSPost2010PropOp43
 70
     1
102
RTVSPost2010Prop44ColorIndex
 90
        5
102
RTVSPost2010Prop44ColorRGB
 90
      255
102
RTVSPost2010PropOp44
 70
     1
102
RTVSPost2010Prop45
280
     0
102
RTVSPost2010PropOp45
 70
     1
102
RTVSPost2010Prop46
 90
       50
102
RTVSPost2010PropOp46
 70
     1
102
RTVSPost2010Prop47
 90
       50
102
RTVSPost2010PropOp47
 70
     1
102
RTVSPost2010Prop48
 90
       50
102
RTVSPost2010PropOp48
 70
     1
102
RTVSPost2010Prop49
280
     0
102
RTVSPost2010PropOp49
 70
     1
102
RTVSPost2010Prop50
 90
       50
102
RTVSPost2010PropOp50
 70
     1
102
RTVSPost2010Prop51ColorIndex
 90
      256
102
RTVSPost2010Prop51ColorRGB
 90
-16777216
102
RTVSPost2010PropOp51
 70
     0
102
RTVSPost2010Prop52
140
1.0
102
RTVSPost2010PropOp52
 70
     0
102
RTVSPost2010Prop53
 90
        2
102
RTVSPost2010PropOp53
 70
     1
102
RTVSPost2010Prop54
  1
strokes_ogs.tif
102
RTVSPost2010PropOp54
 70
     1
102
RTVSPost2010Prop55
280
     0
102
RTVSPost2010PropOp55
 70
     1
102
RTVSPost2010Prop56
140
1.0
102
RTVSPost2010PropOp56
 70
     1
102
RTVSPost2010Prop57
140
1.0
102
RTVSPost2010PropOp57
 70
     1
  0
XRECORD
  5
41D
102
{ACAD_REACTORS
330
41C
102
}
330
41C
100
AcDbXrecord
280
     1
102
RTVSPost2010Prop28
280
     0
102
RTVSPost2010PropOp28
 70
     1
102
RTVSPost2010Prop29
280
     1
102
RTVSPost2010PropOp29
 70
     1
102
RTVSPost2010Prop30
280
     1
102
RTVSPost2010PropOp30
 70
     1
102
RTVSPost2010Prop31
280
     0
102
RTVSPost2010PropOp31
 70
     1
102
RTVSPost2010Prop32
280
     0
102
RTVSPost2010PropOp32
 70
     1
102
RTVSPost2010Prop33
280
     0
102
RTVSPost2010PropOp33
 70
     1
102
RTVSPost2010Prop34
280
     0
102
RTVSPost2010PropOp34
 70
     1
102
RTVSPost2010Prop35
280
     0
102
RTVSPost2010PropOp35
 70
     1
102
RTVSPost2010Prop36
280
     0
102
RTVSPost2010PropOp36
 70
     1
102
RTVSPost2010Prop37
 90
       50
102
RTVSPost2010PropOp37
 70
     1
102
RTVSPost2010Prop38
140
0.0
102
RTVSPost2010PropOp38
 70
     1
102
RTVSPost2010Prop39
140
1.0
102
RTVSPost2010PropOp39
 70
     1
102
RTVSPost2010Prop40
 90
        0
102
RTVSPost2010PropOp40
 70
     1
102
RTVSPost2010Prop41ColorIndex
 90
       18
102
RTVSPost2010Prop41ColorRGB
 90
        0
102
RTVSPost2010PropOp41
 70
     1
102
RTVSPost2010Prop42
 90
       50
102
RTVSPost2010PropOp42
 70
     1
102
RTVSPost2010Prop43
 90
        3
102
RTVSPost2010PropOp43
 70
     1
102
RTVSPost2010Prop44ColorIndex
 90
        5
102
RTVSPost2010Prop44ColorRGB
 90
      255
102
RTVSPost2010PropOp44
 70
     1
102
RTVSPost2010Prop45
280
     0
102
RTVSPost2010PropOp45
 70
     1
102
RTVSPost2010Prop46
 90
       50
102
RTVSPost2010PropOp46
 70
     1
102
RTVSPost2010Prop47
 90
       50
102
RTVSPost2010PropOp47
 70
     1
102
RTVSPost2010Prop48
 90
       50
102
RTVSPost2010PropOp48
 70
     1
102
RTVSPost2010Prop49
280
     0
102
RTVSPost2010PropOp49
 70
     1
102
RTVSPost2010Prop50
 90
       50
102
RTVSPost2010PropOp50
 70
     1
102
RTVSPost2010Prop51ColorIndex
 90
      256
102
RTVSPost2010Prop51ColorRGB
 90
-16777216
102
RTVSPost2010PropOp51
 70
     0
102
RTVSPost2010Prop52
140
1.0
102
RTVSPost2010PropOp52
 70
     0
102
RTVSPost2010Prop53
 90
        2
102
RTVSPost2010PropOp53
 70
     1
102
RTVSPost2010Prop54
  1
strokes_ogs.tif
102
RTVSPost2010PropOp54
 70
     1
102
RTVSPost2010Prop55
280
     0
102
RTVSPost2010PropOp55
 70
     1
102
RTVSPost2010Prop56
140
1.0
102
RTVSPost2010PropOp56
 70
     1
102
RTVSPost2010Prop57
140
1.0
102
RTVSPost2010PropOp57
 70
     1
  0
XRECORD
  5
41F
102
{ACAD_REACTORS
330
41E
102
}
330
41E
100
AcDbXrecord
280
     1
102
RTVSPost2010Prop28
280
     0
102
RTVSPost2010PropOp28
 70
     1
102
RTVSPost2010Prop29
280
     1
102
RTVSPost2010PropOp29
 70
     1
102
RTVSPost2010Prop30
280
     1
102
RTVSPost2010PropOp30
 70
     1
102
RTVSPost2010Prop31
280
     0
102
RTVSPost2010PropOp31
 70
     1
102
RTVSPost2010Prop32
280
     0
102
RTVSPost2010PropOp32
 70
     1
102
RTVSPost2010Prop33
280
     0
102
RTVSPost2010PropOp33
 70
     1
102
RTVSPost2010Prop34
280
     0
102
RTVSPost2010PropOp34
 70
     1
102
RTVSPost2010Prop35
280
     0
102
RTVSPost2010PropOp35
 70
     1
102
RTVSPost2010Prop36
280
     0
102
RTVSPost2010PropOp36
 70
     1
102
RTVSPost2010Prop37
 90
       50
102
RTVSPost2010PropOp37
 70
     1
102
RTVSPost2010Prop38
140
0.0
102
RTVSPost2010PropOp38
 70
     1
102
RTVSPost2010Prop39
140
1.0
102
RTVSPost2010PropOp39
 70
     1
102
RTVSPost2010Prop40
 90
        0
102
RTVSPost2010PropOp40
 70
     1
102
RTVSPost2010Prop41ColorIndex
 90
       18
102
RTVSPost2010Prop41ColorRGB
 90
        0
102
RTVSPost2010PropOp41
 70
     1
102
RTVSPost2010Prop42
 90
       50
102
RTVSPost2010PropOp42
 70
     1
102
RTVSPost2010Prop43
 90
        3
102
RTVSPost2010PropOp43
 70
     1
102
RTVSPost2010Prop44ColorIndex
 90
        5
102
RTVSPost2010Prop44ColorRGB
 90
      255
102
RTVSPost2010PropOp44
 70
     1
102
RTVSPost2010Prop45
280
     0
102
RTVSPost2010PropOp45
 70
     1
102
RTVSPost2010Prop46
 90
       50
102
RTVSPost2010PropOp46
 70
     1
102
RTVSPost2010Prop47
 90
       50
102
RTVSPost2010PropOp47
 70
     1
102
RTVSPost2010Prop48
 90
       50
102
RTVSPost2010PropOp48
 70
     1
102
RTVSPost2010Prop49
280
     0
102
RTVSPost2010PropOp49
 70
     1
102
RTVSPost2010Prop50
 90
       50
102
RTVSPost2010PropOp50
 70
     1
102
RTVSPost2010Prop51ColorIndex
 90
      256
102
RTVSPost2010Prop51ColorRGB
 90
-16777216
102
RTVSPost2010PropOp51
 70
     0
102
RTVSPost2010Prop52
140
1.0
102
RTVSPost2010PropOp52
 70
     0
102
RTVSPost2010Prop53
 90
        2
102
RTVSPost2010PropOp53
 70
     1
102
RTVSPost2010Prop54
  1
strokes_ogs.tif
102
RTVSPost2010PropOp54
 70
     1
102
RTVSPost2010Prop55
280
     0
102
RTVSPost2010PropOp55
 70
     1
102
RTVSPost2010Prop56
140
1.0
102
RTVSPost2010PropOp56
 70
     1
102
RTVSPost2010Prop57
140
1.0
102
RTVSPost2010PropOp57
 70
     1
  0
XRECORD
  5
425
102
{ACAD_REACTORS
330
424
102
}
330
424
100
AcDbXrecord
280
     1
102
RTVSPost2010Prop28
280
     0
102
RTVSPost2010PropOp28
 70
     1
102
RTVSPost2010Prop29
280
     1
102
RTVSPost2010PropOp29
 70
     1
102
RTVSPost2010Prop30
280
     1
102
RTVSPost2010PropOp30
 70
     1
102
RTVSPost2010Prop31
280
     0
102
RTVSPost2010PropOp31
 70
     1
102
RTVSPost2010Prop32
280
     0
102
RTVSPost2010PropOp32
 70
     1
102
RTVSPost2010Prop33
280
     0
102
RTVSPost2010PropOp33
 70
     1
102
RTVSPost2010Prop34
280
     0
102
RTVSPost2010PropOp34
 70
     1
102
RTVSPost2010Prop35
280
     0
102
RTVSPost2010PropOp35
 70
     1
102
RTVSPost2010Prop36
280
     0
102
RTVSPost2010PropOp36
 70
     1
102
RTVSPost2010Prop37
 90
       50
102
RTVSPost2010PropOp37
 70
     1
102
RTVSPost2010Prop38
140
0.0
102
RTVSPost2010PropOp38
 70
     1
102
RTVSPost2010Prop39
140
1.0
102
RTVSPost2010PropOp39
 70
     1
102
RTVSPost2010Prop40
 90
        0
102
RTVSPost2010PropOp40
 70
     1
102
RTVSPost2010Prop41ColorIndex
 90
       18
102
RTVSPost2010Prop41ColorRGB
 90
        0
102
RTVSPost2010PropOp41
 70
     1
102
RTVSPost2010Prop42
 90
       50
102
RTVSPost2010PropOp42
 70
     1
102
RTVSPost2010Prop43
 90
        3
102
RTVSPost2010PropOp43
 70
     1
102
RTVSPost2010Prop44ColorIndex
 90
        5
102
RTVSPost2010Prop44ColorRGB
 90
      255
102
RTVSPost2010PropOp44
 70
     1
102
RTVSPost2010Prop45
280
     0
102
RTVSPost2010PropOp45
 70
     1
102
RTVSPost2010Prop46
 90
       50
102
RTVSPost2010PropOp46
 70
     1
102
RTVSPost2010Prop47
 90
       50
102
RTVSPost2010PropOp47
 70
     1
102
RTVSPost2010Prop48
 90
       50
102
RTVSPost2010PropOp48
 70
     1
102
RTVSPost2010Prop49
280
     0
102
RTVSPost2010PropOp49
 70
     1
102
RTVSPost2010Prop50
 90
       50
102
RTVSPost2010PropOp50
 70
     1
102
RTVSPost2010Prop51ColorIndex
 90
      256
102
RTVSPost2010Prop51ColorRGB
 90
-16777216
102
RTVSPost2010PropOp51
 70
     0
102
RTVSPost2010Prop52
140
1.0
102
RTVSPost2010PropOp52
 70
     0
102
RTVSPost2010Prop53
 90
        2
102
RTVSPost2010PropOp53
 70
     1
102
RTVSPost2010Prop54
  1
strokes_ogs.tif
102
RTVSPost2010PropOp54
 70
     1
102
RTVSPost2010Prop55
280
     0
102
RTVSPost2010PropOp55
 70
     1
102
RTVSPost2010Prop56
140
1.0
102
RTVSPost2010PropOp56
 70
     1
102
RTVSPost2010Prop57
140
1.0
102
RTVSPost2010PropOp57
 70
     1
  0
XRECORD
  5
439
102
{ACAD_REACTORS
330
438
102
}
330
438
100
AcDbXrecord
280
     1
102
RTVSPost2010Prop28
280
     0
102
RTVSPost2010PropOp28
 70
     0
102
RTVSPost2010Prop29
280
     1
102
RTVSPost2010PropOp29
 70
     0
102
RTVSPost2010Prop30
280
     1
102
RTVSPost2010PropOp30
 70
     0
102
RTVSPost2010Prop31
280
     0
102
RTVSPost2010PropOp31
 70
     0
102
RTVSPost2010Prop32
280
     0
102
RTVSPost2010PropOp32
 70
     0
102
RTVSPost2010Prop33
280
     0
102
RTVSPost2010PropOp33
 70
     0
102
RTVSPost2010Prop34
280
     0
102
RTVSPost2010PropOp34
 70
     0
102
RTVSPost2010Prop35
280
     0
102
RTVSPost2010PropOp35
 70
     0
102
RTVSPost2010Prop36
280
     0
102
RTVSPost2010PropOp36
 70
     0
102
RTVSPost2010Prop37
 90
       50
102
RTVSPost2010PropOp37
 70
     0
102
RTVSPost2010Prop38
140
0.0
102
RTVSPost2010PropOp38
 70
     0
102
RTVSPost2010Prop39
140
1.0
102
RTVSPost2010PropOp39
 70
     0
102
RTVSPost2010Prop40
 90
        0
102
RTVSPost2010PropOp40
 70
     0
102
RTVSPost2010Prop41ColorIndex
 90
       18
102
RTVSPost2010Prop41ColorRGB
 90
        0
102
RTVSPost2010PropOp41
 70
     0
102
RTVSPost2010Prop42
 90
       50
102
RTVSPost2010PropOp42
 70
     0
102
RTVSPost2010Prop43
 90
        3
102
RTVSPost2010PropOp43
 70
     0
102
RTVSPost2010Prop44ColorIndex
 90
        5
102
RTVSPost2010Prop44ColorRGB
 90
      255
102
RTVSPost2010PropOp44
 70
     0
102
RTVSPost2010Prop45
280
     0
102
RTVSPost2010PropOp45
 70
     0
102
RTVSPost2010Prop46
 90
       50
102
RTVSPost2010PropOp46
 70
     0
102
RTVSPost2010Prop47
 90
       50
102
RTVSPost2010PropOp47
 70
     0
102
RTVSPost2010Prop48
 90
       50
102
RTVSPost2010PropOp48
 70
     0
102
RTVSPost2010Prop49
280
     0
102
RTVSPost2010PropOp49
 70
     0
102
RTVSPost2010Prop50
 90
       50
102
RTVSPost2010PropOp50
 70
     0
102
RTVSPost2010Prop51ColorIndex
 90
      256
102
RTVSPost2010Prop51ColorRGB
 90
-16777216
102
RTVSPost2010PropOp51
 70
     0
102
RTVSPost2010Prop52
140
1.0
102
RTVSPost2010PropOp52
 70
     0
102
RTVSPost2010Prop53
 90
        2
102
RTVSPost2010PropOp53
 70
     0
102
RTVSPost2010Prop54
  1
strokes_ogs.tif
102
RTVSPost2010PropOp54
 70
     0
102
RTVSPost2010Prop55
280
     0
102
RTVSPost2010PropOp55
 70
     0
102
RTVSPost2010Prop56
140
1.0
102
RTVSPost2010PropOp56
 70
     0
102
RTVSPost2010Prop57
140
1.0
102
RTVSPost2010PropOp57
 70
     0
  0
XRECORD
  5
433
102
{ACAD_REACTORS
330
432
102
}
330
432
100
AcDbXrecord
280
     1
102
RTVSPost2010Prop28
280
     0
102
RTVSPost2010PropOp28
 70
     1
102
RTVSPost2010Prop29
280
     1
102
RTVSPost2010PropOp29
 70
     1
102
RTVSPost2010Prop30
280
     1
102
RTVSPost2010PropOp30
 70
     1
102
RTVSPost2010Prop31
280
     0
102
RTVSPost2010PropOp31
 70
     1
102
RTVSPost2010Prop32
280
     0
102
RTVSPost2010PropOp32
 70
     1
102
RTVSPost2010Prop33
280
     0
102
RTVSPost2010PropOp33
 70
     1
102
RTVSPost2010Prop34
280
     0
102
RTVSPost2010PropOp34
 70
     1
102
RTVSPost2010Prop35
280
     0
102
RTVSPost2010PropOp35
 70
     1
102
RTVSPost2010Prop36
280
     0
102
RTVSPost2010PropOp36
 70
     1
102
RTVSPost2010Prop37
 90
       50
102
RTVSPost2010PropOp37
 70
     1
102
RTVSPost2010Prop38
140
0.0
102
RTVSPost2010PropOp38
 70
     1
102
RTVSPost2010Prop39
140
1.0
102
RTVSPost2010PropOp39
 70
     1
102
RTVSPost2010Prop40
 90
        0
102
RTVSPost2010PropOp40
 70
     1
102
RTVSPost2010Prop41ColorIndex
 90
       18
102
RTVSPost2010Prop41ColorRGB
 90
        0
102
RTVSPost2010PropOp41
 70
     1
102
RTVSPost2010Prop42
 90
       50
102
RTVSPost2010PropOp42
 70
     1
102
RTVSPost2010Prop43
 90
        3
102
RTVSPost2010PropOp43
 70
     1
102
RTVSPost2010Prop44ColorIndex
 90
        5
102
RTVSPost2010Prop44ColorRGB
 90
      255
102
RTVSPost2010PropOp44
 70
     1
102
RTVSPost2010Prop45
280
     0
102
RTVSPost2010PropOp45
 70
     1
102
RTVSPost2010Prop46
 90
       50
102
RTVSPost2010PropOp46
 70
     1
102
RTVSPost2010Prop47
 90
       50
102
RTVSPost2010PropOp47
 70
     1
102
RTVSPost2010Prop48
 90
       50
102
RTVSPost2010PropOp48
 70
     1
102
RTVSPost2010Prop49
280
     0
102
RTVSPost2010PropOp49
 70
     1
102
RTVSPost2010Prop50
 90
       50
102
RTVSPost2010PropOp50
 70
     1
102
RTVSPost2010Prop51ColorIndex
 90
      256
102
RTVSPost2010Prop51ColorRGB
 90
-16777216
102
RTVSPost2010PropOp51
 70
     0
102
RTVSPost2010Prop52
140
1.0
102
RTVSPost2010PropOp52
 70
     0
102
RTVSPost2010Prop53
 90
        2
102
RTVSPost2010PropOp53
 70
     1
102
RTVSPost2010Prop54
  1
strokes_ogs.tif
102
RTVSPost2010PropOp54
 70
     1
102
RTVSPost2010Prop55
280
     0
102
RTVSPost2010PropOp55
 70
     1
102
RTVSPost2010Prop56
140
1.0
102
RTVSPost2010PropOp56
 70
     1
102
RTVSPost2010Prop57
140
1.0
102
RTVSPost2010PropOp57
 70
     1
  0
XRECORD
  5
43B
102
{ACAD_REACTORS
330
43A
102
}
330
43A
100
AcDbXrecord
280
     1
102
RTVSPost2010Prop28
280
     0
102
RTVSPost2010PropOp28
 70
     0
102
RTVSPost2010Prop29
280
     1
102
RTVSPost2010PropOp29
 70
     0
102
RTVSPost2010Prop30
280
     1
102
RTVSPost2010PropOp30
 70
     0
102
RTVSPost2010Prop31
280
     0
102
RTVSPost2010PropOp31
 70
     0
102
RTVSPost2010Prop32
280
     0
102
RTVSPost2010PropOp32
 70
     0
102
RTVSPost2010Prop33
280
     0
102
RTVSPost2010PropOp33
 70
     0
102
RTVSPost2010Prop34
280
     0
102
RTVSPost2010PropOp34
 70
     0
102
RTVSPost2010Prop35
280
     0
102
RTVSPost2010PropOp35
 70
     0
102
RTVSPost2010Prop36
280
     0
102
RTVSPost2010PropOp36
 70
     0
102
RTVSPost2010Prop37
 90
       50
102
RTVSPost2010PropOp37
 70
     0
102
RTVSPost2010Prop38
140
0.0
102
RTVSPost2010PropOp38
 70
     0
102
RTVSPost2010Prop39
140
1.0
102
RTVSPost2010PropOp39
 70
     0
102
RTVSPost2010Prop40
 90
        0
102
RTVSPost2010PropOp40
 70
     0
102
RTVSPost2010Prop41ColorIndex
 90
       18
102
RTVSPost2010Prop41ColorRGB
 90
        0
102
RTVSPost2010PropOp41
 70
     0
102
RTVSPost2010Prop42
 90
       50
102
RTVSPost2010PropOp42
 70
     0
102
RTVSPost2010Prop43
 90
        3
102
RTVSPost2010PropOp43
 70
     0
102
RTVSPost2010Prop44ColorIndex
 90
        5
102
RTVSPost2010Prop44ColorRGB
 90
      255
102
RTVSPost2010PropOp44
 70
     0
102
RTVSPost2010Prop45
280
     0
102
RTVSPost2010PropOp45
 70
     0
102
RTVSPost2010Prop46
 90
       50
102
RTVSPost2010PropOp46
 70
     0
102
RTVSPost2010Prop47
 90
       50
102
RTVSPost2010PropOp47
 70
     0
102
RTVSPost2010Prop48
 90
       50
102
RTVSPost2010PropOp48
 70
     0
102
RTVSPost2010Prop49
280
     0
102
RTVSPost2010PropOp49
 70
     0
102
RTVSPost2010Prop50
 90
       50
102
RTVSPost2010PropOp50
 70
     0
102
RTVSPost2010Prop51ColorIndex
 90
      256
102
RTVSPost2010Prop51ColorRGB
 90
-16777216
102
RTVSPost2010PropOp51
 70
     0
102
RTVSPost2010Prop52
140
1.0
102
RTVSPost2010PropOp52
 70
     0
102
RTVSPost2010Prop53
 90
        2
102
RTVSPost2010PropOp53
 70
     0
102
RTVSPost2010Prop54
  1
strokes_ogs.tif
102
RTVSPost2010PropOp54
 70
     0
102
RTVSPost2010Prop55
280
     0
102
RTVSPost2010PropOp55
 70
     0
102
RTVSPost2010Prop56
140
1.0
102
RTVSPost2010PropOp56
 70
     0
102
RTVSPost2010Prop57
140
1.0
102
RTVSPost2010PropOp57
 70
     0
  0
XRECORD
  5
429
102
{ACAD_REACTORS
330
428
102
}
330
428
100
AcDbXrecord
280
     1
102
RTVSPost2010Prop28
280
     0
102
RTVSPost2010PropOp28
 70
     1
102
RTVSPost2010Prop29
280
     1
102
RTVSPost2010PropOp29
 70
     1
102
RTVSPost2010Prop30
280
     1
102
RTVSPost2010PropOp30
 70
     1
102
RTVSPost2010Prop31
280
     0
102
RTVSPost2010PropOp31
 70
     1
102
RTVSPost2010Prop32
280
     0
102
RTVSPost2010PropOp32
 70
     1
102
RTVSPost2010Prop33
280
     0
102
RTVSPost2010PropOp33
 70
     1
102
RTVSPost2010Prop34
280
     0
102
RTVSPost2010PropOp34
 70
     1
102
RTVSPost2010Prop35
280
     0
102
RTVSPost2010PropOp35
 70
     1
102
RTVSPost2010Prop36
280
     0
102
RTVSPost2010PropOp36
 70
     1
102
RTVSPost2010Prop37
 90
       50
102
RTVSPost2010PropOp37
 70
     1
102
RTVSPost2010Prop38
140
0.0
102
RTVSPost2010PropOp38
 70
     1
102
RTVSPost2010Prop39
140
1.0
102
RTVSPost2010PropOp39
 70
     1
102
RTVSPost2010Prop40
 90
        0
102
RTVSPost2010PropOp40
 70
     1
102
RTVSPost2010Prop41ColorIndex
 90
       18
102
RTVSPost2010Prop41ColorRGB
 90
        0
102
RTVSPost2010PropOp41
 70
     1
102
RTVSPost2010Prop42
 90
       50
102
RTVSPost2010PropOp42
 70
     1
102
RTVSPost2010Prop43
 90
        3
102
RTVSPost2010PropOp43
 70
     1
102
RTVSPost2010Prop44ColorIndex
 90
        5
102
RTVSPost2010Prop44ColorRGB
 90
      255
102
RTVSPost2010PropOp44
 70
     1
102
RTVSPost2010Prop45
280
     0
102
RTVSPost2010PropOp45
 70
     1
102
RTVSPost2010Prop46
 90
       50
102
RTVSPost2010PropOp46
 70
     1
102
RTVSPost2010Prop47
 90
       50
102
RTVSPost2010PropOp47
 70
     1
102
RTVSPost2010Prop48
 90
       50
102
RTVSPost2010PropOp48
 70
     1
102
RTVSPost2010Prop49
280
     0
102
RTVSPost2010PropOp49
 70
     1
102
RTVSPost2010Prop50
 90
       50
102
RTVSPost2010PropOp50
 70
     1
102
RTVSPost2010Prop51ColorIndex
 90
      256
102
RTVSPost2010Prop51ColorRGB
 90
-16777216
102
RTVSPost2010PropOp51
 70
     0
102
RTVSPost2010Prop52
140
1.0
102
RTVSPost2010PropOp52
 70
     0
102
RTVSPost2010Prop53
 90
        2
102
RTVSPost2010PropOp53
 70
     1
102
RTVSPost2010Prop54
  1
strokes_ogs.tif
102
RTVSPost2010PropOp54
 70
     1
102
RTVSPost2010Prop55
280
     0
102
RTVSPost2010PropOp55
 70
     1
102
RTVSPost2010Prop56
140
1.0
102
RTVSPost2010PropOp56
 70
     1
102
RTVSPost2010Prop57
140
1.0
102
RTVSPost2010PropOp57
 70
     1
  0
XRECORD
  5
447
102
{ACAD_REACTORS
330
446
102
}
330
446
100
AcDbXrecord
280
     1
102
RTVSPost2010Prop28
280
     0
102
RTVSPost2010PropOp28
 70
     1
102
RTVSPost2010Prop29
280
     1
102
RTVSPost2010PropOp29
 70
     1
102
RTVSPost2010Prop30
280
     1
102
RTVSPost2010PropOp30
 70
     1
102
RTVSPost2010Prop31
280
     0
102
RTVSPost2010PropOp31
 70
     1
102
RTVSPost2010Prop32
280
     0
102
RTVSPost2010PropOp32
 70
     1
102
RTVSPost2010Prop33
280
     0
102
RTVSPost2010PropOp33
 70
     1
102
RTVSPost2010Prop34
280
     0
102
RTVSPost2010PropOp34
 70
     1
102
RTVSPost2010Prop35
280
     0
102
RTVSPost2010PropOp35
 70
     1
102
RTVSPost2010Prop36
280
     0
102
RTVSPost2010PropOp36
 70
     1
102
RTVSPost2010Prop37
 90
       50
102
RTVSPost2010PropOp37
 70
     1
102
RTVSPost2010Prop38
140
0.0
102
RTVSPost2010PropOp38
 70
     1
102
RTVSPost2010Prop39
140
1.0
102
RTVSPost2010PropOp39
 70
     1
102
RTVSPost2010Prop40
 90
        0
102
RTVSPost2010PropOp40
 70
     1
102
RTVSPost2010Prop41ColorIndex
 90
       18
102
RTVSPost2010Prop41ColorRGB
 90
        0
102
RTVSPost2010PropOp41
 70
     1
102
RTVSPost2010Prop42
 90
       50
102
RTVSPost2010PropOp42
 70
     1
102
RTVSPost2010Prop43
 90
        3
102
RTVSPost2010PropOp43
 70
     1
102
RTVSPost2010Prop44ColorIndex
 90
        5
102
RTVSPost2010Prop44ColorRGB
 90
      255
102
RTVSPost2010PropOp44
 70
     1
102
RTVSPost2010Prop45
280
     0
102
RTVSPost2010PropOp45
 70
     1
102
RTVSPost2010Prop46
 90
       50
102
RTVSPost2010PropOp46
 70
     1
102
RTVSPost2010Prop47
 90
       50
102
RTVSPost2010PropOp47
 70
     1
102
RTVSPost2010Prop48
 90
       50
102
RTVSPost2010PropOp48
 70
     1
102
RTVSPost2010Prop49
280
     0
102
RTVSPost2010PropOp49
 70
     1
102
RTVSPost2010Prop50
 90
       50
102
RTVSPost2010PropOp50
 70
     1
102
RTVSPost2010Prop51ColorIndex
 90
      256
102
RTVSPost2010Prop51ColorRGB
 90
-16777216
102
RTVSPost2010PropOp51
 70
     0
102
RTVSPost2010Prop52
140
1.0
102
RTVSPost2010PropOp52
 70
     0
102
RTVSPost2010Prop53
 90
        2
102
RTVSPost2010PropOp53
 70
     1
102
RTVSPost2010Prop54
  1
strokes_ogs.tif
102
RTVSPost2010PropOp54
 70
     1
102
RTVSPost2010Prop55
280
     0
102
RTVSPost2010PropOp55
 70
     1
102
RTVSPost2010Prop56
140
1.0
102
RTVSPost2010PropOp56
 70
     1
102
RTVSPost2010Prop57
140
1.0
102
RTVSPost2010PropOp57
 70
     1
  0
XRECORD
  5
445
102
{ACAD_REACTORS
330
444
102
}
330
444
100
AcDbXrecord
280
     1
102
RTVSPost2010Prop28
280
     0
102
RTVSPost2010PropOp28
 70
     1
102
RTVSPost2010Prop29
280
     1
102
RTVSPost2010PropOp29
 70
     1
102
RTVSPost2010Prop30
280
     1
102
RTVSPost2010PropOp30
 70
     1
102
RTVSPost2010Prop31
280
     0
102
RTVSPost2010PropOp31
 70
     1
102
RTVSPost2010Prop32
280
     0
102
RTVSPost2010PropOp32
 70
     1
102
RTVSPost2010Prop33
280
     0
102
RTVSPost2010PropOp33
 70
     1
102
RTVSPost2010Prop34
280
     0
102
RTVSPost2010PropOp34
 70
     1
102
RTVSPost2010Prop35
280
     0
102
RTVSPost2010PropOp35
 70
     1
102
RTVSPost2010Prop36
280
     0
102
RTVSPost2010PropOp36
 70
     1
102
RTVSPost2010Prop37
 90
       50
102
RTVSPost2010PropOp37
 70
     1
102
RTVSPost2010Prop38
140
0.0
102
RTVSPost2010PropOp38
 70
     1
102
RTVSPost2010Prop39
140
1.0
102
RTVSPost2010PropOp39
 70
     1
102
RTVSPost2010Prop40
 90
        0
102
RTVSPost2010PropOp40
 70
     1
102
RTVSPost2010Prop41ColorIndex
 90
       18
102
RTVSPost2010Prop41ColorRGB
 90
        0
102
RTVSPost2010PropOp41
 70
     1
102
RTVSPost2010Prop42
 90
       50
102
RTVSPost2010PropOp42
 70
     1
102
RTVSPost2010Prop43
 90
        3
102
RTVSPost2010PropOp43
 70
     1
102
RTVSPost2010Prop44ColorIndex
 90
        5
102
RTVSPost2010Prop44ColorRGB
 90
      255
102
RTVSPost2010PropOp44
 70
     1
102
RTVSPost2010Prop45
280
     0
102
RTVSPost2010PropOp45
 70
     1
102
RTVSPost2010Prop46
 90
       50
102
RTVSPost2010PropOp46
 70
     1
102
RTVSPost2010Prop47
 90
       50
102
RTVSPost2010PropOp47
 70
     1
102
RTVSPost2010Prop48
 90
       50
102
RTVSPost2010PropOp48
 70
     1
102
RTVSPost2010Prop49
280
     0
102
RTVSPost2010PropOp49
 70
     1
102
RTVSPost2010Prop50
 90
       50
102
RTVSPost2010PropOp50
 70
     1
102
RTVSPost2010Prop51ColorIndex
 90
      256
102
RTVSPost2010Prop51ColorRGB
 90
-16777216
102
RTVSPost2010PropOp51
 70
     0
102
RTVSPost2010Prop52
140
1.0
102
RTVSPost2010PropOp52
 70
     0
102
RTVSPost2010Prop53
 90
        2
102
RTVSPost2010PropOp53
 70
     1
102
RTVSPost2010Prop54
  1
strokes_ogs.tif
102
RTVSPost2010PropOp54
 70
     1
102
RTVSPost2010Prop55
280
     0
102
RTVSPost2010PropOp55
 70
     1
102
RTVSPost2010Prop56
140
1.0
102
RTVSPost2010PropOp56
 70
     1
102
RTVSPost2010Prop57
140
1.0
102
RTVSPost2010PropOp57
 70
     1
  0
XRECORD
  5
43F
102
{ACAD_REACTORS
330
43E
102
}
330
43E
100
AcDbXrecord
280
     1
102
RTVSPost2010Prop28
280
     0
102
RTVSPost2010PropOp28
 70
     1
102
RTVSPost2010Prop29
280
     1
102
RTVSPost2010PropOp29
 70
     1
102
RTVSPost2010Prop30
280
     1
102
RTVSPost2010PropOp30
 70
     1
102
RTVSPost2010Prop31
280
     0
102
RTVSPost2010PropOp31
 70
     1
102
RTVSPost2010Prop32
280
     0
102
RTVSPost2010PropOp32
 70
     1
102
RTVSPost2010Prop33
280
     0
102
RTVSPost2010PropOp33
 70
     1
102
RTVSPost2010Prop34
280
     0
102
RTVSPost2010PropOp34
 70
     1
102
RTVSPost2010Prop35
280
     0
102
RTVSPost2010PropOp35
 70
     1
102
RTVSPost2010Prop36
280
     0
102
RTVSPost2010PropOp36
 70
     1
102
RTVSPost2010Prop37
 90
       50
102
RTVSPost2010PropOp37
 70
     1
102
RTVSPost2010Prop38
140
0.0
102
RTVSPost2010PropOp38
 70
     1
102
RTVSPost2010Prop39
140
1.0
102
RTVSPost2010PropOp39
 70
     1
102
RTVSPost2010Prop40
 90
        0
102
RTVSPost2010PropOp40
 70
     1
102
RTVSPost2010Prop41ColorIndex
 90
       18
102
RTVSPost2010Prop41ColorRGB
 90
        0
102
RTVSPost2010PropOp41
 70
     1
102
RTVSPost2010Prop42
 90
       50
102
RTVSPost2010PropOp42
 70
     1
102
RTVSPost2010Prop43
 90
        3
102
RTVSPost2010PropOp43
 70
     1
102
RTVSPost2010Prop44ColorIndex
 90
        5
102
RTVSPost2010Prop44ColorRGB
 90
      255
102
RTVSPost2010PropOp44
 70
     1
102
RTVSPost2010Prop45
280
     0
102
RTVSPost2010PropOp45
 70
     1
102
RTVSPost2010Prop46
 90
       50
102
RTVSPost2010PropOp46
 70
     1
102
RTVSPost2010Prop47
 90
       50
102
RTVSPost2010PropOp47
 70
     1
102
RTVSPost2010Prop48
 90
       50
102
RTVSPost2010PropOp48
 70
     1
102
RTVSPost2010Prop49
280
     0
102
RTVSPost2010PropOp49
 70
     1
102
RTVSPost2010Prop50
 90
       50
102
RTVSPost2010PropOp50
 70
     1
102
RTVSPost2010Prop51ColorIndex
 90
      256
102
RTVSPost2010Prop51ColorRGB
 90
-16777216
102
RTVSPost2010PropOp51
 70
     0
102
RTVSPost2010Prop52
140
1.0
102
RTVSPost2010PropOp52
 70
     0
102
RTVSPost2010Prop53
 90
        2
102
RTVSPost2010PropOp53
 70
     1
102
RTVSPost2010Prop54
  1
strokes_ogs.tif
102
RTVSPost2010PropOp54
 70
     1
102
RTVSPost2010Prop55
280
     0
102
RTVSPost2010PropOp55
 70
     1
102
RTVSPost2010Prop56
140
1.0
102
RTVSPost2010PropOp56
 70
     1
102
RTVSPost2010Prop57
140
1.0
102
RTVSPost2010PropOp57
 70
     1
  0
XRECORD
  5
441
102
{ACAD_REACTORS
330
440
102
}
330
440
100
AcDbXrecord
280
     1
102
RTVSPost2010Prop28
280
     0
102
RTVSPost2010PropOp28
 70
     1
102
RTVSPost2010Prop29
280
     1
102
RTVSPost2010PropOp29
 70
     1
102
RTVSPost2010Prop30
280
     1
102
RTVSPost2010PropOp30
 70
     1
102
RTVSPost2010Prop31
280
     0
102
RTVSPost2010PropOp31
 70
     1
102
RTVSPost2010Prop32
280
     0
102
RTVSPost2010PropOp32
 70
     1
102
RTVSPost2010Prop33
280
     0
102
RTVSPost2010PropOp33
 70
     1
102
RTVSPost2010Prop34
280
     0
102
RTVSPost2010PropOp34
 70
     1
102
RTVSPost2010Prop35
280
     0
102
RTVSPost2010PropOp35
 70
     1
102
RTVSPost2010Prop36
280
     0
102
RTVSPost2010PropOp36
 70
     1
102
RTVSPost2010Prop37
 90
       50
102
RTVSPost2010PropOp37
 70
     1
102
RTVSPost2010Prop38
140
0.0
102
RTVSPost2010PropOp38
 70
     1
102
RTVSPost2010Prop39
140
1.0
102
RTVSPost2010PropOp39
 70
     1
102
RTVSPost2010Prop40
 90
        0
102
RTVSPost2010PropOp40
 70
     1
102
RTVSPost2010Prop41ColorIndex
 90
       18
102
RTVSPost2010Prop41ColorRGB
 90
        0
102
RTVSPost2010PropOp41
 70
     1
102
RTVSPost2010Prop42
 90
       50
102
RTVSPost2010PropOp42
 70
     1
102
RTVSPost2010Prop43
 90
        3
102
RTVSPost2010PropOp43
 70
     1
102
RTVSPost2010Prop44ColorIndex
 90
        5
102
RTVSPost2010Prop44ColorRGB
 90
      255
102
RTVSPost2010PropOp44
 70
     1
102
RTVSPost2010Prop45
280
     0
102
RTVSPost2010PropOp45
 70
     1
102
RTVSPost2010Prop46
 90
       50
102
RTVSPost2010PropOp46
 70
     1
102
RTVSPost2010Prop47
 90
       50
102
RTVSPost2010PropOp47
 70
     1
102
RTVSPost2010Prop48
 90
       50
102
RTVSPost2010PropOp48
 70
     1
102
RTVSPost2010Prop49
280
     0
102
RTVSPost2010PropOp49
 70
     1
102
RTVSPost2010Prop50
 90
       50
102
RTVSPost2010PropOp50
 70
     1
102
RTVSPost2010Prop51ColorIndex
 90
      256
102
RTVSPost2010Prop51ColorRGB
 90
-16777216
102
RTVSPost2010PropOp51
 70
     0
102
RTVSPost2010Prop52
140
1.0
102
RTVSPost2010PropOp52
 70
     0
102
RTVSPost2010Prop53
 90
        2
102
RTVSPost2010PropOp53
 70
     1
102
RTVSPost2010Prop54
  1
strokes_ogs.tif
102
RTVSPost2010PropOp54
 70
     1
102
RTVSPost2010Prop55
280
     0
102
RTVSPost2010PropOp55
 70
     1
102
RTVSPost2010Prop56
140
1.0
102
RTVSPost2010PropOp56
 70
     1
102
RTVSPost2010Prop57
140
1.0
102
RTVSPost2010PropOp57
 70
     1
  0
XRECORD
  5
431
102
{ACAD_REACTORS
330
430
102
}
330
430
100
AcDbXrecord
280
     1
102
RTVSPost2010Prop28
280
     0
102
RTVSPost2010PropOp28
 70
     1
102
RTVSPost2010Prop29
280
     1
102
RTVSPost2010PropOp29
 70
     1
102
RTVSPost2010Prop30
280
     1
102
RTVSPost2010PropOp30
 70
     1
102
RTVSPost2010Prop31
280
     0
102
RTVSPost2010PropOp31
 70
     1
102
RTVSPost2010Prop32
280
     0
102
RTVSPost2010PropOp32
 70
     1
102
RTVSPost2010Prop33
280
     0
102
RTVSPost2010PropOp33
 70
     1
102
RTVSPost2010Prop34
280
     0
102
RTVSPost2010PropOp34
 70
     1
102
RTVSPost2010Prop35
280
     0
102
RTVSPost2010PropOp35
 70
     1
102
RTVSPost2010Prop36
280
     0
102
RTVSPost2010PropOp36
 70
     1
102
RTVSPost2010Prop37
 90
       50
102
RTVSPost2010PropOp37
 70
     1
102
RTVSPost2010Prop38
140
0.0
102
RTVSPost2010PropOp38
 70
     1
102
RTVSPost2010Prop39
140
1.0
102
RTVSPost2010PropOp39
 70
     1
102
RTVSPost2010Prop40
 90
        0
102
RTVSPost2010PropOp40
 70
     1
102
RTVSPost2010Prop41ColorIndex
 90
       18
102
RTVSPost2010Prop41ColorRGB
 90
        0
102
RTVSPost2010PropOp41
 70
     1
102
RTVSPost2010Prop42
 90
       50
102
RTVSPost2010PropOp42
 70
     1
102
RTVSPost2010Prop43
 90
        3
102
RTVSPost2010PropOp43
 70
     1
102
RTVSPost2010Prop44ColorIndex
 90
        5
102
RTVSPost2010Prop44ColorRGB
 90
      255
102
RTVSPost2010PropOp44
 70
     1
102
RTVSPost2010Prop45
280
     0
102
RTVSPost2010PropOp45
 70
     1
102
RTVSPost2010Prop46
 90
       50
102
RTVSPost2010PropOp46
 70
     1
102
RTVSPost2010Prop47
 90
       50
102
RTVSPost2010PropOp47
 70
     1
102
RTVSPost2010Prop48
 90
       50
102
RTVSPost2010PropOp48
 70
     1
102
RTVSPost2010Prop49
280
     0
102
RTVSPost2010PropOp49
 70
     1
102
RTVSPost2010Prop50
 90
       50
102
RTVSPost2010PropOp50
 70
     1
102
RTVSPost2010Prop51ColorIndex
 90
      256
102
RTVSPost2010Prop51ColorRGB
 90
-16777216
102
RTVSPost2010PropOp51
 70
     0
102
RTVSPost2010Prop52
140
1.0
102
RTVSPost2010PropOp52
 70
     0
102
RTVSPost2010Prop53
 90
        2
102
RTVSPost2010PropOp53
 70
     1
102
RTVSPost2010Prop54
  1
strokes_ogs.tif
102
RTVSPost2010PropOp54
 70
     1
102
RTVSPost2010Prop55
280
     0
102
RTVSPost2010PropOp55
 70
     1
102
RTVSPost2010Prop56
140
1.0
102
RTVSPost2010PropOp56
 70
     1
102
RTVSPost2010Prop57
140
1.0
102
RTVSPost2010PropOp57
 70
     1
  0
XRECORD
  5
423
102
{ACAD_REACTORS
330
422
102
}
330
422
100
AcDbXrecord
280
     1
102
RTVSPost2010Prop28
280
     0
102
RTVSPost2010PropOp28
 70
     1
102
RTVSPost2010Prop29
280
     1
102
RTVSPost2010PropOp29
 70
     1
102
RTVSPost2010Prop30
280
     1
102
RTVSPost2010PropOp30
 70
     1
102
RTVSPost2010Prop31
280
     0
102
RTVSPost2010PropOp31
 70
     1
102
RTVSPost2010Prop32
280
     0
102
RTVSPost2010PropOp32
 70
     1
102
RTVSPost2010Prop33
280
     0
102
RTVSPost2010PropOp33
 70
     1
102
RTVSPost2010Prop34
280
     0
102
RTVSPost2010PropOp34
 70
     1
102
RTVSPost2010Prop35
280
     0
102
RTVSPost2010PropOp35
 70
     1
102
RTVSPost2010Prop36
280
     0
102
RTVSPost2010PropOp36
 70
     1
102
RTVSPost2010Prop37
 90
       50
102
RTVSPost2010PropOp37
 70
     1
102
RTVSPost2010Prop38
140
0.0
102
RTVSPost2010PropOp38
 70
     1
102
RTVSPost2010Prop39
140
1.0
102
RTVSPost2010PropOp39
 70
     1
102
RTVSPost2010Prop40
 90
        0
102
RTVSPost2010PropOp40
 70
     1
102
RTVSPost2010Prop41ColorIndex
 90
       18
102
RTVSPost2010Prop41ColorRGB
 90
        0
102
RTVSPost2010PropOp41
 70
     1
102
RTVSPost2010Prop42
 90
       50
102
RTVSPost2010PropOp42
 70
     1
102
RTVSPost2010Prop43
 90
        3
102
RTVSPost2010PropOp43
 70
     1
102
RTVSPost2010Prop44ColorIndex
 90
        5
102
RTVSPost2010Prop44ColorRGB
 90
      255
102
RTVSPost2010PropOp44
 70
     1
102
RTVSPost2010Prop45
280
     0
102
RTVSPost2010PropOp45
 70
     1
102
RTVSPost2010Prop46
 90
       50
102
RTVSPost2010PropOp46
 70
     1
102
RTVSPost2010Prop47
 90
       50
102
RTVSPost2010PropOp47
 70
     1
102
RTVSPost2010Prop48
 90
       50
102
RTVSPost2010PropOp48
 70
     1
102
RTVSPost2010Prop49
280
     0
102
RTVSPost2010PropOp49
 70
     1
102
RTVSPost2010Prop50
 90
       50
102
RTVSPost2010PropOp50
 70
     1
102
RTVSPost2010Prop51ColorIndex
 90
      256
102
RTVSPost2010Prop51ColorRGB
 90
-16777216
102
RTVSPost2010PropOp51
 70
     0
102
RTVSPost2010Prop52
140
1.0
102
RTVSPost2010PropOp52
 70
     0
102
RTVSPost2010Prop53
 90
        2
102
RTVSPost2010PropOp53
 70
     1
102
RTVSPost2010Prop54
  1
strokes_ogs.tif
102
RTVSPost2010PropOp54
 70
     1
102
RTVSPost2010Prop55
280
     0
102
RTVSPost2010PropOp55
 70
     1
102
RTVSPost2010Prop56
140
1.0
102
RTVSPost2010PropOp56
 70
     1
102
RTVSPost2010Prop57
140
1.0
102
RTVSPost2010PropOp57
 70
     1
  0
XRECORD
  5
443
102
{ACAD_REACTORS
330
442
102
}
330
442
100
AcDbXrecord
280
     1
102
RTVSPost2010Prop28
280
     0
102
RTVSPost2010PropOp28
 70
     1
102
RTVSPost2010Prop29
280
     1
102
RTVSPost2010PropOp29
 70
     1
102
RTVSPost2010Prop30
280
     1
102
RTVSPost2010PropOp30
 70
     1
102
RTVSPost2010Prop31
280
     0
102
RTVSPost2010PropOp31
 70
     1
102
RTVSPost2010Prop32
280
     0
102
RTVSPost2010PropOp32
 70
     1
102
RTVSPost2010Prop33
280
     0
102
RTVSPost2010PropOp33
 70
     1
102
RTVSPost2010Prop34
280
     0
102
RTVSPost2010PropOp34
 70
     1
102
RTVSPost2010Prop35
280
     0
102
RTVSPost2010PropOp35
 70
     1
102
RTVSPost2010Prop36
280
     0
102
RTVSPost2010PropOp36
 70
     1
102
RTVSPost2010Prop37
 90
       50
102
RTVSPost2010PropOp37
 70
     1
102
RTVSPost2010Prop38
140
0.0
102
RTVSPost2010PropOp38
 70
     1
102
RTVSPost2010Prop39
140
1.0
102
RTVSPost2010PropOp39
 70
     1
102
RTVSPost2010Prop40
 90
        0
102
RTVSPost2010PropOp40
 70
     1
102
RTVSPost2010Prop41ColorIndex
 90
       18
102
RTVSPost2010Prop41ColorRGB
 90
        0
102
RTVSPost2010PropOp41
 70
     1
102
RTVSPost2010Prop42
 90
       50
102
RTVSPost2010PropOp42
 70
     1
102
RTVSPost2010Prop43
 90
        3
102
RTVSPost2010PropOp43
 70
     1
102
RTVSPost2010Prop44ColorIndex
 90
        5
102
RTVSPost2010Prop44ColorRGB
 90
      255
102
RTVSPost2010PropOp44
 70
     1
102
RTVSPost2010Prop45
280
     0
102
RTVSPost2010PropOp45
 70
     1
102
RTVSPost2010Prop46
 90
       50
102
RTVSPost2010PropOp46
 70
     1
102
RTVSPost2010Prop47
 90
       50
102
RTVSPost2010PropOp47
 70
     1
102
RTVSPost2010Prop48
 90
       50
102
RTVSPost2010PropOp48
 70
     1
102
RTVSPost2010Prop49
280
     0
102
RTVSPost2010PropOp49
 70
     1
102
RTVSPost2010Prop50
 90
       50
102
RTVSPost2010PropOp50
 70
     1
102
RTVSPost2010Prop51ColorIndex
 90
      256
102
RTVSPost2010Prop51ColorRGB
 90
-16777216
102
RTVSPost2010PropOp51
 70
     0
102
RTVSPost2010Prop52
140
1.0
102
RTVSPost2010PropOp52
 70
     0
102
RTVSPost2010Prop53
 90
        2
102
RTVSPost2010PropOp53
 70
     1
102
RTVSPost2010Prop54
  1
strokes_ogs.tif
102
RTVSPost2010PropOp54
 70
     1
102
RTVSPost2010Prop55
280
     0
102
RTVSPost2010PropOp55
 70
     1
102
RTVSPost2010Prop56
140
1.0
102
RTVSPost2010PropOp56
 70
     1
102
RTVSPost2010Prop57
140
1.0
102
RTVSPost2010PropOp57
 70
     1
  0
ENDSEC
  0
EOF
