  0
SECTION
  2
HEADER
  9
$ACADVER
  1
AC1024
  9
$ACADMAINTVER
 70
     6
  9
$DWGCODEPAGE
  3
ANSI_932
  9
$INSBASE
 10
0.0
 20
0.0
 30
0.0
  9
$EXTMIN
 10
-6300.0
 20
-4455.0
 30
0.0
  9
$EXTMAX
 10
6300.0
 20
4455.0
 30
0.0
  9
$LIMMIN
 10
-6300.0
 20
-4455.0
  9
$LIMMAX
 10
6300.0
 20
4455.0
  9
$ORTHOMODE
 70
     0
  9
$REGENMODE
 70
     1
  9
$FILLMODE
 70
     1
  9
$QTEXTMODE
 70
     0
  9
$MIRRTEXT
 70
     1
  9
$LTSCALE
 40
30.0
  9
$ATTMODE
 70
     1
  9
$TEXTSIZE
 40
2.5
  9
$TRACEWID
 40
1.0
  9
$TEXTSTYLE
  7
Standard
  9
$CLAYER
  8
0
  9
$CELTYPE
  6
ByLayer
  9
$CECOLOR
 62
   256
  9
$CELTSCALE
 40
1.0
  9
$DISPSILH
 70
     0
  9
$DIMSCALE
 40
1.0
  9
$DIMASZ
 40
2.5
  9
$DIMEXO
 40
0.625
  9
$DIMDLI
 40
3.75
  9
$DIMRND
 40
0.0
  9
$DIMDLE
 40
0.0
  9
$DIMEXE
 40
1.25
  9
$DIMTP
 40
0.0
  9
$DIMTM
 40
0.0
  9
$DIMTXT
 40
2.5
  9
$DIMCEN
 40
2.5
  9
$DIMTSZ
 40
0.0
  9
$DIMTOL
 70
     0
  9
$DIMLIM
 70
     0
  9
$DIMTIH
 70
     0
  9
$DIMTOH
 70
     0
  9
$DIMSE1
 70
     0
  9
$DIMSE2
 70
     0
  9
$DIMTAD
 70
     1
  9
$DIMZIN
 70
     8
  9
$DIMBLK
  1

  9
$DIMASO
 70
     1
  9
$DIMSHO
 70
     1
  9
$DIMPOST
  1

  9
$DIMAPOST
  1

  9
$DIMALT
 70
     0
  9
$DIMALTD
 70
     3
  9
$DIMALTF
 40
0.03937007874016
  9
$DIMLFAC
 40
1.0
  9
$DIMTOFL
 70
     1
  9
$DIMTVP
 40
0.0
  9
$DIMTIX
 70
     0
  9
$DIMSOXD
 70
     0
  9
$DIMSAH
 70
     0
  9
$DIMBLK1
  1

  9
$DIMBLK2
  1

  9
$DIMSTYLE
  2
ISO-25
  9
$DIMCLRD
 70
     0
  9
$DIMCLRE
 70
     0
  9
$DIMCLRT
 70
     0
  9
$DIMTFAC
 40
1.0
  9
$DIMGAP
 40
0.625
  9
$DIMJUST
 70
     0
  9
$DIMSD1
 70
     0
  9
$DIMSD2
 70
     0
  9
$DIMTOLJ
 70
     0
  9
$DIMTZIN
 70
     8
  9
$DIMALTZ
 70
     0
  9
$DIMALTTZ
 70
     0
  9
$DIMUPT
 70
     0
  9
$DIMDEC
 70
     2
  9
$DIMTDEC
 70
     2
  9
$DIMALTU
 70
     2
  9
$DIMALTTD
 70
     3
  9
$DIMTXSTY
  7
Standard
  9
$DIMAUNIT
 70
     0
  9
$DIMADEC
 70
     0
  9
$DIMALTRND
 40
0.0
  9
$DIMAZIN
 70
     0
  9
$DIMDSEP
 70
    44
  9
$DIMATFIT
 70
     3
  9
$DIMFRAC
 70
     0
  9
$DIMLDRBLK
  1

  9
$DIMLUNIT
 70
     2
  9
$DIMLWD
 70
    -2
  9
$DIMLWE
 70
    -2
  9
$DIMTMOVE
 70
     0
  9
$DIMFXL
 40
1.0
  9
$DIMFXLON
 70
     0
  9
$DIMJOGANG
 40
0.7853981633974483
  9
$DIMTFILL
 70
     0
  9
$DIMTFILLCLR
 70
     0
  9
$DIMARCSYM
 70
     0
  9
$DIMLTYPE
  6

  9
$DIMLTEX1
  6

  9
$DIMLTEX2
  6

  9
$DIMTXTDIRECTION
 70
     0
  9
$LUNITS
 70
     2
  9
$LUPREC
 70
     4
  9
$SKETCHINC
 40
1.0
  9
$FILLETRAD
 40
10.0
  9
$AUNITS
 70
     0
  9
$AUPREC
 70
     0
  9
$MENU
  1
.
  9
$ELEVATION
 40
0.0
  9
$PELEVATION
 40
0.0
  9
$THICKNESS
 40
0.0
  9
$LIMCHECK
 70
     0
  9
$CHAMFERA
 40
0.0
  9
$CHAMFERB
 40
0.0
  9
$CHAMFERC
 40
0.0
  9
$CHAMFERD
 40
0.0
  9
$SKPOLY
 70
     0
  9
$TDCREATE
 40
2458465.671851643
  9
$TDUCREATE
 40
2458465.296851643
  9
$TDUPDATE
 40
2458465.671852002
  9
$TDUUPDATE
 40
2458465.296852002
  9
$TDINDWG
 40
0.0000000116
  9
$TDUSRTIMER
 40
0.0000000116
  9
$USRTIMER
 70
     1
  9
$ANGBASE
 50
0.0
  9
$ANGDIR
 70
     0
  9
$PDMODE
 70
     0
  9
$PDSIZE
 40
0.0
  9
$PLINEWID
 40
0.0
  9
$SPLFRAME
 70
     0
  9
$SPLINETYPE
 70
     6
  9
$SPLINESEGS
 70
     8
  9
$HANDSEED
  5
35B
  9
$SURFTAB1
 70
     6
  9
$SURFTAB2
 70
     6
  9
$SURFTYPE
 70
     6
  9
$SURFU
 70
     6
  9
$SURFV
 70
     6
  9
$UCSBASE
  2

  9
$UCSNAME
  2

  9
$UCSORG
 10
0.0
 20
0.0
 30
0.0
  9
$UCSXDIR
 10
1.0
 20
0.0
 30
0.0
  9
$UCSYDIR
 10
0.0
 20
1.0
 30
0.0
  9
$UCSORTHOREF
  2

  9
$UCSORTHOVIEW
 70
     0
  9
$UCSORGTOP
 10
0.0
 20
0.0
 30
0.0
  9
$UCSORGBOTTOM
 10
0.0
 20
0.0
 30
0.0
  9
$UCSORGLEFT
 10
0.0
 20
0.0
 30
0.0
  9
$UCSORGRIGHT
 10
0.0
 20
0.0
 30
0.0
  9
$UCSORGFRONT
 10
0.0
 20
0.0
 30
0.0
  9
$UCSORGBACK
 10
0.0
 20
0.0
 30
0.0
  9
$PUCSBASE
  2

  9
$PUCSNAME
  2

  9
$PUCSORG
 10
0.0
 20
0.0
 30
0.0
  9
$PUCSXDIR
 10
1.0
 20
0.0
 30
0.0
  9
$PUCSYDIR
 10
0.0
 20
1.0
 30
0.0
  9
$PUCSORTHOREF
  2

  9
$PUCSORTHOVIEW
 70
     0
  9
$PUCSORGTOP
 10
0.0
 20
0.0
 30
0.0
  9
$PUCSORGBOTTOM
 10
0.0
 20
0.0
 30
0.0
  9
$PUCSORGLEFT
 10
0.0
 20
0.0
 30
0.0
  9
$PUCSORGRIGHT
 10
0.0
 20
0.0
 30
0.0
  9
$PUCSORGFRONT
 10
0.0
 20
0.0
 30
0.0
  9
$PUCSORGBACK
 10
0.0
 20
0.0
 30
0.0
  9
$USERI1
 70
     0
  9
$USERI2
 70
     0
  9
$USERI3
 70
     0
  9
$USERI4
 70
     0
  9
$USERI5
 70
     0
  9
$USERR1
 40
0.0
  9
$USERR2
 40
0.0
  9
$USERR3
 40
0.0
  9
$USERR4
 40
0.0
  9
$USERR5
 40
0.0
  9
$WORLDVIEW
 70
     1
  9
$SHADEDGE
 70
     3
  9
$SHADEDIF
 70
    70
  9
$TILEMODE
 70
     1
  9
$MAXACTVP
 70
    64
  9
$PINSBASE
 10
0.0
 20
0.0
 30
0.0
  9
$PLIMCHECK
 70
     0
  9
$PEXTMIN
 10
1.000000000000000E+20
 20
1.000000000000000E+20
 30
1.000000000000000E+20
  9
$PEXTMAX
 10
-1.000000000000000E+20
 20
-1.000000000000000E+20
 30
-1.000000000000000E+20
  9
$PLIMMIN
 10
0.0
 20
0.0
  9
$PLIMMAX
 10
420.0
 20
297.0
  9
$UNITMODE
 70
     0
  9
$VISRETAIN
 70
     1
  9
$PLINEGEN
 70
     0
  9
$PSLTSCALE
 70
     1
  9
$TREEDEPTH
 70
  3020
  9
$CMLSTYLE
  2
Standard
  9
$CMLJUST
 70
     0
  9
$CMLSCALE
 40
20.0
  9
$PROXYGRAPHICS
 70
     1
  9
$MEASUREMENT
 70
     1
  9
$CELWEIGHT
370
    -1
  9
$ENDCAPS
280
     0
  9
$JOINSTYLE
280
     0
  9
$LWDISPLAY
290
     0
  9
$INSUNITS
 70
     4
  9
$HYPERLINKBASE
  1

  9
$STYLESHEET
  1

  9
$XEDIT
290
     1
  9
$CEPSNTYPE
380
     0
  9
$PSTYLEMODE
290
     1
  9
$FINGERPRINTGUID
  2
{E2B7091D-E7E2-43C1-806B-CE052E5A2DBC}
  9
$VERSIONGUID
  2
{FAEB1C32-E019-11D5-929B-00C0DF256EC4}
  9
$EXTNAMES
290
     1
  9
$PSVPSCALE
 40
0.0
  9
$OLESTARTUP
290
     0
  9
$SORTENTS
280
   127
  9
$INDEXCTL
280
     0
  9
$HIDETEXT
280
     1
  9
$XCLIPFRAME
280
     2
  9
$HALOGAP
280
     0
  9
$OBSCOLOR
 70
   257
  9
$OBSLTYPE
280
     0
  9
$INTERSECTIONDISPLAY
280
     0
  9
$INTERSECTIONCOLOR
 70
   257
  9
$DIMASSOC
280
     2
  9
$PROJECTNAME
  1

  9
$CAMERADISPLAY
290
     0
  9
$LENSLENGTH
 40
50.0
  9
$CAMERAHEIGHT
 40
0.0
  9
$STEPSPERSEC
 40
2.0
  9
$STEPSIZE
 40
6.0
  9
$3DDWFPREC
 40
2.0
  9
$PSOLWIDTH
 40
5.0
  9
$PSOLHEIGHT
 40
80.0
  9
$LOFTANG1
 40
1.570796326794897
  9
$LOFTANG2
 40
1.570796326794897
  9
$LOFTMAG1
 40
0.0
  9
$LOFTMAG2
 40
0.0
  9
$LOFTPARAM
 70
     7
  9
$LOFTNORMALS
280
     1
  9
$LATITUDE
 40
37.795
  9
$LONGITUDE
 40
-122.394
  9
$NORTHDIRECTION
 40
0.0
  9
$TIMEZONE
 70
 -8000
  9
$LIGHTGLYPHDISPLAY
280
     1
  9
$TILEMODELIGHTSYNCH
280
     1
  9
$CMATERIAL
347
44
  9
$SOLIDHIST
280
     0
  9
$SHOWHIST
280
     1
  9
$DWFFRAME
280
     2
  9
$DGNFRAME
280
     2
  9
$REALWORLDSCALE
290
     1
  9
$INTERFERECOLOR
 62
   256
  9
$CSHADOW
280
     0
  9
$SHADOWPLANELOCATION
 40
0.0
  0
ENDSEC
  0
SECTION
  2
CLASSES
  0
CLASS
  1
ACDBDICTIONARYWDFLT
  2
AcDbDictionaryWithDefault
  3
ObjectDBX Classes
 90
        0
 91
        4
280
     0
281
     0
  0
CLASS
  1
VISUALSTYLE
  2
AcDbVisualStyle
  3
ObjectDBX Classes
 90
     4095
 91
        4
280
     0
281
     0
  0
CLASS
  1
MATERIAL
  2
AcDbMaterial
  3
ObjectDBX Classes
 90
     1153
 91
        4
280
     0
281
     0
  0
CLASS
  1
SCALE
  2
AcDbScale
  3
ObjectDBX Classes
 90
     1153
 91
        4
280
     0
281
     0
  0
CLASS
  1
TABLESTYLE
  2
AcDbTableStyle
  3
ObjectDBX Classes
 90
     4095
 91
        4
280
     0
281
     0
  0
CLASS
  1
MLEADERSTYLE
  2
AcDbMLeaderStyle
  3
ACDB_MLEADERSTYLE_CLASS
 90
     4095
 91
        4
280
     0
281
     0
  0
CLASS
  1
SUN
  2
AcDbSun
  3
SCENEOE
 90
     1153
 91
        4
280
     0
281
     0
  0
CLASS
  1
DICTIONARYVAR
  2
AcDbDictionaryVar
  3
ObjectDBX Classes
 90
        0
 91
        4
280
     0
281
     0
  0
CLASS
  1
CELLSTYLEMAP
  2
AcDbCellStyleMap
  3
ObjectDBX Classes
 90
     1152
 91
        4
280
     0
281
     0
  0
ENDSEC
  0
SECTION
  2
TABLES
  0
TABLE
  2
VPORT
  5
8
330
0
100
AcDbSymbolTable
 70
     1
  0
VPORT
  5
29
330
8
100
AcDbSymbolTableRecord
100
AcDbViewportTableRecord
  2
*Active
 70
     0
 10
0.0
 20
0.0
 11
1.0
 21
1.0
 12
0.0
 22
0.0
 13
0.0
 23
0.0
 14
10.0
 24
10.0
 15
10.0
 25
10.0
 16
0.0
 26
0.0
 36
1.0
 17
0.0
 27
0.0
 37
0.0
 40
9801.0
 41
1.414141414141414
 42
50.0
 43
0.0
 44
0.0
 50
0.0
 51
0.0
 71
     0
 72
 10000
 73
     1
 74
     3
 75
     0
 76
     0
 77
     0
 78
     0
281
     0
 65
     1
110
0.0
120
0.0
130
0.0
111
1.0
121
0.0
131
0.0
112
0.0
122
1.0
132
0.0
 79
     0
146
0.0
348
2F
 60
     3
 61
     5
292
     1
282
     1
141
0.0
142
0.0
 63
   250
361
6D
  0
ENDTAB
  0
TABLE
  2
LTYPE
  5
5
330
0
100
AcDbSymbolTable
 70
     5
  0
LTYPE
  5
14
330
5
100
AcDbSymbolTableRecord
100
AcDbLinetypeTableRecord
  2
ByBlock
 70
     0
  3

 72
    65
 73
     0
 40
0.0
  0
LTYPE
  5
15
330
5
100
AcDbSymbolTableRecord
100
AcDbLinetypeTableRecord
  2
ByLayer
 70
     0
  3

 72
    65
 73
     0
 40
0.0
  0
LTYPE
  5
16
330
5
100
AcDbSymbolTableRecord
100
AcDbLinetypeTableRecord
  2
Continuous
 70
     0
  3
Solid line
 72
    65
 73
     0
 40
0.0
  0
LTYPE
  5
70
330
5
100
AcDbSymbolTableRecord
100
AcDbLinetypeTableRecord
  2
JWW_DASHED1
 70
     0
  3
-  --  --  --  --  --  --  --  -
 72
    65
 73
     2
 40
1.693333333333333
 49
0.8466666666666667
 74
     0
 49
-0.8466666666666667
 74
     0
  0
LTYPE
  5
71
330
5
100
AcDbSymbolTableRecord
100
AcDbLinetypeTableRecord
  2
JWW_CENTER1
 70
     0
  3
-----  --  ----------  --  -----
 72
    65
 73
     4
 40
6.773333333333333
 49
4.233333333333333
 74
     0
 49
-0.8466666666666667
 74
     0
 49
0.8466666666666667
 74
     0
 49
-0.8466666666666667
 74
     0
  0
LTYPE
  5
72
330
5
100
AcDbSymbolTableRecord
100
AcDbLinetypeTableRecord
  2
JWW_HOJO
 70
     0
  3
  -   -   -   -   -   -   -   - 
 72
    65
 73
     2
 40
1.693333333333333
 49
-1.27
 74
     0
 49
0.4233333333333333
 74
     0
  0
LTYPE
  5
73
330
5
100
AcDbSymbolTableRecord
100
AcDbLinetypeTableRecord
  2
JWW_DASHED2
 70
     0
  3
--    ----    ----    ----    --
 72
    65
 73
     2
 40
3.386666666666667
 49
1.693333333333333
 74
     0
 49
-1.693333333333333
 74
     0
  0
ENDTAB
  0
TABLE
  2
LAYER
  5
2
330
0
100
AcDbSymbolTable
 70
    14
  0
LAYER
  5
10
330
2
100
AcDbSymbolTableRecord
100
AcDbLayerTableRecord
  2
0
 70
     0
 62
     7
  6
Continuous
370
    -3
390
F
347
46
  0
LAYER
  5
74
330
2
100
AcDbSymbolTableRecord
100
AcDbLayerTableRecord
  2
0-3_仕上げ
 70
     0
 62
     7
  6
Continuous
370
    -3
390
F
347
46
  0
LAYER
  5
75
330
2
100
AcDbSymbolTableRecord
100
AcDbLayerTableRecord
  2
0-B_寸法
 70
     0
 62
     7
  6
Continuous
370
    -3
390
F
347
46
  0
LAYER
  5
76
330
2
100
AcDbSymbolTableRecord
100
AcDbLayerTableRecord
  2
0-C_ハッチ
 70
     0
 62
     7
  6
Continuous
370
    -3
390
F
347
46
  0
LAYER
  5
77
330
2
100
AcDbSymbolTableRecord
100
AcDbLayerTableRecord
  2
0-4_枠
 70
     0
 62
     7
  6
Continuous
370
    -3
390
F
347
46
  0
LAYER
  5
78
330
2
100
AcDbSymbolTableRecord
100
AcDbLayerTableRecord
  2
0-1_通り芯
 70
     0
 62
     7
  6
Continuous
370
    -3
390
F
347
46
  0
LAYER
  5
79
330
2
100
AcDbSymbolTableRecord
100
AcDbLayerTableRecord
  2
0-0_補助線
 70
     0
 62
     7
  6
Continuous
370
    -3
390
F
347
46
  0
LAYER
  5
7A
330
2
100
AcDbSymbolTableRecord
100
AcDbLayerTableRecord
  2
0-6_扉
 70
     0
 62
     7
  6
Continuous
370
    -3
390
F
347
46
  0
LAYER
  5
7B
330
2
100
AcDbSymbolTableRecord
100
AcDbLayerTableRecord
  2
0-A_文字
 70
     0
 62
     7
  6
Continuous
370
    -3
390
F
347
46
  0
LAYER
  5
7C
330
2
100
AcDbSymbolTableRecord
100
AcDbLayerTableRecord
  2
F-0_補助線
 70
     0
 62
     7
  6
Continuous
370
    -3
390
F
347
46
  0
LAYER
  5
7D
330
2
100
AcDbSymbolTableRecord
100
AcDbLayerTableRecord
  2
F-1_枠
 70
     0
 62
     7
  6
Continuous
370
    -3
390
F
347
46
  0
LAYER
  5
7E
330
2
100
AcDbSymbolTableRecord
100
AcDbLayerTableRecord
  2
F-A_文字
 70
     0
 62
     7
  6
Continuous
370
    -3
390
F
347
46
  0
LAYER
  5
7F
330
2
100
AcDbSymbolTableRecord
100
AcDbLayerTableRecord
  2
0-7_金物
 70
     0
 62
     7
  6
Continuous
370
    -3
390
F
347
46
  0
LAYER
  5
80
330
2
100
AcDbSymbolTableRecord
100
AcDbLayerTableRecord
  2
戸当り
 70
     0
 62
     7
  6
Continuous
370
    -3
390
F
347
46
  0
ENDTAB
  0
TABLE
  2
STYLE
  5
3
330
0
100
AcDbSymbolTable
 70
     3
  0
STYLE
  5
11
330
3
100
AcDbSymbolTableRecord
100
AcDbTextStyleTableRecord
  2
Standard
 70
     0
 40
0.0
 41
1.0
 50
0.0
 71
     0
 42
2.5
  3
txt
  4

  0
STYLE
  5
6E
330
3
100
AcDbSymbolTableRecord
100
AcDbTextStyleTableRecord
  2
ＭＳ ゴシック
 70
     0
 40
1.0
 41
1.0
 50
0.0
 71
     0
 42
2.5
  3

  4

1001
ACAD
1000
MS Gothic
1071
    32817
  0
STYLE
  5
6F
330
3
100
AcDbSymbolTableRecord
100
AcDbTextStyleTableRecord
  2
HGP明朝B
 70
     0
 40
1.0
 41
1.0
 50
0.0
 71
     0
 42
2.5
  3

  4

1001
ACAD
1000
HGPMinchoB
1071
    32786
  0
ENDTAB
  0
TABLE
  2
VIEW
  5
6
330
0
100
AcDbSymbolTable
 70
     0
  0
ENDTAB
  0
TABLE
  2
UCS
  5
7
330
0
100
AcDbSymbolTable
 70
     0
  0
ENDTAB
  0
TABLE
  2
APPID
  5
9
330
0
100
AcDbSymbolTable
 70
     1
  0
APPID
  5
12
330
9
100
AcDbSymbolTableRecord
100
AcDbRegAppTableRecord
  2
ACAD
 70
     0
  0
ENDTAB
  0
TABLE
  2
DIMSTYLE
  5
A
330
0
100
AcDbSymbolTable
 70
     1
100
AcDbDimStyleTable
  0
DIMSTYLE
105
27
330
A
100
AcDbSymbolTableRecord
100
AcDbDimStyleTableRecord
  2
ISO-25
 70
     0
 41
2.5
 42
0.625
 43
3.75
 44
1.25
 73
     0
 74
     0
 77
     1
 78
     8
140
2.5
141
2.5
143
0.03937007874016
147
0.625
171
     3
172
     1
178
     0
271
     2
272
     2
274
     3
278
    44
283
     0
284
     8
340
11
  0
ENDTAB
  0
TABLE
  2
BLOCK_RECORD
  5
1
330
0
100
AcDbSymbolTable
 70
     3
  0
BLOCK_RECORD
  5
1F
330
1
100
AcDbSymbolTableRecord
100
AcDbBlockTableRecord
  2
*Model_Space
340
22
 70
     0
280
     1
281
     0
  0
BLOCK_RECORD
  5
1B
330
1
100
AcDbSymbolTableRecord
100
AcDbBlockTableRecord
  2
*Paper_Space
340
1E
 70
     0
280
     1
281
     0
  0
BLOCK_RECORD
  5
23
330
1
100
AcDbSymbolTableRecord
100
AcDbBlockTableRecord
  2
*Paper_Space0
340
26
 70
     0
280
     1
281
     0
  0
BLOCK_RECORD
  5
81
330
1
100
AcDbSymbolTableRecord
100
AcDbBlockTableRecord
  2
2@@SfigorgFlag@@4_0-0_
340
0
102
{BLKREFS
331
10B
331
22E
102
}
 70
     0
280
     1
281
     0
  0
BLOCK_RECORD
  5
84
330
1
100
AcDbSymbolTableRecord
100
AcDbBlockTableRecord
  2
01@@SfigorgFlag@@4_0-0_
340
0
102
{BLKREFS
331
22F
102
}
 70
     0
280
     1
281
     0
  0
ENDTAB
  0
ENDSEC
  0
SECTION
  2
BLOCKS
  0
BLOCK
  5
20
330
1F
100
AcDbEntity
  8
0
100
AcDbBlockBegin
  2
*Model_Space
 70
     0
 10
0.0
 20
0.0
 30
0.0
  3
*Model_Space
  1

  0
ENDBLK
  5
21
330
1F
100
AcDbEntity
  8
0
100
AcDbBlockEnd
  0
BLOCK
  5
1C
330
1B
100
AcDbEntity
 67
     1
  8
0
100
AcDbBlockBegin
  2
*Paper_Space
 70
     0
 10
0.0
 20
0.0
 30
0.0
  3
*Paper_Space
  1

  0
ENDBLK
  5
1D
330
1B
100
AcDbEntity
 67
     1
  8
0
100
AcDbBlockEnd
  0
BLOCK
  5
24
330
23
100
AcDbEntity
  8
0
100
AcDbBlockBegin
  2
*Paper_Space0
 70
     0
 10
0.0
 20
0.0
 30
0.0
  3
*Paper_Space0
  1

  0
ENDBLK
  5
25
330
23
100
AcDbEntity
  8
0
100
AcDbBlockEnd
  0
BLOCK
  5
82
330
81
100
AcDbEntity
  8
0
100
AcDbBlockBegin
  2
2@@SfigorgFlag@@4_0-0_
 70
     0
 10
0.0
 20
0.0
 30
0.0
  3
2@@SfigorgFlag@@4_0-0_
  1

  0
ARC
  5
29A
330
81
100
AcDbEntity
  8
0-0_補助線
  6
Continuous
 62
     7
370
     9
100
AcDbCircle
 10
-1.629130730832998
 20
-1.784377180280984
 30
0.0
 40
0.06
100
AcDbArc
 50
180.0
 51
270.0
  0
LINE
  5
29B
330
81
100
AcDbEntity
  8
0-0_補助線
  6
Continuous
 62
     7
370
     9
100
AcDbLine
 10
-0.3091307308329974
 20
-1.844377180280972
 30
0.0
 11
-1.629130730832998
 21
-1.844377180280972
 31
0.0
  0
ARC
  5
29C
330
81
100
AcDbEntity
  8
0-0_補助線
  6
Continuous
 62
     7
370
     9
100
AcDbCircle
 10
-0.3091307308329974
 20
-1.784377180280984
 30
0.0
 40
0.06
100
AcDbArc
 50
270.0
 51
0.0
  0
ARC
  5
29D
330
81
100
AcDbEntity
  8
0-0_補助線
  6
Continuous
 62
     7
370
     9
100
AcDbCircle
 10
-1.769130730832991
 20
3.015622819719027
 30
0.0
 40
0.2
100
AcDbArc
 50
90.0
 51
180.0
  0
ARC
  5
29E
330
81
100
AcDbEntity
  8
0-0_補助線
  6
Continuous
 62
     7
370
     9
100
AcDbCircle
 10
-0.3091307308329974
 20
2.875622819719027
 30
0.0
 40
0.06
100
AcDbArc
 50
0.0
 51
90.0
  0
LINE
  5
29F
330
81
100
AcDbEntity
  8
0-0_補助線
  6
Continuous
 62
     7
370
     9
100
AcDbLine
 10
-1.629130730832998
 20
2.935622819719029
 30
0.0
 11
-0.3091307308329974
 21
2.935622819719029
 31
0.0
  0
ARC
  5
2A0
330
81
100
AcDbEntity
  8
0-0_補助線
  6
Continuous
 62
     7
370
     9
100
AcDbCircle
 10
-1.629130730832998
 20
2.875622819719027
 30
0.0
 40
0.06
100
AcDbArc
 50
90.0
 51
180.0
  0
ARC
  5
2A1
330
81
100
AcDbEntity
  8
0-0_補助線
  6
Continuous
 62
     7
370
     9
100
AcDbCircle
 10
-1.769130730832991
 20
3.015622819719027
 30
0.0
 40
0.16
100
AcDbArc
 50
90.0
 51
180.0
  0
LINE
  5
2A2
330
81
100
AcDbEntity
  8
0-0_補助線
  6
Continuous
 62
     7
370
     9
100
AcDbLine
 10
-1.969130730832994
 20
-1.924377180280985
 30
0.0
 11
-1.969130730832994
 21
3.015622819719027
 31
0.0
  0
ARC
  5
2A3
330
81
100
AcDbEntity
  8
0-0_補助線
  6
Continuous
 62
     7
370
     9
100
AcDbCircle
 10
-1.769130730832991
 20
-1.924377180280985
 30
0.0
 40
0.2
100
AcDbArc
 50
180.0
 51
270.0
  0
ARC
  5
2A4
330
81
100
AcDbEntity
  8
0-0_補助線
  6
Continuous
 62
     7
370
     9
100
AcDbCircle
 10
-0.5692916963789258
 20
-2.144031477529182
 30
0.0
 40
1.2
100
AcDbArc
 50
179.0615344703278
 51
259.2981547751684
  0
LWPOLYLINE
  5
2A5
330
81
100
AcDbEntity
  8
0-0_補助線
  6
Continuous
 62
     7
370
     9
100
AcDbPolyline
 90
        4
 70
     1
 43
0.2
 10
-0.6791307308329962
 20
-3.324377180280976
 42
0.4142135623731
 10
-0.7791307308329962
 20
-3.224377180280976
 42
0.4142135623731
 10
-0.8791307308329962
 20
-3.324377180280976
 42
0.4142135623731
 10
-0.7791307308329962
 20
-3.424377180280976
 42
0.4142135623731
  0
ARC
  5
2A6
330
81
100
AcDbEntity
  8
0-0_補助線
  6
Continuous
 62
     7
370
     9
100
AcDbCircle
 10
-0.7791307308329962
 20
-3.254377180280983
 30
0.0
 40
0.07
100
AcDbArc
 50
259.2981547751684
 51
79.29815477516837
  0
ARC
  5
2A7
330
81
100
AcDbEntity
  8
0-0_補助線
  6
Continuous
 62
     7
370
     9
100
AcDbCircle
 10
-0.5692916963789258
 20
-2.144031477529182
 30
0.0
 40
1.06
100
AcDbArc
 50
178.9375728139377
 51
259.2981547751684
  0
LINE
  5
2A8
330
81
100
AcDbEntity
  8
0-0_補助線
  6
Continuous
 62
     7
370
     9
100
AcDbLine
 10
-1.929130730832995
 20
3.015622819719027
 30
0.0
 11
-1.929130730832995
 21
-1.924377180280985
 31
0.0
  0
LINE
  5
2A9
330
81
100
AcDbEntity
  8
0-0_補助線
  6
Continuous
 62
     7
370
     9
100
AcDbLine
 10
-1.929130730832995
 20
-1.924377180280985
 30
0.0
 11
-1.969130730832994
 21
-1.924377180280985
 31
0.0
  0
LINE
  5
2AA
330
81
100
AcDbEntity
  8
0-0_補助線
  6
Continuous
 62
     7
370
     9
100
AcDbLine
 10
-1.689130730832993
 20
2.875622819719027
 30
0.0
 11
-1.689130730832993
 21
-1.784377180280984
 31
0.0
  0
LINE
  5
2AB
330
81
100
AcDbEntity
  8
0-0_補助線
  6
Continuous
 62
     7
370
     9
100
AcDbLine
 10
0.0708692691670052
 20
-2.584377180280981
 30
0.0
 11
-0.0881142420878476
 21
-2.584377180280981
 31
0.0
  0
ARC
  5
2AC
330
81
100
AcDbEntity
  8
0-0_補助線
  6
Continuous
 62
     7
370
     9
100
AcDbCircle
 10
-0.0881142420878476
 20
-2.524377180280979
 30
0.0
 40
0.06
100
AcDbArc
 50
193.9281985493309
 51
270.0
  0
ARC
  5
2AD
330
81
100
AcDbEntity
  8
0-0_補助線
  6
Continuous
 62
     7
370
     9
100
AcDbCircle
 10
0.0708692691670052
 20
-2.524377180280979
 30
0.0
 40
0.06
100
AcDbArc
 50
270.0
 51
14.29438185742981
  0
LINE
  5
2AE
330
81
100
AcDbEntity
  8
0-0_補助線
  6
Continuous
 62
     7
370
     9
100
AcDbLine
 10
0.0308692691670061
 20
-2.124377180280973
 30
0.0
 11
0.1290116659424712
 21
-2.509562940604084
 31
0.0
  0
LINE
  5
2AF
330
81
100
AcDbEntity
  8
0-0_補助線
  6
Continuous
 62
     7
370
     9
100
AcDbLine
 10
-0.2378325535497154
 20
-2.169934834753576
 30
0.0
 11
-0.1463501301266419
 21
-2.538819525808378
 31
0.0
  0
LINE
  5
2B0
330
81
100
AcDbEntity
  8
0-0_補助線
  6
Continuous
 62
     7
370
     9
100
AcDbLine
 10
-0.2960684415885098
 20
-2.124377180280973
 30
0.0
 11
-1.769130730832991
 21
-2.124377180280973
 31
0.0
  0
ARC
  5
2B1
330
81
100
AcDbEntity
  8
0-0_補助線
  6
Continuous
 62
     7
370
     9
100
AcDbCircle
 10
-0.2960684415885098
 20
-2.184377180280975
 30
0.0
 40
0.06
100
AcDbArc
 50
13.92819854933141
 51
90.00000000000001
  0
LINE
  5
2B2
330
81
100
AcDbEntity
  8
0-0_補助線
  6
Continuous
 62
     7
370
     9
100
AcDbLine
 10
-0.2491307308329951
 20
2.875622819719027
 30
0.0
 11
-0.2491307308329951
 21
-1.784377180280984
 31
0.0
  0
LINE
  5
2B3
330
81
100
AcDbEntity
  8
0-0_補助線
  6
Continuous
 62
     7
370
     9
100
AcDbLine
 10
0.4308692691670046
 20
-1.559377180280975
 30
0.0
 11
0.4308692691670046
 21
-1.699377180280976
 31
0.0
  0
LINE
  5
2B4
330
81
100
AcDbEntity
  8
0-0_補助線
  6
Continuous
 62
     7
370
     9
100
AcDbLine
 10
0.8308692691670032
 20
-2.119377180280978
 30
0.0
 11
0.8308692691670032
 21
-1.979377180280977
 31
0.0
  0
LINE
  5
2B5
330
81
100
AcDbEntity
  8
0-0_補助線
  6
Continuous
 62
     7
370
     9
100
AcDbLine
 10
0.6308692691670075
 20
-1.699377180280976
 30
0.0
 11
0.5024027720209432
 21
-1.534767462733626
 31
0.0
  0
LINE
  5
2B6
330
81
100
AcDbEntity
  8
0-0_補助線
  6
Continuous
 62
     7
370
     9
100
AcDbLine
 10
1.030869269167006
 20
-1.979377180280977
 30
0.0
 11
0.9024027720209418
 21
-2.143986897828341
 31
0.0
  0
LINE
  5
2B7
330
81
100
AcDbEntity
  8
0-0_補助線
  6
Continuous
 62
     7
370
     9
100
AcDbLine
 10
1.230869269167009
 20
-1.559377180280975
 30
0.0
 11
1.230869269167009
 21
-1.699377180280976
 31
0.0
  0
ARC
  5
2B8
330
81
100
AcDbEntity
  8
0-0_補助線
  6
Continuous
 62
     7
370
     9
100
AcDbCircle
 10
0.8708692691670095
 20
-2.119377180280978
 30
0.0
 40
0.04
100
AcDbArc
 50
180.0
 51
322.0304252330487
  0
ARC
  5
2B9
330
81
100
AcDbEntity
  8
0-0_補助線
  6
Continuous
 62
     7
370
     9
100
AcDbCircle
 10
0.4708692691670038
 20
-1.559377180280975
 30
0.0
 40
0.04
100
AcDbArc
 50
37.96957476694966
 51
180.0
  0
LINE
  5
2BA
330
81
100
AcDbEntity
  8
0-0_補助線
  6
Continuous
 62
     7
370
     9
100
AcDbLine
 10
1.511545229617482
 20
-1.820289200070164
 30
0.0
 11
1.303139653347195
 21
-1.535741988196648
 31
0.0
  0
ARC
  5
2BB
330
81
100
AcDbEntity
  8
0-0_補助線
  6
Continuous
 62
     7
370
     9
100
AcDbCircle
 10
1.270869269167008
 20
-1.559377180280975
 30
0.0
 40
0.04
100
AcDbArc
 50
36.21946651197781
 51
180.0
  0
ARC
  5
2BC
330
81
100
AcDbEntity
  8
0-0_補助線
  6
Continuous
 62
     7
370
     9
100
AcDbCircle
 10
1.430869269167005
 20
-1.879377180280983
 30
0.0
 40
0.1
100
AcDbArc
 50
270.0
 51
36.21946651947422
  0
LINE
  5
2BD
330
81
100
AcDbEntity
  8
0-0_補助線
  6
Continuous
 62
     7
370
     9
100
AcDbLine
 10
0.4308692691670046
 20
2.190622819719025
 30
0.0
 11
0.4308692691670046
 21
2.330622819719025
 31
0.0
  0
LINE
  5
2BE
330
81
100
AcDbEntity
  8
0-0_補助線
  6
Continuous
 62
     7
370
     9
100
AcDbLine
 10
0.8308692691670032
 20
2.750622819719027
 30
0.0
 11
0.8308692691670032
 21
2.610622819719026
 31
0.0
  0
LINE
  5
2BF
330
81
100
AcDbEntity
  8
0-0_補助線
  6
Continuous
 62
     7
370
     9
100
AcDbLine
 10
0.6308692691670075
 20
2.330622819719025
 30
0.0
 11
0.5024027720209432
 21
2.166013102171661
 31
0.0
  0
LINE
  5
2C0
330
81
100
AcDbEntity
  8
0-0_補助線
  6
Continuous
 62
     7
370
     9
100
AcDbLine
 10
1.030869269167006
 20
2.610622819719026
 30
0.0
 11
0.9024027720209418
 21
2.775232537266376
 31
0.0
  0
LINE
  5
2C1
330
81
100
AcDbEntity
  8
0-0_補助線
  6
Continuous
 62
     7
370
     9
100
AcDbLine
 10
1.230869269167009
 20
2.190622819719025
 30
0.0
 11
1.230869269167009
 21
2.330622819719025
 31
0.0
  0
ARC
  5
2C2
330
81
100
AcDbEntity
  8
0-0_補助線
  6
Continuous
 62
     7
370
     9
100
AcDbCircle
 10
0.8708692691670095
 20
2.750622819719027
 30
0.0
 40
0.04
100
AcDbArc
 50
37.96957476695127
 51
180.0
  0
ARC
  5
2C3
330
81
100
AcDbEntity
  8
0-0_補助線
  6
Continuous
 62
     7
370
     9
100
AcDbCircle
 10
0.4708692691670038
 20
2.190622819719025
 30
0.0
 40
0.04
100
AcDbArc
 50
180.0
 51
322.0304252330503
  0
LINE
  5
2C4
330
81
100
AcDbEntity
  8
0-0_補助線
  6
Continuous
 62
     7
370
     9
100
AcDbLine
 10
1.511545229617482
 20
2.451534839508213
 30
0.0
 11
1.303139653347195
 21
2.166987627634697
 31
0.0
  0
ARC
  5
2C5
330
81
100
AcDbEntity
  8
0-0_補助線
  6
Continuous
 62
     7
370
     9
100
AcDbCircle
 10
1.270869269167008
 20
2.190622819719025
 30
0.0
 40
0.04
100
AcDbArc
 50
180.0
 51
323.7805334880222
  0
ARC
  5
2C6
330
81
100
AcDbEntity
  8
0-0_補助線
  6
Continuous
 62
     7
370
     9
100
AcDbCircle
 10
1.430869269167005
 20
2.510622819719018
 30
0.0
 40
0.1
100
AcDbArc
 50
323.7805334805258
 51
90.0
  0
LINE
  5
2C7
330
81
100
AcDbEntity
  8
0-0_補助線
  6
Continuous
 62
     7
370
     9
100
AcDbLine
 10
-1.769130730832991
 20
3.175622819719024
 30
0.0
 11
0.1274378116619275
 21
3.175622819719024
 31
0.0
  0
LINE
  5
2C8
330
81
100
AcDbEntity
  8
0-0_補助線
  6
Continuous
 62
     7
370
     9
100
AcDbLine
 10
-1.769130730832991
 20
3.21562281971903
 30
0.0
 11
0.0708692691670052
 21
3.21562281971903
 31
0.0
  0
LINE
  5
2C9
330
81
100
AcDbEntity
  8
0-0_補助線
  6
Continuous
 62
     7
370
     9
100
AcDbLine
 10
1.430869269167005
 20
-1.979377180280977
 30
0.0
 11
1.030869269167006
 21
-1.979377180280977
 31
0.0
  0
LINE
  5
2CA
330
81
100
AcDbEntity
  8
0-0_補助線
  6
Continuous
 62
     7
370
     9
100
AcDbLine
 10
0.8308692691670032
 20
-1.979377180280977
 30
0.0
 11
0.0308692691670061
 21
-1.979377180280977
 31
0.0
  0
LINE
  5
2CB
330
81
100
AcDbEntity
  8
0-0_補助線
  6
Continuous
 62
     7
370
     9
100
AcDbLine
 10
0.0308692691670061
 20
-1.699377180280976
 30
0.0
 11
0.4308692691670046
 21
-1.699377180280976
 31
0.0
  0
LINE
  5
2CC
330
81
100
AcDbEntity
  8
0-0_補助線
  6
Continuous
 62
     7
370
     9
100
AcDbLine
 10
0.6308692691670075
 20
-1.699377180280976
 30
0.0
 11
1.230869269167009
 21
-1.699377180280976
 31
0.0
  0
LINE
  5
2CD
330
81
100
AcDbEntity
  8
0-0_補助線
  6
Continuous
 62
     7
370
     9
100
AcDbLine
 10
0.0308692691670061
 20
2.330622819719025
 30
0.0
 11
0.4308692691670046
 21
2.330622819719025
 31
0.0
  0
LINE
  5
2CE
330
81
100
AcDbEntity
  8
0-0_補助線
  6
Continuous
 62
     7
370
     9
100
AcDbLine
 10
0.6308692691670075
 20
2.330622819719025
 30
0.0
 11
1.230869269167009
 21
2.330622819719025
 31
0.0
  0
LINE
  5
2CF
330
81
100
AcDbEntity
  8
0-0_補助線
  6
Continuous
 62
     7
370
     9
100
AcDbLine
 10
1.430869269167005
 20
2.610622819719026
 30
0.0
 11
1.030869269167006
 21
2.610622819719026
 31
0.0
  0
LINE
  5
2D0
330
81
100
AcDbEntity
  8
0-0_補助線
  6
Continuous
 62
     7
370
     9
100
AcDbLine
 10
0.8308692691670032
 20
2.610622819719026
 30
0.0
 11
0.0308692691670061
 21
2.610622819719026
 31
0.0
  0
LINE
  5
2D1
330
81
100
AcDbEntity
  8
0-0_補助線
  6
Continuous
 62
     7
370
     9
100
AcDbLine
 10
0.0308692691670061
 20
2.610622819719026
 30
0.0
 11
0.1298643253643306
 21
3.144687402750549
 31
0.0
  0
ARC
  5
2D2
330
81
100
AcDbEntity
  8
0-0_補助線
  6
Continuous
 62
     7
370
     9
100
AcDbCircle
 10
0.0708692691670052
 20
3.155622819719028
 30
0.0
 40
0.06
100
AcDbArc
 50
349.4987515888594
 51
90.0
  0
LINE
  5
2D3
330
81
100
AcDbEntity
  8
0-0_補助線
  6
Continuous
 62
     7
370
     9
100
AcDbLine
 10
0.0308692691670061
 20
2.330622819719025
 30
0.0
 11
0.0308692691670061
 21
-1.699377180280976
 31
0.0
  0
LINE
  5
2D4
330
81
100
AcDbEntity
  8
0-0_補助線
  6
Continuous
 62
     7
370
     9
100
AcDbLine
 10
0.0308692691670061
 20
-1.979377180280977
 30
0.0
 11
0.0308692691670061
 21
-2.124377180280973
 31
0.0
  0
ENDBLK
  5
83
330
81
100
AcDbEntity
  8
0
100
AcDbBlockEnd
  0
BLOCK
  5
85
330
84
100
AcDbEntity
  8
0
100
AcDbBlockBegin
  2
01@@SfigorgFlag@@4_0-0_
 70
     0
 10
0.0
 20
0.0
 30
0.0
  3
01@@SfigorgFlag@@4_0-0_
  1

  0
LINE
  5
2D5
330
84
100
AcDbEntity
  8
0-0_補助線
  6
Continuous
 62
     7
370
     9
100
AcDbLine
 10
2.295000000000044
 20
0.0292483078921251
 30
0.0
 11
2.400000000000063
 21
0.0292483078921251
 31
0.0
  0
LINE
  5
2D6
330
84
100
AcDbEntity
  8
0-0_補助線
  6
Continuous
 62
     7
370
     9
100
AcDbLine
 10
1.875000000000057
 20
0.4292483078921272
 30
0.0
 11
2.015000000000072
 21
0.4292483078921272
 31
0.0
  0
LINE
  5
2D7
330
84
100
AcDbEntity
  8
0-0_補助線
  6
Continuous
 62
     7
370
     9
100
AcDbLine
 10
2.435000000000059
 20
0.8292483078921258
 30
0.0
 11
2.295000000000044
 21
0.8292483078921258
 31
0.0
  0
LINE
  5
2D8
330
84
100
AcDbEntity
  8
0-0_補助線
  6
Continuous
 62
     7
370
     9
100
AcDbLine
 10
2.015000000000072
 20
0.6292483078921265
 30
0.0
 11
1.850390282452707
 21
0.5007818107460622
 31
0.0
  0
LINE
  5
2D9
330
84
100
AcDbEntity
  8
0-0_補助線
  6
Continuous
 62
     7
370
     9
100
AcDbLine
 10
2.295000000000044
 20
1.029248307892125
 30
0.0
 11
2.459609717547409
 21
0.9007818107460608
 31
0.0
  0
LINE
  5
2DA
330
84
100
AcDbEntity
  8
0-0_補助線
  6
Continuous
 62
     7
370
     9
100
AcDbLine
 10
1.875000000000057
 20
1.229248307892128
 30
0.0
 11
2.015000000000072
 21
1.229248307892128
 31
0.0
  0
ARC
  5
2DB
330
84
100
AcDbEntity
  8
0-0_補助線
  6
Continuous
 62
     7
370
     9
100
AcDbCircle
 10
2.435000000000059
 20
0.8692483078921249
 30
0.0
 40
0.04
100
AcDbArc
 50
270.0
 51
52.0304252330488
  0
ARC
  5
2DC
330
84
100
AcDbEntity
  8
0-0_補助線
  6
Continuous
 62
     7
370
     9
100
AcDbCircle
 10
1.875000000000057
 20
0.4692483078921228
 30
0.0
 40
0.04
100
AcDbArc
 50
127.9695747669497
 51
270.0
  0
LINE
  5
2DD
330
84
100
AcDbEntity
  8
0-0_補助線
  6
Continuous
 62
     7
370
     9
100
AcDbLine
 10
2.135912019789231
 20
1.509924268342598
 30
0.0
 11
1.851364807915729
 21
1.301518692072314
 31
0.0
  0
ARC
  5
2DE
330
84
100
AcDbEntity
  8
0-0_補助線
  6
Continuous
 62
     7
370
     9
100
AcDbCircle
 10
1.875000000000057
 20
1.269248307892124
 30
0.0
 40
0.04
100
AcDbArc
 50
126.2194665119778
 51
270.0
  0
ARC
  5
2DF
330
84
100
AcDbEntity
  8
0-0_補助線
  6
Continuous
 62
     7
370
     9
100
AcDbCircle
 10
2.19500000000005
 20
1.429248307892124
 30
0.0
 40
0.1
100
AcDbArc
 50
0.0
 51
126.2194665194743
  0
LINE
  5
2E0
330
84
100
AcDbEntity
  8
0-0_補助線
  6
Continuous
 62
     7
370
     9
100
AcDbLine
 10
-1.874999999999943
 20
0.4292483078921272
 30
0.0
 11
-2.01499999999993
 21
0.4292483078921272
 31
0.0
  0
LINE
  5
2E1
330
84
100
AcDbEntity
  8
0-0_補助線
  6
Continuous
 62
     7
370
     9
100
AcDbLine
 10
-2.434999999999945
 20
0.8292483078921258
 30
0.0
 11
-2.294999999999931
 21
0.8292483078921258
 31
0.0
  0
LINE
  5
2E2
330
84
100
AcDbEntity
  8
0-0_補助線
  6
Continuous
 62
     7
370
     9
100
AcDbLine
 10
-2.01499999999993
 20
0.6292483078921265
 30
0.0
 11
-1.850390282452594
 21
0.5007818107460622
 31
0.0
  0
LINE
  5
2E3
330
84
100
AcDbEntity
  8
0-0_補助線
  6
Continuous
 62
     7
370
     9
100
AcDbLine
 10
-2.294999999999931
 20
1.029248307892125
 30
0.0
 11
-2.459609717547295
 21
0.9007818107460643
 31
0.0
  0
LINE
  5
2E4
330
84
100
AcDbEntity
  8
0-0_補助線
  6
Continuous
 62
     7
370
     9
100
AcDbLine
 10
-1.874999999999943
 20
1.229248307892128
 30
0.0
 11
-2.01499999999993
 21
1.229248307892128
 31
0.0
  0
ARC
  5
2E5
330
84
100
AcDbEntity
  8
0-0_補助線
  6
Continuous
 62
     7
370
     9
100
AcDbCircle
 10
-2.434999999999945
 20
0.8692483078921249
 30
0.0
 40
0.04
100
AcDbArc
 50
127.9695747669513
 51
270.0
  0
ARC
  5
2E6
330
84
100
AcDbEntity
  8
0-0_補助線
  6
Continuous
 62
     7
370
     9
100
AcDbCircle
 10
-1.874999999999943
 20
0.4692483078921263
 30
0.0
 40
0.04
100
AcDbArc
 50
270.0
 51
52.03042523305033
  0
LINE
  5
2E7
330
84
100
AcDbEntity
  8
0-0_補助線
  6
Continuous
 62
     7
370
     9
100
AcDbLine
 10
-2.135912019789117
 20
1.509924268342598
 30
0.0
 11
-1.851364807915616
 21
1.301518692072317
 31
0.0
  0
ARC
  5
2E8
330
84
100
AcDbEntity
  8
0-0_補助線
  6
Continuous
 62
     7
370
     9
100
AcDbCircle
 10
-1.874999999999943
 20
1.269248307892124
 30
0.0
 40
0.04
100
AcDbArc
 50
270.0
 51
53.78053348802219
  0
ARC
  5
2E9
330
84
100
AcDbEntity
  8
0-0_補助線
  6
Continuous
 62
     7
370
     9
100
AcDbCircle
 10
-2.194999999999936
 20
1.429248307892124
 30
0.0
 40
0.1
100
AcDbArc
 50
53.78053348052574
 51
180.0
  0
LINE
  5
2EA
330
84
100
AcDbEntity
  8
0-0_補助線
  6
Continuous
 62
     7
370
     9
100
AcDbLine
 10
2.295000000000044
 20
1.429248307892124
 30
0.0
 11
2.295000000000044
 21
1.029248307892125
 31
0.0
  0
LINE
  5
2EB
330
84
100
AcDbEntity
  8
0-0_補助線
  6
Continuous
 62
     7
370
     9
100
AcDbLine
 10
2.295000000000044
 20
0.8292483078921258
 30
0.0
 11
2.295000000000044
 21
0.0292483078921251
 31
0.0
  0
LINE
  5
2EC
330
84
100
AcDbEntity
  8
0-0_補助線
  6
Continuous
 62
     7
370
     9
100
AcDbLine
 10
2.015000000000072
 20
0.0292483078921251
 30
0.0
 11
2.015000000000072
 21
0.4292483078921272
 31
0.0
  0
LINE
  5
2ED
330
84
100
AcDbEntity
  8
0-0_補助線
  6
Continuous
 62
     7
370
     9
100
AcDbLine
 10
2.015000000000072
 20
0.6292483078921265
 30
0.0
 11
2.015000000000072
 21
1.229248307892128
 31
0.0
  0
LINE
  5
2EE
330
84
100
AcDbEntity
  8
0-0_補助線
  6
Continuous
 62
     7
370
     9
100
AcDbLine
 10
-2.01499999999993
 20
0.0292483078921286
 30
0.0
 11
-2.01499999999993
 21
0.4292483078921272
 31
0.0
  0
LINE
  5
2EF
330
84
100
AcDbEntity
  8
0-0_補助線
  6
Continuous
 62
     7
370
     9
100
AcDbLine
 10
-2.01499999999993
 20
0.6292483078921265
 30
0.0
 11
-2.01499999999993
 21
1.229248307892128
 31
0.0
  0
LINE
  5
2F0
330
84
100
AcDbEntity
  8
0-0_補助線
  6
Continuous
 62
     7
370
     9
100
AcDbLine
 10
-2.294999999999931
 20
1.429248307892124
 30
0.0
 11
-2.294999999999931
 21
1.029248307892125
 31
0.0
  0
LINE
  5
2F1
330
84
100
AcDbEntity
  8
0-0_補助線
  6
Continuous
 62
     7
370
     9
100
AcDbLine
 10
-2.294999999999931
 20
0.8292483078921258
 30
0.0
 11
-2.294999999999931
 21
0.0292483078921286
 31
0.0
  0
LINE
  5
2F2
330
84
100
AcDbEntity
  8
0-0_補助線
  6
Continuous
 62
     7
370
     9
100
AcDbLine
 10
-2.01499999999993
 20
0.0292483078921286
 30
0.0
 11
2.015000000000072
 21
0.0292483078921251
 31
0.0
  0
ARC
  5
2F3
330
84
100
AcDbEntity
  8
0-0_補助線
  6
Continuous
 62
     7
370
     9
100
AcDbCircle
 10
2.060000000000059
 20
-1.630751692107875
 30
0.0
 40
0.06
100
AcDbArc
 50
270.0
 51
0.0
  0
LINE
  5
2F4
330
84
100
AcDbEntity
  8
0-0_補助線
  6
Continuous
 62
     7
370
     9
100
AcDbLine
 10
2.120000000000061
 20
-0.3107516921078783
 30
0.0
 11
2.120000000000061
 21
-1.630751692107875
 31
0.0
  0
ARC
  5
2F5
330
84
100
AcDbEntity
  8
0-0_補助線
  6
Continuous
 62
     7
370
     9
100
AcDbCircle
 10
2.060000000000059
 20
-0.3107516921078783
 30
0.0
 40
0.06
100
AcDbArc
 50
0.0
 51
90.0
  0
ARC
  5
2F6
330
84
100
AcDbEntity
  8
0-0_補助線
  6
Continuous
 62
     7
370
     9
100
AcDbCircle
 10
2.200000000000045
 20
-1.770751692107872
 30
0.0
 40
0.2
100
AcDbArc
 50
270.0
 51
0.0
  0
LINE
  5
2F7
330
84
100
AcDbEntity
  8
0-0_補助線
  6
Continuous
 62
     7
370
     9
100
AcDbLine
 10
2.400000000000063
 20
-0.2976894028633943
 30
0.0
 11
2.400000000000063
 21
-1.770751692107872
 31
0.0
  0
ARC
  5
2F8
330
84
100
AcDbEntity
  8
0-0_補助線
  6
Continuous
 62
     7
370
     9
100
AcDbCircle
 10
2.460000000000065
 20
-0.2976894028633943
 30
0.0
 40
0.06
100
AcDbArc
 50
103.9281985493314
 51
180.0
  0
LINE
  5
2F9
330
84
100
AcDbEntity
  8
0-0_補助線
  6
Continuous
 62
     7
370
     9
100
AcDbLine
 10
2.900000000000063
 20
0.0692483078921242
 30
0.0
 11
2.900000000000063
 21
-0.0897352033627286
 31
0.0
  0
LINE
  5
2FA
330
84
100
AcDbEntity
  8
0-0_補助線
  6
Continuous
 62
     7
370
     9
100
AcDbLine
 10
2.853095847616288
 20
-0.1482885873401969
 30
0.0
 11
2.446904152383837
 21
-0.2391360188859224
 31
0.0
  0
LINE
  5
2FB
330
84
100
AcDbEntity
  8
0-0_補助線
  6
Continuous
 62
     7
370
     9
100
AcDbLine
 10
2.400000000000063
 20
0.0292483078921251
 30
0.0
 11
2.826503425747205
 21
0.1277106246734299
 31
0.0
  0
ARC
  5
2FC
330
84
100
AcDbEntity
  8
0-0_補助線
  6
Continuous
 62
     7
370
     9
100
AcDbCircle
 10
2.84000000000006
 20
-0.0897352033627286
 30
0.0
 40
0.06
100
AcDbArc
 50
282.6070972495236
 51
0.0
  0
ARC
  5
2FD
330
84
100
AcDbEntity
  8
0-0_補助線
  6
Continuous
 62
     7
370
     9
100
AcDbCircle
 10
2.84000000000006
 20
0.0692483078921242
 30
0.0
 40
0.06
100
AcDbArc
 50
0.0
 51
102.9995207492461
  0
ARC
  5
2FE
330
84
100
AcDbEntity
  8
0-0_補助線
  6
Continuous
 62
     7
370
     9
100
AcDbCircle
 10
2.200000000000045
 20
-1.770751692107872
 30
0.0
 40
0.16
100
AcDbArc
 50
270.0
 51
0.0
  0
LINE
  5
2FF
330
84
100
AcDbEntity
  8
0-0_補助線
  6
Continuous
 62
     7
370
     9
100
AcDbLine
 10
2.36000000000007
 20
-0.2976894028633943
 30
0.0
 11
2.36000000000007
 21
-1.770751692107872
 31
0.0
  0
ARC
  5
300
330
84
100
AcDbEntity
  8
0-0_補助線
  6
Continuous
 62
     7
370
     9
100
AcDbCircle
 10
2.460000000000065
 20
-0.2976894028633943
 30
0.0
 40
0.1
100
AcDbArc
 50
103.9281985493314
 51
180.0
  0
LINE
  5
301
330
84
100
AcDbEntity
  8
0-0_補助線
  6
Continuous
 62
     7
370
     9
100
AcDbLine
 10
2.84436528254048
 20
-0.1092529980215105
 30
0.0
 11
2.438173587308029
 21
-0.2001004295672359
 31
0.0
  0
ARC
  5
302
330
84
100
AcDbEntity
  8
0-0_補助線
  6
Continuous
 62
     7
370
     9
100
AcDbCircle
 10
2.84000000000006
 20
-0.0897352033627286
 30
0.0
 40
0.02
100
AcDbArc
 50
282.6070972495236
 51
0.0
  0
LINE
  5
303
330
84
100
AcDbEntity
  8
0-0_補助線
  6
Continuous
 62
     7
370
     9
100
AcDbLine
 10
2.86000000000007
 20
0.0692483078921242
 30
0.0
 11
2.86000000000007
 21
-0.0897352033627286
 31
0.0
  0
ARC
  5
304
330
84
100
AcDbEntity
  8
0-0_補助線
  6
Continuous
 62
     7
370
     9
100
AcDbCircle
 10
2.84000000000006
 20
0.0692483078921242
 30
0.0
 40
0.02
100
AcDbArc
 50
0.0
 51
102.9995207492461
  0
LINE
  5
305
330
84
100
AcDbEntity
  8
0-0_補助線
  6
Continuous
 62
     7
370
     9
100
AcDbLine
 10
2.408997716168614
 20
-0.0097265699620763
 30
0.0
 11
2.835501141915785
 21
0.0887357468192285
 31
0.0
  0
LINE
  5
306
330
84
100
AcDbEntity
  8
0-0_補助線
  6
Continuous
 62
     7
370
     9
100
AcDbLine
 10
2.408997716168614
 20
-0.0097265699620763
 30
0.0
 11
2.398644954364528
 21
0.0289104630894848
 31
0.0
  0
LINE
  5
307
330
84
100
AcDbEntity
  8
0-0_補助線
  6
Continuous
 62
     7
370
     9
100
AcDbLine
 10
-2.294999999999931
 20
0.0292483078921286
 30
0.0
 11
-2.399999999999949
 21
0.0292483078921286
 31
0.0
  0
ARC
  5
308
330
84
100
AcDbEntity
  8
0-0_補助線
  6
Continuous
 62
     7
370
     9
100
AcDbCircle
 10
-2.059999999999945
 20
-1.630751692107875
 30
0.0
 40
0.06
100
AcDbArc
 50
180.0
 51
270.0
  0
LINE
  5
309
330
84
100
AcDbEntity
  8
0-0_補助線
  6
Continuous
 62
     7
370
     9
100
AcDbLine
 10
-2.119999999999948
 20
-0.3107516921078748
 30
0.0
 11
-2.119999999999948
 21
-1.630751692107875
 31
0.0
  0
ARC
  5
30A
330
84
100
AcDbEntity
  8
0-0_補助線
  6
Continuous
 62
     7
370
     9
100
AcDbCircle
 10
-2.059999999999945
 20
-0.3107516921078748
 30
0.0
 40
0.06
100
AcDbArc
 50
90.0
 51
180.0
  0
ARC
  5
30B
330
84
100
AcDbEntity
  8
0-0_補助線
  6
Continuous
 62
     7
370
     9
100
AcDbCircle
 10
-2.199999999999932
 20
-1.770751692107872
 30
0.0
 40
0.2
100
AcDbArc
 50
180.0
 51
270.0
  0
LINE
  5
30C
330
84
100
AcDbEntity
  8
0-0_補助線
  6
Continuous
 62
     7
370
     9
100
AcDbLine
 10
-2.399999999999949
 20
-0.2976894028633943
 30
0.0
 11
-2.399999999999949
 21
-1.770751692107872
 31
0.0
  0
ARC
  5
30D
330
84
100
AcDbEntity
  8
0-0_補助線
  6
Continuous
 62
     7
370
     9
100
AcDbCircle
 10
-2.459999999999951
 20
-0.2976894028633943
 30
0.0
 40
0.06
100
AcDbArc
 50
0.0
 51
76.0718014506686
  0
LINE
  5
30E
330
84
100
AcDbEntity
  8
0-0_補助線
  6
Continuous
 62
     7
370
     9
100
AcDbLine
 10
-2.899999999999949
 20
0.0692483078921242
 30
0.0
 11
-2.899999999999949
 21
-0.0897352033627286
 31
0.0
  0
LINE
  5
30F
330
84
100
AcDbEntity
  8
0-0_補助線
  6
Continuous
 62
     7
370
     9
100
AcDbLine
 10
-2.853095847616174
 20
-0.1482885873401933
 30
0.0
 11
-2.446904152383723
 21
-0.2391360188859224
 31
0.0
  0
LINE
  5
310
330
84
100
AcDbEntity
  8
0-0_補助線
  6
Continuous
 62
     7
370
     9
100
AcDbLine
 10
-2.399999999999949
 20
0.0292483078921286
 30
0.0
 11
-2.826503425747092
 21
0.1277106246734299
 31
0.0
  0
ARC
  5
311
330
84
100
AcDbEntity
  8
0-0_補助線
  6
Continuous
 62
     7
370
     9
100
AcDbCircle
 10
-2.839999999999947
 20
-0.0897352033627286
 30
0.0
 40
0.06
100
AcDbArc
 50
180.0
 51
257.3929027504764
  0
ARC
  5
312
330
84
100
AcDbEntity
  8
0-0_補助線
  6
Continuous
 62
     7
370
     9
100
AcDbCircle
 10
-2.839999999999947
 20
0.0692483078921242
 30
0.0
 40
0.06
100
AcDbArc
 50
77.00047925075384
 51
180.0
  0
ARC
  5
313
330
84
100
AcDbEntity
  8
0-0_補助線
  6
Continuous
 62
     7
370
     9
100
AcDbCircle
 10
-2.199999999999932
 20
-1.770751692107872
 30
0.0
 40
0.16
100
AcDbArc
 50
180.0
 51
270.0
  0
LINE
  5
314
330
84
100
AcDbEntity
  8
0-0_補助線
  6
Continuous
 62
     7
370
     9
100
AcDbLine
 10
-2.359999999999928
 20
-0.2976894028633943
 30
0.0
 11
-2.359999999999928
 21
-1.770751692107872
 31
0.0
  0
ARC
  5
315
330
84
100
AcDbEntity
  8
0-0_補助線
  6
Continuous
 62
     7
370
     9
100
AcDbCircle
 10
-2.459999999999951
 20
-0.2976894028633943
 30
0.0
 40
0.1
100
AcDbArc
 50
0.0
 51
76.0718014506686
  0
LINE
  5
316
330
84
100
AcDbEntity
  8
0-0_補助線
  6
Continuous
 62
     7
370
     9
100
AcDbLine
 10
-2.844365282540366
 20
-0.1092529980215069
 30
0.0
 11
-2.438173587307915
 21
-0.2001004295672359
 31
0.0
  0
ARC
  5
317
330
84
100
AcDbEntity
  8
0-0_補助線
  6
Continuous
 62
     7
370
     9
100
AcDbCircle
 10
-2.839999999999947
 20
-0.0897352033627286
 30
0.0
 40
0.02
100
AcDbArc
 50
180.0
 51
257.3929027504764
  0
LINE
  5
318
330
84
100
AcDbEntity
  8
0-0_補助線
  6
Continuous
 62
     7
370
     9
100
AcDbLine
 10
-2.859999999999957
 20
0.0692483078921242
 30
0.0
 11
-2.859999999999957
 21
-0.0897352033627286
 31
0.0
  0
ARC
  5
319
330
84
100
AcDbEntity
  8
0-0_補助線
  6
Continuous
 62
     7
370
     9
100
AcDbCircle
 10
-2.839999999999947
 20
0.0692483078921242
 30
0.0
 40
0.02
100
AcDbArc
 50
77.00047925075384
 51
180.0
  0
LINE
  5
31A
330
84
100
AcDbEntity
  8
0-0_補助線
  6
Continuous
 62
     7
370
     9
100
AcDbLine
 10
-2.4089977161685
 20
-0.0097265699620763
 30
0.0
 11
-2.835501141915671
 21
0.0887357468192285
 31
0.0
  0
LINE
  5
31B
330
84
100
AcDbEntity
  8
0-0_補助線
  6
Continuous
 62
     7
370
     9
100
AcDbLine
 10
-2.4089977161685
 20
-0.0097265699620763
 30
0.0
 11
-2.398644954364414
 21
0.0289104630894848
 31
0.0
  0
LINE
  5
31C
330
84
100
AcDbEntity
  8
0-0_補助線
  6
Continuous
 62
     7
370
     9
100
AcDbLine
 10
-2.059999999999945
 20
-0.2507516921078725
 30
0.0
 11
2.060000000000059
 21
-0.2507516921078761
 31
0.0
  0
LINE
  5
31D
330
84
100
AcDbEntity
  8
0-0_補助線
  6
Continuous
 62
     7
370
     9
100
AcDbLine
 10
-2.059999999999945
 20
-1.690751692107877
 30
0.0
 11
2.060000000000059
 21
-1.690751692107877
 31
0.0
  0
LINE
  5
31E
330
84
100
AcDbEntity
  8
0-0_補助線
  6
Continuous
 62
     7
370
     9
100
AcDbLine
 10
-2.199999999999932
 20
-1.930751692107876
 30
0.0
 11
2.200000000000045
 21
-1.930751692107876
 31
0.0
  0
LINE
  5
31F
330
84
100
AcDbEntity
  8
0-0_補助線
  6
Continuous
 62
     7
370
     9
100
AcDbLine
 10
2.200000000000045
 20
-1.970751692107875
 30
0.0
 11
-2.199999999999932
 21
-1.970751692107875
 31
0.0
  0
ENDBLK
  5
86
330
84
100
AcDbEntity
  8
0
100
AcDbBlockEnd
  0
ENDSEC
  0
SECTION
  2
ENTITIES
  0
LINE
  5
87
330
1F
100
AcDbEntity
  8
0-3_仕上げ
  6
Continuous
 62
    40
370
    15
100
AcDbLine
 10
-1416.795562716419
 20
-3159.000609939163
 30
0.0
 11
-2802.632011253206
 21
-3159.000609939163
 31
0.0
  0
LINE
  5
88
330
1F
100
AcDbEntity
  8
0-3_仕上げ
  6
Continuous
 62
    40
370
    15
100
AcDbLine
 10
-1416.795562716419
 20
-3087.000609939163
 30
0.0
 11
-2802.632011253206
 21
-3087.000609939163
 31
0.0
  0
LINE
  5
89
330
1F
100
AcDbEntity
  8
0-3_仕上げ
  6
Continuous
 62
     7
370
     9
100
AcDbLine
 10
-1416.795562716419
 20
-3150.000609939162
 30
0.0
 11
-2802.632011253206
 21
-3150.000609939162
 31
0.0
  0
LINE
  5
8A
330
1F
100
AcDbEntity
  8
0-3_仕上げ
  6
Continuous
 62
     7
370
     9
100
AcDbLine
 10
-1416.795562716419
 20
-3141.000609939162
 30
0.0
 11
-2802.632011253206
 21
-3141.000609939162
 31
0.0
  0
LINE
  5
8B
330
1F
100
AcDbEntity
  8
0-3_仕上げ
  6
Continuous
 62
     7
370
     9
100
AcDbLine
 10
-1416.795562716419
 20
-3132.000609939163
 30
0.0
 11
-2802.632011253206
 21
-3132.000609939163
 31
0.0
  0
LINE
  5
8C
330
1F
100
AcDbEntity
  8
0-3_仕上げ
  6
Continuous
 62
     7
370
     9
100
AcDbLine
 10
-1416.795562716419
 20
-3123.000609939163
 30
0.0
 11
-2802.632011253206
 21
-3123.000609939163
 31
0.0
  0
LINE
  5
8D
330
1F
100
AcDbEntity
  8
0-3_仕上げ
  6
Continuous
 62
     7
370
     9
100
AcDbLine
 10
-1416.795562716419
 20
-3114.000609939163
 30
0.0
 11
-2802.632011253206
 21
-3114.000609939163
 31
0.0
  0
LINE
  5
8E
330
1F
100
AcDbEntity
  8
0-3_仕上げ
  6
Continuous
 62
     7
370
     9
100
AcDbLine
 10
-1416.795562716419
 20
-3105.000609939163
 30
0.0
 11
-2802.632011253206
 21
-3105.000609939163
 31
0.0
  0
LINE
  5
8F
330
1F
100
AcDbEntity
  8
0-3_仕上げ
  6
Continuous
 62
     7
370
     9
100
AcDbLine
 10
-1416.795562716419
 20
-3096.000609939162
 30
0.0
 11
-2802.632011253206
 21
-3096.000609939162
 31
0.0
  0
LWPOLYLINE
  5
90
330
1F
100
AcDbEntity
  8
0-B_寸法
  6
Continuous
 62
     7
370
     9
100
AcDbPolyline
 90
        4
 70
     1
 43
6.0
 10
-873.7955626911144
 20
-3087.000609939163
 42
0.4142135623731
 10
-876.7955626911145
 20
-3084.000609939164
 42
0.4142135623731
 10
-879.7955626911145
 20
-3087.000609939163
 42
0.4142135623731
 10
-876.7955626911145
 20
-3090.000609939163
 42
0.4142135623731
  0
LWPOLYLINE
  5
91
330
1F
100
AcDbEntity
  8
0-B_寸法
  6
Continuous
 62
     7
370
     9
100
AcDbPolyline
 90
        4
 70
     1
 43
6.0
 10
-693.7955626911144
 20
-3087.000609939163
 42
0.4142135623731
 10
-696.7955626911145
 20
-3084.000609939164
 42
0.4142135623731
 10
-699.7955626911145
 20
-3087.000609939163
 42
0.4142135623731
 10
-696.7955626911145
 20
-3090.000609939163
 42
0.4142135623731
  0
LWPOLYLINE
  5
92
330
1F
100
AcDbEntity
  8
0-B_寸法
  6
Continuous
 62
     7
370
     9
100
AcDbPolyline
 90
        4
 70
     1
 43
6.0
 10
-1053.795562691114
 20
-3087.000609939163
 42
0.4142135623731
 10
-1056.795562691114
 20
-3084.000609939164
 42
0.4142135623731
 10
-1059.795562691115
 20
-3087.000609939163
 42
0.4142135623731
 10
-1056.795562691114
 20
-3090.000609939163
 42
0.4142135623731
  0
LINE
  5
93
330
1F
100
AcDbEntity
  8
0-B_寸法
  6
Continuous
 62
   120
370
     5
100
AcDbLine
 10
-696.7955626911145
 20
-3087.000609939163
 30
0.0
 11
-1416.795562691114
 21
-3087.000609939163
 31
0.0
  0
LWPOLYLINE
  5
94
330
1F
100
AcDbEntity
  8
0-B_寸法
  6
Continuous
 62
     7
370
     9
100
AcDbPolyline
 90
        4
 70
     1
 43
6.0
 10
-1053.795562691114
 20
-483.0004039455109
 42
0.4142135623731
 10
-1056.795562691114
 20
-480.0004039455109
 42
0.4142135623731
 10
-1059.795562691115
 20
-483.0004039455109
 42
0.4142135623731
 10
-1056.795562691114
 20
-486.0004039455109
 42
0.4142135623731
  0
LINE
  5
95
330
1F
100
AcDbEntity
  8
0-B_寸法
  6
Continuous
 62
   120
370
     5
100
AcDbLine
 10
-1056.795562691114
 20
-483.0004039455109
 30
0.0
 11
-1056.795562691114
 21
-3087.000609939163
 31
0.0
  0
LWPOLYLINE
  5
96
330
1F
100
AcDbEntity
  8
0-B_寸法
  6
Continuous
 62
     7
370
     9
100
AcDbPolyline
 90
        4
 70
     1
 43
6.0
 10
-2417.93869551642
 20
-791.5303936315856
 42
0.4142135623731
 10
-2420.93869551642
 20
-788.5303936315856
 42
0.4142135623731
 10
-2423.93869551642
 20
-791.5303936315856
 42
0.4142135623731
 10
-2420.93869551642
 20
-794.5303936315858
 42
0.4142135623731
  0
LWPOLYLINE
  5
97
330
1F
100
AcDbEntity
  8
0-B_寸法
  6
Continuous
 62
     7
370
     9
100
AcDbPolyline
 90
        4
 70
     1
 43
6.0
 10
-1787.93869551642
 20
-791.5303936315856
 42
0.4142135623731
 10
-1790.93869551642
 20
-788.5303936315856
 42
0.4142135623731
 10
-1793.93869551642
 20
-791.5303936315856
 42
0.4142135623731
 10
-1790.93869551642
 20
-794.5303936315858
 42
0.4142135623731
  0
LINE
  5
98
330
1F
100
AcDbEntity
  8
0-B_寸法
  6
Continuous
 62
   120
370
     5
100
AcDbLine
 10
-2420.93869551642
 20
-791.5303936315856
 30
0.0
 11
-2420.93869551642
 21
-584.3982548079837
 31
0.0
  0
LINE
  5
99
330
1F
100
AcDbEntity
  8
0-B_寸法
  6
Continuous
 62
   120
370
     5
100
AcDbLine
 10
-2420.93869551642
 20
-791.5303936315856
 30
0.0
 11
-1790.93869551642
 21
-791.5303936315856
 31
0.0
  0
LINE
  5
9A
330
1F
100
AcDbEntity
  8
0-B_寸法
  6
Continuous
 62
   120
370
     5
100
AcDbLine
 10
-1790.93869551642
 20
-791.5303936315856
 30
0.0
 11
-1790.93869551642
 21
-584.3982548079837
 31
0.0
  0
LINE
  5
9B
330
1F
100
AcDbEntity
  8
0-C_ハッチ
  6
JWW_DASHED1
 62
   120
370
     5
100
AcDbLine
 10
-1873.907378943316
 20
-339.0004039455101
 30
0.0
 11
-1835.938695516416
 21
-301.0317205186111
 31
0.0
  0
LINE
  5
9C
330
1F
100
AcDbEntity
  8
0-C_ハッチ
  6
JWW_DASHED1
 62
   120
370
     5
100
AcDbLine
 10
-1910.938695516416
 20
-333.6053136474179
 30
0.0
 11
-1835.93869551642
 21
-258.6053136474213
 31
0.0
  0
LINE
  5
9D
330
1F
100
AcDbEntity
  8
0-C_ハッチ
  6
JWW_DASHED1
 62
   120
370
     5
100
AcDbLine
 10
-1910.938695516416
 20
-291.1789067762192
 30
0.0
 11
-1835.938695516423
 21
-216.1789067762247
 31
0.0
  0
LINE
  5
9E
330
1F
100
AcDbEntity
  8
0-C_ハッチ
  6
JWW_DASHED1
 62
   120
370
     5
100
AcDbLine
 10
-2312.729888882354
 20
-339.0004039455101
 30
0.0
 11
-2300.938695516411
 21
-327.2092105795678
 31
0.0
  0
LINE
  5
9F
330
1F
100
AcDbEntity
  8
0-C_ハッチ
  6
JWW_DASHED1
 62
   120
370
     5
100
AcDbLine
 10
-2355.156295753548
 20
-339.0004039455101
 30
0.0
 11
-2300.938695516411
 21
-284.7828037083746
 31
0.0
  0
LINE
  5
A0
330
1F
100
AcDbEntity
  8
0-C_ハッチ
  6
JWW_DASHED1
 62
   120
370
     5
100
AcDbLine
 10
-2375.938695516411
 20
-317.3563968371814
 30
0.0
 11
-2300.938695516421
 21
-242.356396837192
 31
0.0
  0
LINE
  5
A1
330
1F
100
AcDbEntity
  8
0-C_ハッチ
  6
JWW_DASHED1
 62
   120
370
     5
100
AcDbLine
 10
-2375.938695516411
 20
-274.9299899659813
 30
0.0
 11
-2300.938695516425
 21
-199.9299899659962
 31
0.0
  0
LINE
  5
A2
330
1F
100
AcDbEntity
  8
0-C_ハッチ
  6
JWW_DASHED1
 62
   120
370
     5
100
AcDbLine
 10
-2375.93869551642
 20
106.9076718747544
 30
0.0
 11
-2300.938695516421
 21
181.9076718747519
 31
0.0
  0
LINE
  5
A3
330
1F
100
AcDbEntity
  8
0-C_ハッチ
  6
JWW_DASHED1
 62
   120
370
     5
100
AcDbLine
 10
-2375.938695516416
 20
64.48126500355784
 30
0.0
 11
-2300.938695516418
 21
139.4812650035561
 31
0.0
  0
LINE
  5
A4
330
1F
100
AcDbEntity
  8
0-C_ハッチ
  6
JWW_DASHED1
 62
   120
370
     5
100
AcDbLine
 10
-2375.938695516415
 20
22.05485813236123
 30
0.0
 11
-2300.938695516418
 21
97.05485813235782
 31
0.0
  0
LINE
  5
A5
330
1F
100
AcDbEntity
  8
0-C_ハッチ
  6
JWW_DASHED1
 62
   120
370
     5
100
AcDbLine
 10
-2375.938695516408
 20
-20.37154873877739
 30
0.0
 11
-2300.938695516411
 21
54.6284512612192
 31
0.0
  0
LINE
  5
A6
330
1F
100
AcDbEntity
  8
0-C_ハッチ
  6
JWW_DASHED1
 62
   120
370
     5
100
AcDbLine
 10
-2375.938695516405
 20
-62.797955609974
 30
0.0
 11
-2300.938695516408
 21
12.20204439002259
 31
0.0
  0
LINE
  5
A7
330
1F
100
AcDbEntity
  8
0-C_ハッチ
  6
JWW_DASHED1
 62
   120
370
     5
100
AcDbLine
 10
-2375.938695516418
 20
-105.2243624811877
 30
0.0
 11
-2300.938695516405
 21
-30.22436248117572
 31
0.0
  0
LINE
  5
A8
330
1F
100
AcDbEntity
  8
0-C_ハッチ
  6
JWW_DASHED1
 62
   120
370
     5
100
AcDbLine
 10
-2375.938695516418
 20
-147.6507693523894
 30
0.0
 11
-2300.938695516408
 21
-72.65076935237829
 31
0.0
  0
LINE
  5
A9
330
1F
100
AcDbEntity
  8
0-C_ハッチ
  6
JWW_DASHED1
 62
   120
370
     5
100
AcDbLine
 10
-2375.938695516415
 20
-190.0771762235851
 30
0.0
 11
-2300.93869551642
 21
-115.0771762235911
 31
0.0
  0
LINE
  5
AA
330
1F
100
AcDbEntity
  8
0-C_ハッチ
  6
JWW_DASHED1
 62
   120
370
     5
100
AcDbLine
 10
-2375.938695516425
 20
-232.5035830947962
 30
0.0
 11
-2300.938695516428
 21
-157.5035830947988
 31
0.0
  0
LINE
  5
AB
330
1F
100
AcDbEntity
  8
0-C_ハッチ
  6
JWW_DASHED1
 62
   120
370
     5
100
AcDbLine
 10
-1910.93869551642
 20
90.65875506446929
 30
0.0
 11
-1835.938695516423
 21
165.658755064465
 31
0.0
  0
LINE
  5
AC
330
1F
100
AcDbEntity
  8
0-C_ハッチ
  6
JWW_DASHED1
 62
   120
370
     5
100
AcDbLine
 10
-1910.938695516413
 20
48.23234819333067
 30
0.0
 11
-1835.938695516416
 21
123.2323481933264
 31
0.0
  0
LINE
  5
AD
330
1F
100
AcDbEntity
  8
0-C_ハッチ
  6
JWW_DASHED1
 62
   120
370
     5
100
AcDbLine
 10
-1910.93869551641
 20
5.805941322133208
 30
0.0
 11
-1835.938695516413
 21
80.80594132213065
 31
0.0
  0
LINE
  5
AE
330
1F
100
AcDbEntity
  8
0-C_ハッチ
  6
JWW_DASHED1
 62
   120
370
     5
100
AcDbLine
 10
-1910.938695516408
 20
-36.6204655490651
 30
0.0
 11
-1835.938695516411
 21
38.37953445093234
 31
0.0
  0
LINE
  5
AF
330
1F
100
AcDbEntity
  8
0-C_ハッチ
  6
JWW_DASHED1
 62
   120
370
     5
100
AcDbLine
 10
-1910.938695516422
 20
-79.0468724202762
 30
0.0
 11
-1835.938695516408
 21
-4.046872420265117
 31
0.0
  0
LINE
  5
B0
330
1F
100
AcDbEntity
  8
0-C_ハッチ
  6
JWW_DASHED1
 62
   120
370
     5
100
AcDbLine
 10
-1910.938695516423
 20
-121.4732792914788
 30
0.0
 11
-1835.938695516413
 21
-46.47327929146854
 31
0.0
  0
LINE
  5
B1
330
1F
100
AcDbEntity
  8
0-C_ハッチ
  6
JWW_DASHED1
 62
   120
370
     5
100
AcDbLine
 10
-1910.938695516432
 20
-163.8996861626873
 30
0.0
 11
-1835.938695516433
 21
-88.89968616268987
 31
0.0
  0
LINE
  5
B2
330
1F
100
AcDbEntity
  8
0-C_ハッチ
  6
JWW_DASHED1
 62
   120
370
     5
100
AcDbLine
 10
-1910.938695516428
 20
-206.3260930338861
 30
0.0
 11
-1835.938695516432
 21
-131.3260930338899
 31
0.0
  0
LINE
  5
B3
330
1F
100
AcDbEntity
  8
0-C_ハッチ
  6
JWW_DASHED1
 62
   120
370
     5
100
AcDbLine
 10
-1910.938695516427
 20
-248.7524999050827
 30
0.0
 11
-1835.93869551643
 21
-173.7524999050861
 31
0.0
  0
LINE
  5
B4
330
1F
100
AcDbEntity
  8
0-3_仕上げ
  6
Continuous
 62
     7
370
     9
100
AcDbLine
 10
-2300.938695516411
 20
-271.4047818959561
 30
0.0
 11
-1910.938695516416
 21
-3.00040394551047
 31
0.0
  0
LINE
  5
B5
330
1F
100
AcDbEntity
  8
0-3_仕上げ
  6
Continuous
 62
    92
370
    13
100
AcDbLine
 10
-2300.938695516423
 20
-273.0004039455109
 30
0.0
 11
-1910.938695516416
 21
-273.0004039455109
 31
0.0
  0
LINE
  5
B6
330
1F
100
AcDbEntity
  8
0-3_仕上げ
  6
Continuous
 62
    92
370
    13
100
AcDbLine
 10
-2300.938695516423
 20
-3.00040394551047
 30
0.0
 11
-1910.938695516416
 21
-3.00040394551047
 31
0.0
  0
LWPOLYLINE
  5
B7
330
1F
100
AcDbEntity
  8
0-B_寸法
  6
Continuous
 62
     7
370
     9
100
AcDbPolyline
 90
        4
 70
     1
 43
6.0
 10
-873.7955626911144
 20
-339.0004039455101
 42
0.4142135623731
 10
-876.7955626911145
 20
-336.0004039455101
 42
0.4142135623731
 10
-879.7955626911145
 20
-339.0004039455101
 42
0.4142135623731
 10
-876.7955626911145
 20
-342.0004039455101
 42
0.4142135623731
  0
LWPOLYLINE
  5
B8
330
1F
100
AcDbEntity
  8
0-B_寸法
  6
Continuous
 62
     7
370
     9
100
AcDbPolyline
 90
        4
 70
     1
 43
6.0
 10
-873.7955626911144
 20
-483.0004039455109
 42
0.4142135623731
 10
-876.7955626911145
 20
-480.0004039455109
 42
0.4142135623731
 10
-879.7955626911145
 20
-483.0004039455109
 42
0.4142135623731
 10
-876.7955626911145
 20
-486.0004039455109
 42
0.4142135623731
  0
LWPOLYLINE
  5
B9
330
1F
100
AcDbEntity
  8
0-B_寸法
  6
Continuous
 62
     7
370
     9
100
AcDbPolyline
 90
        4
 70
     1
 43
6.0
 10
-693.7955626911144
 20
-339.0004039455101
 42
0.4142135623731
 10
-696.7955626911145
 20
-336.0004039455101
 42
0.4142135623731
 10
-699.7955626911145
 20
-339.0004039455101
 42
0.4142135623731
 10
-696.7955626911145
 20
-342.0004039455101
 42
0.4142135623731
  0
LWPOLYLINE
  5
BA
330
1F
100
AcDbEntity
  8
0-B_寸法
  6
Continuous
 62
     7
370
     9
100
AcDbPolyline
 90
        4
 70
     1
 43
6.0
 10
-1053.795562691114
 20
-501.0004039455103
 42
0.4142135623731
 10
-1056.795562691114
 20
-498.0004039455102
 42
0.4142135623731
 10
-1059.795562691115
 20
-501.0004039455103
 42
0.4142135623731
 10
-1056.795562691114
 20
-504.0004039455104
 42
0.4142135623731
  0
LINE
  5
BB
330
1F
100
AcDbEntity
  8
0-B_寸法
  6
Continuous
 62
   120
370
     5
100
AcDbLine
 10
-696.7955626911145
 20
-339.0004039455101
 30
0.0
 11
-1416.795562691114
 21
-339.0004039455101
 31
0.0
  0
LINE
  5
BC
330
1F
100
AcDbEntity
  8
0-B_寸法
  6
Continuous
 62
   120
370
     5
100
AcDbLine
 10
-1056.795562691114
 20
-501.0004039455103
 30
0.0
 11
-1416.795562691114
 21
-501.0004039455103
 31
0.0
  0
LINE
  5
BD
330
1F
100
AcDbEntity
  8
0-B_寸法
  6
Continuous
 62
   120
370
     5
100
AcDbLine
 10
-876.7955626911145
 20
-483.0004039455109
 30
0.0
 11
-1416.795562691114
 21
-483.0004039455109
 31
0.0
  0
LINE
  5
BE
330
1F
100
AcDbEntity
  8
0-4_枠
  6
Continuous
 62
   120
370
     5
100
AcDbLine
 10
-2420.93869551642
 20
-339.0004039455101
 30
0.0
 11
-2444.93869551642
 21
-339.0004039455101
 31
0.0
  0
LINE
  5
BF
330
1F
100
AcDbEntity
  8
0-4_枠
  6
Continuous
 62
   120
370
     5
100
AcDbLine
 10
-1790.93869551642
 20
-339.0004039455101
 30
0.0
 11
-1766.938695516418
 21
-339.0004039455101
 31
0.0
  0
LWPOLYLINE
  5
C0
330
1F
100
AcDbEntity
  8
0-B_寸法
  6
Continuous
 62
     7
370
     9
100
AcDbPolyline
 90
        4
 70
     1
 43
6.0
 10
-1053.795562691114
 20
-3057.000609939163
 42
0.4142135623731
 10
-1056.795562691114
 20
-3054.000609939164
 42
0.4142135623731
 10
-1059.795562691115
 20
-3057.000609939163
 42
0.4142135623731
 10
-1056.795562691114
 20
-3060.000609939163
 42
0.4142135623731
  0
LINE
  5
C1
330
1F
100
AcDbEntity
  8
0-B_寸法
  6
Continuous
 62
   120
370
     5
100
AcDbLine
 10
-1056.795562691114
 20
-3057.000609939163
 30
0.0
 11
-1416.795562691114
 21
-3057.000609939163
 31
0.0
  0
LINE
  5
C2
330
1F
100
AcDbEntity
  8
0-C_ハッチ
  6
Continuous
 62
   120
370
     5
100
AcDbLine
 10
-2243.761890125655
 20
-339.0004039455101
 30
0.0
 11
-2102.761833600123
 21
-480.0008388209999
 31
0.0
  0
LINE
  5
C3
330
1F
100
AcDbEntity
  8
0-C_ハッチ
  6
Continuous
 62
   120
370
     5
100
AcDbLine
 10
-2057.93869551642
 20
-456.9424309600819
 30
0.0
 11
-2034.880453646776
 21
-480.0008388209986
 31
0.0
  0
LINE
  5
C4
330
1F
100
AcDbEntity
  8
0-C_ハッチ
  6
Continuous
 62
   120
370
     5
100
AcDbLine
 10
-2175.879873498086
 20
-339.0004039455101
 30
0.0
 11
-2080.138695516419
 21
-434.7422711471077
 31
0.0
  0
LINE
  5
C5
330
1F
100
AcDbEntity
  8
0-4_枠
  6
Continuous
 62
    92
370
    13
100
AcDbLine
 10
-1795.181336203539
 20
-483.0004039455109
 30
0.0
 11
-2057.93869551642
 21
-483.0004039455109
 31
0.0
  0
LINE
  5
C6
330
1F
100
AcDbEntity
  8
0-4_枠
  6
Continuous
 62
    92
370
    13
100
AcDbLine
 10
-2057.93869551642
 20
-480.0008388209986
 30
0.0
 11
-1796.424411766146
 21
-480.0008388209986
 31
0.0
  0
LINE
  5
C7
330
1F
100
AcDbEntity
  8
0-4_枠
  6
Continuous
 62
    92
370
    13
100
AcDbLine
 10
-2213.93869812514
 20
-480.0006614124143
 30
0.0
 11
-2415.452976726268
 21
-480.0008366589205
 31
0.0
  0
LINE
  5
C8
330
1F
100
AcDbEntity
  8
0-4_枠
  6
Continuous
 62
    92
370
    13
100
AcDbLine
 10
-2416.696053010849
 20
-483.0004003086053
 30
0.0
 11
-2213.938695516572
 21
-483.0002264996624
 31
0.0
  0
LINE
  5
C9
330
1F
100
AcDbEntity
  8
0-C_ハッチ
  6
Continuous
 62
   120
370
     5
100
AcDbLine
 10
-2311.644190805735
 20
-339.0004039455101
 30
0.0
 11
-2213.93869551642
 21
-436.7060209787715
 31
0.0
  0
LINE
  5
CA
330
1F
100
AcDbEntity
  8
0-4_枠
  6
Continuous
 62
    92
370
    13
100
AcDbLine
 10
-2191.73869551642
 20
-483.0004039455109
 30
0.0
 11
-2080.138695516419
 21
-483.0004039455109
 31
0.0
  0
LINE
  5
CB
330
1F
100
AcDbEntity
  8
0-4_枠
  6
Continuous
 62
    92
370
    13
100
AcDbLine
 10
-2213.93869551642
 20
-432.00040394551
 30
0.0
 11
-2191.73869551642
 21
-432.00040394551
 31
0.0
  0
LINE
  5
CC
330
1F
100
AcDbEntity
  8
0-4_枠
  6
Continuous
 62
    92
370
    13
100
AcDbLine
 10
-2080.138695516419
 20
-432.00040394551
 30
0.0
 11
-2057.93869551642
 21
-432.00040394551
 31
0.0
  0
LINE
  5
CD
330
1F
100
AcDbEntity
  8
0-4_枠
  6
Continuous
 62
    92
370
    13
100
AcDbLine
 10
-2057.93869551642
 20
-432.00040394551
 30
0.0
 11
-2057.93869551642
 21
-483.0004039455109
 31
0.0
  0
LINE
  5
CE
330
1F
100
AcDbEntity
  8
0-4_枠
  6
Continuous
 62
    92
370
    13
100
AcDbLine
 10
-2080.138695516419
 20
-483.0004039455109
 30
0.0
 11
-2080.138695516419
 21
-432.00040394551
 31
0.0
  0
LINE
  5
CF
330
1F
100
AcDbEntity
  8
0-4_枠
  6
Continuous
 62
    92
370
    13
100
AcDbLine
 10
-2191.73869551642
 20
-483.0004039455109
 30
0.0
 11
-2191.73869551642
 21
-432.00040394551
 31
0.0
  0
LINE
  5
D0
330
1F
100
AcDbEntity
  8
0-4_枠
  6
Continuous
 62
    92
370
    13
100
AcDbLine
 10
-2213.93869551642
 20
-483.0004039455109
 30
0.0
 11
-2213.93869551642
 21
-432.00040394551
 31
0.0
  0
LINE
  5
D1
330
1F
100
AcDbEntity
  8
0-4_枠
  6
Continuous
 62
    92
370
    13
100
AcDbLine
 10
-1793.938855733705
 20
-477.5152827885568
 30
0.0
 11
-1793.938855733705
 21
-342.00040394551
 31
0.0
  0
LINE
  5
D2
330
1F
100
AcDbEntity
  8
0-4_枠
  6
Continuous
 62
    92
370
    13
100
AcDbLine
 10
-1796.424411766146
 20
-480.0008388209986
 30
0.0
 11
-1793.938855733705
 21
-477.5152827885568
 31
0.0
  0
LINE
  5
D3
330
1F
100
AcDbEntity
  8
0-4_枠
  6
Continuous
 62
    92
370
    13
100
AcDbLine
 10
-2417.939130391907
 20
-477.514685124477
 30
0.0
 11
-2417.939130391907
 21
-342.00040394551
 31
0.0
  0
LINE
  5
D4
330
1F
100
AcDbEntity
  8
0-4_枠
  6
Continuous
 62
    92
370
    13
100
AcDbLine
 10
-2415.452976726268
 20
-480.0008366589205
 30
0.0
 11
-2417.939130391907
 21
-477.514685124477
 31
0.0
  0
LINE
  5
D5
330
1F
100
AcDbEntity
  8
0-4_枠
  6
Continuous
 62
    92
370
    13
100
AcDbLine
 10
-1795.181336203539
 20
-483.0004039455109
 30
0.0
 11
-1790.93869551642
 21
-478.757763258391
 31
0.0
  0
LINE
  5
D6
330
1F
100
AcDbEntity
  8
0-4_枠
  6
Continuous
 62
    92
370
    13
100
AcDbLine
 10
-1790.93869551642
 20
-478.757763258391
 30
0.0
 11
-1790.93869551642
 21
-339.0004039455101
 31
0.0
  0
LINE
  5
D7
330
1F
100
AcDbEntity
  8
0-4_枠
  6
Continuous
 62
    92
370
    13
100
AcDbLine
 10
-2416.696053010849
 20
-483.0004003086053
 30
0.0
 11
-2420.93869551642
 21
-478.7577614399382
 31
0.0
  0
LINE
  5
D8
330
1F
100
AcDbEntity
  8
0-4_枠
  6
Continuous
 62
    92
370
    13
100
AcDbLine
 10
-2420.93869551642
 20
-478.7577614399382
 30
0.0
 11
-2420.93869551642
 21
-339.0004039455101
 31
0.0
  0
LINE
  5
D9
330
1F
100
AcDbEntity
  8
0-C_ハッチ
  6
Continuous
 62
   120
370
     5
100
AcDbLine
 10
-2107.99462939634
 20
-339.0004039455101
 30
0.0
 11
-1966.997270192933
 21
-480.0008388209986
 31
0.0
  0
LINE
  5
DA
330
1F
100
AcDbEntity
  8
0-C_ハッチ
  6
Continuous
 62
   120
370
     5
100
AcDbLine
 10
-2040.114808380237
 20
-339.0004039455101
 30
0.0
 11
-1899.114820089173
 21
-480.0008388209986
 31
0.0
  0
LINE
  5
DB
330
1F
100
AcDbEntity
  8
0-C_ハッチ
  6
Continuous
 62
   120
370
     5
100
AcDbLine
 10
-1972.232595027554
 20
-339.0004039455101
 30
0.0
 11
-1831.232381429505
 21
-480.0008388209986
 31
0.0
  0
LINE
  5
DC
330
1F
100
AcDbEntity
  8
0-C_ハッチ
  6
Continuous
 62
   120
370
     5
100
AcDbLine
 10
-1904.350706855699
 20
-339.0004039455101
 30
0.0
 11
-1793.938855733705
 21
-449.4123836208033
 31
0.0
  0
LINE
  5
DD
330
1F
100
AcDbEntity
  8
0-C_ハッチ
  6
Continuous
 62
   120
370
     5
100
AcDbLine
 10
-2417.939130391907
 20
-368.4703646238032
 30
0.0
 11
-2306.408296193909
 21
-480.0008388209986
 31
0.0
  0
LINE
  5
DE
330
1F
100
AcDbEntity
  8
0-C_ハッチ
  6
Continuous
 62
   120
370
     5
100
AcDbLine
 10
-2417.939130391907
 20
-436.352304913726
 30
0.0
 11
-2374.290151204896
 21
-480.0008388209986
 31
0.0
  0
LINE
  5
DF
330
1F
100
AcDbEntity
  8
0-4_枠
  6
Continuous
 62
    92
370
    13
100
AcDbLine
 10
-1850.93869551642
 20
-342.00040394551
 30
0.0
 11
-1850.93869551642
 21
-339.0004039455101
 31
0.0
  0
LINE
  5
E0
330
1F
100
AcDbEntity
  8
0-C_ハッチ
  6
Continuous
 62
   120
370
     5
100
AcDbLine
 10
-1833.468554520943
 20
-342.00040394551
 30
0.0
 11
-1793.938855733705
 21
-381.5301487574554
 31
0.0
  0
LINE
  5
E1
330
1F
100
AcDbEntity
  8
0-4_枠
  6
Continuous
 62
    92
370
    13
100
AcDbLine
 10
-1850.93869551642
 20
-342.00040394551
 30
0.0
 11
-1793.938855733705
 21
-342.00040394551
 31
0.0
  0
LINE
  5
E2
330
1F
100
AcDbEntity
  8
0-4_枠
  6
Continuous
 62
    92
370
    13
100
AcDbLine
 10
-2360.93869551642
 20
-342.00040394551
 30
0.0
 11
-2417.939130391907
 21
-342.00040394551
 31
0.0
  0
LINE
  5
E3
330
1F
100
AcDbEntity
  8
0-4_枠
  6
Continuous
 62
    92
370
    13
100
AcDbLine
 10
-1790.93869551642
 20
-339.0004039455101
 30
0.0
 11
-2420.93869551642
 21
-339.0004039455101
 31
0.0
  0
LINE
  5
E4
330
1F
100
AcDbEntity
  8
0-4_枠
  6
Continuous
 62
    92
370
    13
100
AcDbLine
 10
-2360.93869551642
 20
-339.0004039455101
 30
0.0
 11
-2360.93869551642
 21
-342.00040394551
 31
0.0
  0
LINE
  5
E5
330
1F
100
AcDbEntity
  8
0-C_ハッチ
  6
Continuous
 62
   120
370
     5
100
AcDbLine
 10
-2376.526671248853
 20
-342.0004039455096
 30
0.0
 11
-2238.525857534242
 21
-480.0008388209986
 31
0.0
  0
LINE
  5
E6
330
1F
100
AcDbEntity
  8
0-4_枠
  6
Continuous
 62
    92
370
    13
100
AcDbLine
 10
-2191.73869551642
 20
-480.0008388209999
 30
0.0
 11
-2080.138695516419
 21
-480.0008388209999
 31
0.0
  0
LINE
  5
E7
330
1F
100
AcDbEntity
  8
0-1_通り芯
  6
JWW_CENTER1
 62
   120
370
     5
100
AcDbLine
 10
-2795.081828316418
 20
-3159.00040394551
 30
0.0
 11
-582.7955626911141
 21
-3159.00040394551
 31
0.0
  0
LINE
  5
E8
330
1F
100
AcDbEntity
  8
0-0_補助線
  6
JWW_HOJO
 62
   120
370
     5
100
AcDbLine
 10
-2570.93869551642
 20
-1710.000252311293
 30
0.0
 11
-1640.938695516418
 21
-1710.000252311293
 31
0.0
  0
LINE
  5
E9
330
1F
100
AcDbEntity
  8
0-0_補助線
  6
JWW_HOJO
 62
   120
370
     5
100
AcDbLine
 10
-2570.93869551642
 20
-1830.000252311293
 30
0.0
 11
-1640.938695516418
 21
-1830.000252311293
 31
0.0
  0
LINE
  5
EA
330
1F
100
AcDbEntity
  8
0-4_枠
  6
Continuous
 62
   120
370
     5
100
AcDbLine
 10
-1766.938695516418
 20
-339.0004039455101
 30
0.0
 11
-1766.938695516418
 21
-1710.000252311293
 31
0.0
  0
LINE
  5
EB
330
1F
100
AcDbEntity
  8
0-4_枠
  6
Continuous
 62
   120
370
     5
100
AcDbLine
 10
-2444.93869551642
 20
-339.0004039455101
 30
0.0
 11
-2444.93869551642
 21
-1710.000252311293
 31
0.0
  0
LINE
  5
EC
330
1F
100
AcDbEntity
  8
0-4_枠
  6
Continuous
 62
   120
370
     5
100
AcDbLine
 10
-2444.93869551642
 20
-1830.000252311293
 30
0.0
 11
-2444.93869551642
 21
-3087.000609939163
 31
0.0
  0
LINE
  5
ED
330
1F
100
AcDbEntity
  8
0-4_枠
  6
Continuous
 62
   120
370
     5
100
AcDbLine
 10
-1766.938695516418
 20
-1830.000252311293
 30
0.0
 11
-1766.938695516418
 21
-3087.000609939163
 31
0.0
  0
LINE
  5
EE
330
1F
100
AcDbEntity
  8
0-1_通り芯
  6
JWW_CENTER1
 62
   120
370
     5
100
AcDbLine
 10
-2795.081828316418
 20
-339.000403945508
 30
0.0
 11
-582.7955626911141
 21
-339.000403945508
 31
0.0
  0
LINE
  5
EF
330
1F
100
AcDbEntity
  8
0-B_寸法
  6
Continuous
 62
   120
370
     5
100
AcDbLine
 10
-876.7955626911145
 20
-339.0004039455101
 30
0.0
 11
-876.7955626911145
 21
-3087.000609939163
 31
0.0
  0
LINE
  5
F0
330
1F
100
AcDbEntity
  8
0-B_寸法
  6
Continuous
 62
   120
370
     5
100
AcDbLine
 10
-696.7955626911145
 20
-3159.000403945512
 30
0.0
 11
-1416.795562691114
 21
-3159.000403945512
 31
0.0
  0
LWPOLYLINE
  5
F1
330
1F
100
AcDbEntity
  8
0-B_寸法
  6
Continuous
 62
     7
370
     9
100
AcDbPolyline
 90
        4
 70
     1
 43
6.0
 10
-693.7955626911144
 20
-3159.000403945512
 42
0.4142135623731
 10
-696.7955626911145
 20
-3156.000403945512
 42
0.4142135623731
 10
-699.7955626911145
 20
-3159.000403945512
 42
0.4142135623731
 10
-696.7955626911145
 20
-3162.000403945512
 42
0.4142135623731
  0
LINE
  5
F2
330
1F
100
AcDbEntity
  8
0-B_寸法
  6
Continuous
 62
   120
370
     5
100
AcDbLine
 10
-696.7955626911145
 20
-339.0004039455101
 30
0.0
 11
-696.7955626911145
 21
-3159.000403945512
 31
0.0
  0
LINE
  5
F3
330
1F
100
AcDbEntity
  8
0-0_補助線
  6
JWW_HOJO
 62
   120
370
     5
100
AcDbLine
 10
-2795.081828316418
 20
194.9998020481422
 30
0.0
 11
-2795.081828316418
 21
-3159.000403945512
 31
0.0
  0
LINE
  5
F4
330
1F
100
AcDbEntity
  8
0-C_ハッチ
  6
JWW_DASHED1
 62
   120
370
     5
100
AcDbLine
 10
-2375.938695516418
 20
149.3340787459553
 30
0.0
 11
-2330.272972214232
 21
194.9998020481422
 31
0.0
  0
LINE
  5
F5
330
1F
100
AcDbEntity
  8
0-C_ハッチ
  6
JWW_DASHED1
 62
   120
370
     5
100
AcDbLine
 10
-1910.938695516423
 20
175.5115688068668
 30
0.0
 11
-1891.450462275148
 21
194.9998020481422
 31
0.0
  0
LINE
  5
F6
330
1F
100
AcDbEntity
  8
0-C_ハッチ
  6
JWW_DASHED1
 62
   120
370
     5
100
AcDbLine
 10
-1910.938695516423
 20
133.085161935665
 30
0.0
 11
-1849.024055403947
 21
194.9998020481422
 31
0.0
  0
LINE
  5
F7
330
1F
100
AcDbEntity
  8
0-3_仕上げ
  6
Continuous
 62
    40
370
    15
100
AcDbLine
 10
-1835.938695516416
 20
194.9998020481422
 30
0.0
 11
-1835.938695516416
 21
-339.0004039455101
 31
0.0
  0
LINE
  5
F8
330
1F
100
AcDbEntity
  8
0-3_仕上げ
  6
Continuous
 62
    40
370
    15
100
AcDbLine
 10
-1910.938695516416
 20
194.9998020481422
 30
0.0
 11
-1910.938695516416
 21
-339.0004039455101
 31
0.0
  0
LINE
  5
F9
330
1F
100
AcDbEntity
  8
0-3_仕上げ
  6
Continuous
 62
    40
370
    15
100
AcDbLine
 10
-2375.938695516411
 20
194.9998020481422
 30
0.0
 11
-2375.938695516411
 21
-339.0004039455101
 31
0.0
  0
LINE
  5
FA
330
1F
100
AcDbEntity
  8
0-3_仕上げ
  6
Continuous
 62
    40
370
    15
100
AcDbLine
 10
-2300.938695516411
 20
194.9998020481422
 30
0.0
 11
-2300.938695516411
 21
-339.0004039455101
 31
0.0
  0
LINE
  5
FB
330
1F
100
AcDbEntity
  8
0-1_通り芯
  6
JWW_CENTER1
 62
   120
370
     5
100
AcDbLine
 10
-2105.93869551642
 20
194.9998020481422
 30
0.0
 11
-2105.93869551642
 21
-3159.000609939163
 31
0.0
  0
LINE
  5
FC
330
1F
100
AcDbEntity
  8
0-C_ハッチ
  6
JWW_DASHED1
 62
   120
370
     5
100
AcDbLine
 10
-2375.938695516408
 20
191.7604856171656
 30
0.0
 11
-2372.699379085431
 21
194.9998020481422
 31
0.0
  0
LINE
  5
FD
330
1F
100
AcDbEntity
  8
0-0_補助線
  6
JWW_HOJO
 62
   120
370
     5
100
AcDbLine
 10
-2795.081828316418
 20
194.9998020481422
 30
0.0
 11
-1416.795562716419
 21
194.9998020481422
 31
0.0
  0
LINE
  5
FE
330
1F
100
AcDbEntity
  8
0-0_補助線
  6
JWW_HOJO
 62
   120
370
     5
100
AcDbLine
 10
-1416.795562716419
 20
194.9998020481422
 30
0.0
 11
-1416.795562716419
 21
-3159.000403945512
 31
0.0
  0
TEXT
  5
FF
330
1F
100
AcDbEntity
  8
0-B_寸法
  6
Continuous
 62
     7
370
     0
100
AcDbText
 10
-908.7155626911144
 20
-471.0004039455103
 30
0.0
 40
91.44
  1
24
 50
90.0
  7
ＭＳ ゴシック
100
AcDbText
  0
TEXT
  5
100
330
1F
100
AcDbEntity
  8
0-B_寸法
  6
Continuous
 62
     7
370
     0
100
AcDbText
 10
-1086.693557250609
 20
-566.3103551559177
 30
0.0
 40
91.44
  1
3
 50
90.0
  7
ＭＳ ゴシック
100
AcDbText
  0
TEXT
  5
101
330
1F
100
AcDbEntity
  8
0-B_寸法
  6
Continuous
 62
     7
370
     0
100
AcDbText
 10
-2195.938695516419
 20
-759.6103936315857
 30
0.0
 40
91.44
  1
105
 41
0.9999999999999906
  7
ＭＳ ゴシック
100
AcDbText
  0
TEXT
  5
102
330
1F
100
AcDbEntity
  8
0-B_寸法
  6
Continuous
 62
     7
370
     0
100
AcDbText
 10
-1088.715562691114
 20
-3053.250609939163
 30
0.0
 40
91.44
  1
5
 50
90.0
  7
ＭＳ ゴシック
100
AcDbText
  0
TEXT
  5
103
330
1F
100
AcDbEntity
  8
0-B_寸法
  6
Continuous
 62
     7
370
     0
100
AcDbText
 10
-728.7155626911144
 20
-3277.708662310047
 30
0.0
 40
91.44
  1
12
 50
90.0
  7
ＭＳ ゴシック
100
AcDbText
  0
LINE
  5
104
330
1F
100
AcDbEntity
  8
0-6_扉
  6
Continuous
 62
   200
370
    20
100
AcDbLine
 10
-2012.938695516418
 20
-501.0004039455086
 30
0.0
 11
-1796.938695516418
 21
-501.0004039455086
 31
0.0
  0
LINE
  5
105
330
1F
100
AcDbEntity
  8
0-6_扉
  6
Continuous
 62
   200
370
    20
100
AcDbLine
 10
-1796.938695516418
 20
-3039.000609939163
 30
0.0
 11
-2012.938695516418
 21
-3039.000609939163
 31
0.0
  0
LINE
  5
106
330
1F
100
AcDbEntity
  8
0-6_扉
  6
Continuous
 62
   200
370
    20
100
AcDbLine
 10
-1796.938695516418
 20
-501.0004039455086
 30
0.0
 11
-1796.938695516418
 21
-1710.000252311293
 31
0.0
  0
LINE
  5
107
330
1F
100
AcDbEntity
  8
0-6_扉
  6
Continuous
 62
   200
370
    20
100
AcDbLine
 10
-2012.938695516418
 20
-501.0004039455086
 30
0.0
 11
-2012.938695516418
 21
-1710.000252311293
 31
0.0
  0
LINE
  5
108
330
1F
100
AcDbEntity
  8
0-6_扉
  6
Continuous
 62
   200
370
    20
100
AcDbLine
 10
-2012.938695516418
 20
-1830.000252311293
 30
0.0
 11
-2012.938695516418
 21
-3039.000609939163
 31
0.0
  0
LINE
  5
109
330
1F
100
AcDbEntity
  8
0-6_扉
  6
Continuous
 62
   200
370
    20
100
AcDbLine
 10
-1796.938695516418
 20
-1830.000252311293
 30
0.0
 11
-1796.938695516418
 21
-3039.000609939163
 31
0.0
  0
LINE
  5
10A
330
1F
100
AcDbEntity
  8
0-0_補助線
  6
JWW_HOJO
 62
   120
370
     5
100
AcDbLine
 10
-1904.938695516418
 20
194.9998020481422
 30
0.0
 11
-1904.938695516418
 21
-3159.000609939163
 31
0.0
  0
INSERT
  5
10B
330
1F
100
AcDbEntity
  8
0-0_補助線
  6
Continuous
 62
     7
370
     9
100
AcDbBlockReference
  2
2@@SfigorgFlag@@4_0-0_
 10
-2126.470010924849
 20
-483.9264820205196
 30
0.0
 41
30.0
 42
30.0
 50
90.0
  0
TEXT
  5
10C
330
1F
100
AcDbEntity
  8
0-B_寸法
  6
Continuous
 62
     7
370
     0
100
AcDbText
 10
-713.7155626911144
 20
-2289.00040394551
 30
0.0
 40
91.44
  1
枠外＝2,027(2,227)
 50
90.0
  7
ＭＳ ゴシック
100
AcDbText
  0
TEXT
  5
10D
330
1F
100
AcDbEntity
  8
0-B_寸法
  6
Continuous
 62
     7
370
   211
100
AcDbText
 10
-893.7155626911144
 20
-2289.00040394551
 30
0.0
 40
91.44
  1
枠内＝2,003(2,203)
 50
90.0
  7
ＭＳ ゴシック
100
AcDbText
  0
TEXT
  5
10E
330
1F
100
AcDbEntity
  8
0-B_寸法
  6
Continuous
 62
     7
370
     0
100
AcDbText
 10
-1073.715562691114
 20
-2289.00040394551
 30
0.0
 40
91.44
  1
ＤＨ＝1,995(2,195)
 50
90.0
  7
ＭＳ ゴシック
100
AcDbText
  0
TEXT
  5
10F
330
1F
100
AcDbEntity
  8
0-B_寸法
  6
Continuous
 62
     7
370
     0
100
AcDbText
 10
-1831.237016026887
 20
-3548.691150126609
 30
0.0
 40
68.58
  1
※(　)内寸法はハイドア
 41
1.151515151515152
  7
ＭＳ ゴシック
100
AcDbText
  0
TEXT
  5
110
330
1F
100
AcDbEntity
  8
0-A_文字
  6
Continuous
 62
     7
370
     9
100
AcDbText
 10
-2826.39135212594
 20
382.9190113464409
 30
0.0
 40
91.44
  1
■縦断面図
 41
1.1
  7
ＭＳ ゴシック
100
AcDbText
  0
LINE
  5
111
330
1F
100
AcDbEntity
  8
F-0_補助線
  6
JWW_HOJO
 62
   120
370
     5
100
AcDbLine
 10
-6140.081333436773
 20
-4455.0
 30
0.0
 11
-6140.081333436773
 21
4424.999604096284
 31
0.0
  0
LINE
  5
112
330
1F
100
AcDbEntity
  8
F-0_補助線
  6
JWW_HOJO
 62
   120
370
     5
100
AcDbLine
 10
-6140.081333436773
 20
4424.999604096284
 30
0.0
 11
6159.917676803936
 21
4424.999604096284
 31
0.0
  0
LINE
  5
113
330
1F
100
AcDbEntity
  8
F-0_補助線
  6
JWW_HOJO
 62
   120
370
     5
100
AcDbLine
 10
6159.917676803936
 20
4424.999604096284
 30
0.0
 11
6159.917676803936
 21
-4455.0
 31
0.0
  0
LINE
  5
114
330
1F
100
AcDbEntity
  8
F-0_補助線
  6
JWW_HOJO
 62
   120
370
     5
100
AcDbLine
 10
6159.917676803936
 20
-4455.0
 30
0.0
 11
-6140.081333436773
 21
-4455.0
 31
0.0
  0
LINE
  5
115
330
1F
100
AcDbEntity
  8
F-0_補助線
  6
JWW_HOJO
 62
     7
370
     9
100
AcDbLine
 10
1009.918254163523
 20
-3795.000003092998
 30
0.0
 11
1009.918254163523
 21
-4195.000008247994
 31
0.0
  0
LINE
  5
116
330
1F
100
AcDbEntity
  8
F-0_補助線
  6
JWW_HOJO
 62
     7
370
     9
100
AcDbLine
 10
509.9185840832865
 20
-3795.000003092998
 30
0.0
 11
509.9185840832865
 21
-4195.000008247994
 31
0.0
  0
LINE
  5
117
330
1F
100
AcDbEntity
  8
F-1_枠
  6
Continuous
 62
   200
370
    20
100
AcDbLine
 10
5859.917429364114
 20
4174.999769056166
 30
0.0
 11
5859.917429364114
 21
-4205.000164959882
 31
0.0
  0
LINE
  5
118
330
1F
100
AcDbEntity
  8
F-1_枠
  6
Continuous
 62
   200
370
    20
100
AcDbLine
 10
-5840.081317971782
 20
4174.999769056166
 30
0.0
 11
-5840.081317971782
 21
-4205.000164959882
 31
0.0
  0
LINE
  5
119
330
1F
100
AcDbEntity
  8
F-1_枠
  6
Continuous
 62
   200
370
    20
100
AcDbLine
 10
5859.917429364114
 20
-4205.000002577498
 30
0.0
 11
-5840.081085996952
 21
-4205.000002577498
 31
0.0
  0
LINE
  5
11A
330
1F
100
AcDbEntity
  8
F-1_枠
  6
Continuous
 62
   200
370
    20
100
AcDbLine
 10
-5830.081323642279
 20
4174.999769056166
 30
0.0
 11
-5830.081323642279
 21
-4205.000164959882
 31
0.0
  0
LINE
  5
11B
330
1F
100
AcDbEntity
  8
F-1_枠
  6
Continuous
 62
   200
370
    20
100
AcDbLine
 10
-5835.081309208291
 20
4174.999769056166
 30
0.0
 11
-5835.081309208291
 21
-4205.000164959882
 31
0.0
  0
LINE
  5
11C
330
1F
100
AcDbEntity
  8
F-1_枠
  6
Continuous
 62
   200
370
    20
100
AcDbLine
 10
5854.917165428304
 20
4174.999769056166
 30
0.0
 11
5854.917165428304
 21
-4205.000164959882
 31
0.0
  0
LINE
  5
11D
330
1F
100
AcDbEntity
  8
F-1_枠
  6
Continuous
 62
   200
370
    20
100
AcDbLine
 10
5849.917643811961
 20
4174.999769056166
 30
0.0
 11
5849.917643811961
 21
-4205.000164959882
 31
0.0
  0
LINE
  5
11E
330
1F
100
AcDbEntity
  8
F-1_枠
  6
Continuous
 62
   200
370
    20
100
AcDbLine
 10
5859.917429364114
 20
-4199.999993814004
 30
0.0
 11
-5840.081085996952
 21
-4199.999993814004
 31
0.0
  0
LINE
  5
11F
330
1F
100
AcDbEntity
  8
F-1_枠
  6
Continuous
 62
   200
370
    20
100
AcDbLine
 10
5859.917429364114
 20
-4195.000008247994
 30
0.0
 11
-5840.081085996952
 21
-4195.000008247994
 31
0.0
  0
LINE
  5
120
330
1F
100
AcDbEntity
  8
F-1_枠
  6
Continuous
 62
   200
370
    20
100
AcDbLine
 10
4349.917891251784
 20
-3795.000003092998
 30
0.0
 11
4349.917891251784
 21
-4195.000008247994
 31
0.0
  0
LINE
  5
121
330
1F
100
AcDbEntity
  8
F-1_枠
  6
Continuous
 62
   200
370
    20
100
AcDbLine
 10
2849.917396372139
 20
-3795.000003092998
 30
0.0
 11
2849.917396372139
 21
-4195.000008247994
 31
0.0
  0
LINE
  5
122
330
1F
100
AcDbEntity
  8
F-1_枠
  6
Continuous
 62
   200
370
    20
100
AcDbLine
 10
9.918542843316231
 20
-3795.000003092998
 30
0.0
 11
9.918542843316231
 21
-4195.000008247994
 31
0.0
  0
LINE
  5
123
330
1F
100
AcDbEntity
  8
F-1_枠
  6
Continuous
 62
   200
370
    20
100
AcDbLine
 10
9.918542843316231
 20
-3994.999936078046
 30
0.0
 11
5849.917643811961
 21
-3995.005364289155
 31
0.0
  0
LINE
  5
124
330
1F
100
AcDbEntity
  8
F-1_枠
  6
Continuous
 62
   200
370
    20
100
AcDbLine
 10
-5840.081085996952
 20
4174.999769056166
 30
0.0
 11
5859.917429364114
 21
4174.999769056166
 31
0.0
  0
LINE
  5
125
330
1F
100
AcDbEntity
  8
F-1_枠
  6
Continuous
 62
   200
370
    20
100
AcDbLine
 10
-5840.081085996952
 20
4164.999983504013
 30
0.0
 11
5859.917429364114
 21
4164.999983504013
 31
0.0
  0
LINE
  5
126
330
1F
100
AcDbEntity
  8
F-1_枠
  6
Continuous
 62
   200
370
    20
100
AcDbLine
 10
-5840.081085996952
 20
4169.999505120355
 30
0.0
 11
5859.917429364114
 21
4169.999505120355
 31
0.0
  0
LINE
  5
127
330
1F
100
AcDbEntity
  8
F-0_補助線
  6
JWW_HOJO
 62
     7
370
     9
100
AcDbLine
 10
-5830.081323642279
 20
-3994.99993607839
 30
0.0
 11
9.918542843316231
 21
-3994.99993607839
 31
0.0
  0
LINE
  5
128
330
1F
100
AcDbEntity
  8
F-0_補助線
  6
JWW_HOJO
 62
     7
370
     9
100
AcDbLine
 10
-5830.081323642279
 20
-3904.99993607839
 30
0.0
 11
9.918542843316231
 21
-3904.99993607839
 31
0.0
  0
LINE
  5
129
330
1F
100
AcDbEntity
  8
F-0_補助線
  6
JWW_HOJO
 62
     7
370
     9
100
AcDbLine
 10
-5830.081323642279
 20
-4084.99993607839
 30
0.0
 11
9.918542843316231
 21
-4084.99993607839
 31
0.0
  0
LINE
  5
12A
330
1F
100
AcDbEntity
  8
F-0_補助線
  6
JWW_HOJO
 62
     7
370
     9
100
AcDbLine
 10
9.918408067688347
 20
-4139.999739777983
 30
0.0
 11
5849.917509036332
 21
-4140.005167989091
 31
0.0
  0
LINE
  5
12B
330
1F
100
AcDbEntity
  8
F-0_補助線
  6
JWW_HOJO
 62
     7
370
     9
100
AcDbLine
 10
9.918491721639953
 20
-4049.999739778022
 30
0.0
 11
5849.917592690284
 21
-4050.005167989131
 31
0.0
  0
LINE
  5
12C
330
1F
100
AcDbEntity
  8
F-0_補助線
  6
JWW_HOJO
 62
     7
370
     9
100
AcDbLine
 10
9.918593965360003
 20
-3939.99973721807
 30
0.0
 11
5849.917694934004
 21
-3940.005165429179
 31
0.0
  0
LINE
  5
12D
330
1F
100
AcDbEntity
  8
F-0_補助線
  6
JWW_HOJO
 62
     7
370
     9
100
AcDbLine
 10
9.918677619311609
 20
-3849.999737218109
 30
0.0
 11
5849.917778587956
 21
-3850.005165429218
 31
0.0
  0
LINE
  5
12E
330
1F
100
AcDbEntity
  8
F-0_補助線
  6
JWW_HOJO
 62
     7
370
     9
100
AcDbLine
 10
2939.917396372139
 20
-3795.000003092998
 30
0.0
 11
2939.917396372139
 21
-4195.000008247994
 31
0.0
  0
LINE
  5
12F
330
1F
100
AcDbEntity
  8
F-0_補助線
  6
JWW_HOJO
 62
     7
370
     9
100
AcDbLine
 10
99.91854284331623
 20
-3795.000003092998
 30
0.0
 11
99.91854284331623
 21
-4195.000008247994
 31
0.0
  0
LINE
  5
130
330
1F
100
AcDbEntity
  8
F-0_補助線
  6
JWW_HOJO
 62
     7
370
     9
100
AcDbLine
 10
4439.917891251784
 20
-3795.000003092998
 30
0.0
 11
4439.917891251784
 21
-4195.000008247994
 31
0.0
  0
LINE
  5
131
330
1F
100
AcDbEntity
  8
F-1_枠
  6
Continuous
 62
   200
370
    20
100
AcDbLine
 10
5859.917429364114
 20
-3795.000003092998
 30
0.0
 11
-5840.081085996952
 21
-3795.000003092998
 31
0.0
  0
LINE
  5
132
330
1F
100
AcDbEntity
  8
F-1_枠
  6
Continuous
 62
   200
370
    20
100
AcDbLine
 10
5859.917429364114
 20
-3790.000017526987
 30
0.0
 11
-5840.081085996952
 21
-3790.000017526987
 31
0.0
  0
LINE
  5
133
330
1F
100
AcDbEntity
  8
F-0_補助線
  6
JWW_HOJO
 62
     7
370
     9
100
AcDbLine
 10
-5087.628710189611
 20
-3795.000003092999
 30
0.0
 11
-5087.628710189611
 21
-4205.000164959882
 31
0.0
  0
LINE
  5
134
330
1F
100
AcDbEntity
  8
F-0_補助線
  6
JWW_HOJO
 62
     7
370
     9
100
AcDbLine
 10
-50.08145715668377
 20
-3795.000003092998
 30
0.0
 11
-50.08145715668377
 21
-4195.000008247994
 31
0.0
  0
TEXT
  5
135
330
1F
100
AcDbEntity
  8
F-0_補助線
  6
Continuous
 62
     7
370
     0
100
AcDbText
 10
509.9185840832865
 20
-3928.097291872503
 30
0.0
 40
66.06
  1
ＳＯＦＴＡＲＴ
 41
1.077453515576899
  7
HGP明朝B
100
AcDbText
  0
TEXT
  5
136
330
1F
100
AcDbEntity
  8
F-0_補助線
  6
Continuous
 62
     7
370
     0
100
AcDbText
 10
1110.209427605311
 20
-3928.097291872503
 30
0.0
 40
68.58
  1
建具納まり図
 41
1.138888888888889
  7
ＭＳ ゴシック
100
AcDbText
  0
TEXT
  5
137
330
1F
100
AcDbEntity
  8
F-A_文字
  6
Continuous
 62
     7
370
     0
100
AcDbText
 10
99.91854284331623
 20
-3871.539820871936
 30
0.0
 40
45.72
  1
図面名
  7
ＭＳ ゴシック
100
AcDbText
  0
TEXT
  5
138
330
1F
100
AcDbEntity
  8
F-A_文字
  6
Continuous
 62
     7
370
     0
100
AcDbText
 10
2939.917396372139
 20
-3871.542460617774
 30
0.0
 40
45.72
  1
ＳＣＡＬＥ
  7
ＭＳ ゴシック
100
AcDbText
  0
TEXT
  5
139
330
1F
100
AcDbEntity
  8
F-A_文字
  6
Continuous
 62
     7
370
     0
100
AcDbText
 10
4439.917891251784
 20
-3871.543854850754
 30
0.0
 40
45.72
  1
ＤＡＴＥ
  7
ＭＳ ゴシック
100
AcDbText
  0
TEXT
  5
13A
330
1F
100
AcDbEntity
  8
F-A_文字
  6
Continuous
 62
     7
370
     0
100
AcDbText
 10
2939.917396372139
 20
-4071.54246317786
 30
0.0
 40
45.72
  1
ＦＩＬＥ
  7
ＭＳ ゴシック
100
AcDbText
  0
TEXT
  5
13B
330
1F
100
AcDbEntity
  8
F-A_文字
  6
Continuous
 62
     7
370
     0
100
AcDbText
 10
4439.917891251784
 20
-4071.543857410839
 30
0.0
 40
45.72
  1
ＮＯ．
  7
ＭＳ ゴシック
100
AcDbText
  0
TEXT
  5
13C
330
1F
100
AcDbEntity
  8
F-A_文字
  6
Continuous
 62
     7
370
     0
100
AcDbText
 10
1394.917396372138
 20
-4080.540669266148
 30
0.0
 40
45.72
  1
株式
  7
ＭＳ ゴシック
100
AcDbText
  0
TEXT
  5
13D
330
1F
100
AcDbEntity
  8
F-A_文字
  6
Continuous
 62
     7
370
     0
100
AcDbText
 10
1604.917396372138
 20
-4138.082379523928
 30
0.0
 40
91.44
  1
ウッドワン・・・
 41
1.109375
  7
ＭＳ ゴシック
100
AcDbText
  0
TEXT
  5
13E
330
1F
100
AcDbEntity
  8
F-A_文字
  6
Continuous
 62
     7
370
     0
100
AcDbText
 10
1394.917396372138
 20
-4152.540669266186
 30
0.0
 40
45.72
  1
会社
  7
ＭＳ ゴシック
100
AcDbText
  0
TEXT
  5
13F
330
1F
100
AcDbEntity
  8
F-A_文字
  6
Continuous
 62
     7
370
     0
100
AcDbText
 10
5768.321977672939
 20
-4291.441419020919
 30
0.0
 40
68.58
  1
）
  7
ＭＳ ゴシック
100
AcDbText
  0
TEXT
  5
140
330
1F
100
AcDbEntity
  8
F-A_文字
  6
Continuous
 62
     7
370
     0
100
AcDbText
 10
5350.114617405298
 20
-4292.835443869856
 30
0.0
 40
68.58
  1
,
  7
ＭＳ ゴシック
100
AcDbText
  0
TEXT
  5
141
330
1F
100
AcDbEntity
  8
F-A_文字
  6
Continuous
 62
     7
370
     0
100
AcDbText
 10
5083.855928478601
 20
-4294.229467288283
 30
0.0
 40
68.58
  1
$y
 41
1.083333333333333
  7
ＭＳ ゴシック
100
AcDbText
  0
TEXT
  5
142
330
1F
100
AcDbEntity
  8
F-A_文字
  6
Continuous
 62
     7
370
     0
100
AcDbText
 10
5238.592649517422
 20
-4294.229467288283
 30
0.0
 40
68.58
  1
$m
 41
1.083333333333333
  7
ＭＳ ゴシック
100
AcDbText
  0
TEXT
  5
143
330
1F
100
AcDbEntity
  8
F-A_文字
  6
Continuous
 62
     7
370
     0
100
AcDbText
 10
5393.32938200033
 20
-4294.229467288283
 30
0.0
 40
68.58
  1
$d
 41
1.083333333333333
  7
ＭＳ ゴシック
100
AcDbText
  0
TEXT
  5
144
330
1F
100
AcDbEntity
  8
F-A_文字
  6
Continuous
 62
     7
370
     0
100
AcDbText
 10
5548.066114483239
 20
-4294.229467288283
 30
0.0
 40
68.58
  1
印刷
 41
1.083333333333333
  7
ＭＳ ゴシック
100
AcDbText
  0
TEXT
  5
145
330
1F
100
AcDbEntity
  8
F-A_文字
  6
Continuous
 62
     7
370
     0
100
AcDbText
 10
4943.952040816226
 20
-4295.623493567732
 30
0.0
 40
68.58
  1
（
  7
ＭＳ ゴシック
100
AcDbText
  0
TEXT
  5
146
330
1F
100
AcDbEntity
  8
F-A_文字
  6
Continuous
 62
     7
370
     0
100
AcDbText
 10
5191.195810375571
 20
-4295.623493567732
 30
0.0
 40
68.58
  1
,
  7
ＭＳ ゴシック
100
AcDbText
  0
TEXT
  5
147
330
1F
100
AcDbEntity
  8
F-A_文字
  6
Continuous
 62
     7
370
     9
100
AcDbText
 10
5096.167700144057
 20
-4127.314512699985
 30
0.0
 40
68.58
  1
01
 41
1.083333333333333
  7
ＭＳ ゴシック
100
AcDbText
  0
TEXT
  5
148
330
1F
100
AcDbEntity
  8
F-A_文字
  6
Continuous
 62
     7
370
     0
100
AcDbText
 10
3569.917643811961
 20
-3927.313115907308
 30
0.0
 40
68.58
  1
1/5
 41
1.111111111111111
  7
ＭＳ ゴシック
100
AcDbText
  0
TEXT
  5
149
330
1F
100
AcDbEntity
  8
F-A_文字
  6
Continuous
 62
     7
370
     0
100
AcDbText
 10
4938.667793092893
 20
-3919.814510139966
 30
0.0
 40
68.58
  1
18.08.31
 41
1.145833333333333
  7
ＭＳ ゴシック
100
AcDbText
  0
TEXT
  5
14A
330
1F
100
AcDbEntity
  8
F-A_文字
  6
Continuous
 62
     7
370
     9
100
AcDbText
 10
3281.167643811961
 20
-4127.313118467413
 30
0.0
 40
68.58
  1
F02(X)-BXXXXK3e_S01
 41
1.157894736842104
  7
ＭＳ ゴシック
100
AcDbText
  0
TEXT
  5
14B
330
1F
100
AcDbEntity
  8
F-A_文字
  6
Continuous
 62
     7
370
     0
100
AcDbText
 10
-5087.628710189611
 20
-4027.30993607839
 30
0.0
 40
68.58
  1
ソフトアート　シングルドア　固定枠113　気密　３方枠　ドアＨ共通　枠外Ｗ共通
 41
1.162222222222222
  7
ＭＳ ゴシック
100
AcDbText
  0
LINE
  5
14C
330
1F
100
AcDbEntity
  8
0-A_文字
  6
Continuous
 62
    92
370
    13
100
AcDbLine
 10
-5659.999495325861
 20
3730.000181455871
 30
0.0
 11
-5659.999495325861
 21
4000.000181455871
 31
0.0
  0
LINE
  5
14D
330
1F
100
AcDbEntity
  8
0-A_文字
  6
Continuous
 62
    92
370
    13
100
AcDbLine
 10
-5659.999495325861
 20
4000.000181455871
 30
0.0
 11
-2242.520838941434
 21
4000.000181455871
 31
0.0
  0
LINE
  5
14E
330
1F
100
AcDbEntity
  8
0-A_文字
  6
Continuous
 62
    92
370
    13
100
AcDbLine
 10
-2242.520838941434
 20
3730.000181455871
 30
0.0
 11
-2242.520838941434
 21
4000.000181455871
 31
0.0
  0
LINE
  5
14F
330
1F
100
AcDbEntity
  8
0-A_文字
  6
Continuous
 62
    92
370
    13
100
AcDbLine
 10
-5659.999495325861
 20
3730.000181455871
 30
0.0
 11
-2242.520838941434
 21
3730.000181455871
 31
0.0
  0
LINE
  5
150
330
1F
100
AcDbEntity
  8
0-A_文字
  6
Continuous
 62
    92
370
    13
100
AcDbLine
 10
-2242.520838941434
 20
4000.000181455871
 30
0.0
 11
-2242.520838941434
 21
3730.000181455871
 31
0.0
  0
LINE
  5
151
330
1F
100
AcDbEntity
  8
0-A_文字
  6
Continuous
 62
    92
370
    13
100
AcDbLine
 10
-2242.520838941434
 20
3730.000181455871
 30
0.0
 11
-2242.520838941434
 21
4000.000181455871
 31
0.0
  0
LINE
  5
152
330
1F
100
AcDbEntity
  8
0-A_文字
  6
Continuous
 62
    92
370
    13
100
AcDbLine
 10
-2242.520838941434
 20
4000.000181455871
 30
0.0
 11
-654.8943594885884
 21
4000.000181455871
 31
0.0
  0
LINE
  5
153
330
1F
100
AcDbEntity
  8
0-A_文字
  6
Continuous
 62
    92
370
    13
100
AcDbLine
 10
-654.8943594885884
 20
4000.000181455871
 30
0.0
 11
-654.8943594885884
 21
3730.000181455871
 31
0.0
  0
LINE
  5
154
330
1F
100
AcDbEntity
  8
0-A_文字
  6
Continuous
 62
    92
370
    13
100
AcDbLine
 10
-2242.520838941434
 20
3730.000181455871
 30
0.0
 11
-654.8943594885884
 21
3730.000181455871
 31
0.0
  0
TEXT
  5
155
330
1F
100
AcDbEntity
  8
0-A_文字
  6
Continuous
 62
    92
370
    13
100
AcDbText
 10
-2133.770838941434
 20
3800.380181455871
 30
0.0
 40
137.16
  1
ドア気密タイプ
 41
1.071428571428571
  7
ＭＳ ゴシック
100
AcDbText
  0
LINE
  5
156
330
1F
100
AcDbEntity
  8
0-A_文字
  6
Continuous
 62
    92
370
    13
100
AcDbLine
 10
-2242.520838941434
 20
4000.000181455871
 30
0.0
 11
-2242.520838941434
 21
3730.000181455871
 31
0.0
  0
LINE
  5
157
330
1F
100
AcDbEntity
  8
0-A_文字
  6
Continuous
 62
    92
370
    13
100
AcDbLine
 10
-669.8943594885884
 20
3985.000181455871
 30
0.0
 11
-669.8943594885884
 21
3745.000181455871
 31
0.0
  0
LINE
  5
158
330
1F
100
AcDbEntity
  8
0-A_文字
  6
Continuous
 62
    92
370
    13
100
AcDbLine
 10
-2227.520838941434
 20
3745.000181455871
 30
0.0
 11
-669.8943594885884
 21
3745.000181455871
 31
0.0
  0
LINE
  5
159
330
1F
100
AcDbEntity
  8
0-A_文字
  6
Continuous
 62
    92
370
    13
100
AcDbLine
 10
-2227.520838941434
 20
3985.000181455871
 30
0.0
 11
-669.8943594885884
 21
3985.000181455871
 31
0.0
  0
LINE
  5
15A
330
1F
100
AcDbEntity
  8
0-A_文字
  6
Continuous
 62
    92
370
    13
100
AcDbLine
 10
-2227.520838941434
 20
3985.000181455871
 30
0.0
 11
-2227.520838941434
 21
3745.000181455871
 31
0.0
  0
TEXT
  5
15B
330
1F
100
AcDbEntity
  8
0-A_文字
  6
Continuous
 62
    92
370
    13
100
AcDbText
 10
-5551.249495325861
 20
3800.380181455871
 30
0.0
 40
137.16
  1
シングルドア　３方枠[固定枠113巾]
 41
1.080808080808081
  7
ＭＳ ゴシック
100
AcDbText
  0
LINE
  5
15C
330
1F
100
AcDbEntity
  8
0-C_ハッチ
  6
Continuous
 62
   120
370
     5
100
AcDbLine
 10
2214.918171683581
 20
2508.94086125869
 30
0.0
 11
2119.176304481983
 21
2413.199683277024
 31
0.0
  0
LINE
  5
15D
330
1F
100
AcDbEntity
  8
0-C_ハッチ
  6
Continuous
 62
   120
370
     5
100
AcDbLine
 10
2096.976144669009
 20
2390.999683277023
 30
0.0
 11
2073.91773680809
 21
2367.941441407376
 31
0.0
  0
LINE
  5
15E
330
1F
100
AcDbEntity
  8
0-C_ハッチ
  6
Continuous
 62
   120
370
     5
100
AcDbLine
 10
2214.918171683581
 20
2576.822877886261
 30
0.0
 11
2073.917736808092
 21
2435.82282136073
 31
0.0
  0
LINE
  5
15F
330
1F
100
AcDbEntity
  8
0-C_ハッチ
  6
Continuous
 62
   120
370
     5
100
AcDbLine
 10
2095.012526988461
 20
2524.799683277025
 30
0.0
 11
2073.917736808092
 21
2503.704919381358
 31
0.0
  0
LINE
  5
160
330
1F
100
AcDbEntity
  8
0-C_ハッチ
  6
Continuous
 62
   120
370
     5
100
AcDbLine
 10
2214.918171683581
 20
2644.705178566339
 30
0.0
 11
2117.212554650319
 21
2546.999683277023
 31
0.0
  0
LINE
  5
161
330
1F
100
AcDbEntity
  8
0-4_枠
  6
Continuous
 62
    92
370
    13
100
AcDbLine
 10
2070.918171683583
 20
2761.029120528546
 30
0.0
 11
2070.918171683583
 21
2546.999683277023
 31
0.0
  0
LINE
  5
162
330
1F
100
AcDbEntity
  8
0-4_枠
  6
Continuous
 62
    92
370
    13
100
AcDbLine
 10
2073.91773680809
 20
2759.786044965935
 30
0.0
 11
2073.91773680809
 21
2546.999683277023
 31
0.0
  0
LINE
  5
163
330
1F
100
AcDbEntity
  8
0-4_枠
  6
Continuous
 62
    92
370
    13
100
AcDbLine
 10
2073.91773680809
 20
2118.21332158811
 30
0.0
 11
2073.91773680809
 21
2390.999683277023
 31
0.0
  0
LINE
  5
164
330
1F
100
AcDbEntity
  8
0-4_枠
  6
Continuous
 62
    92
370
    13
100
AcDbLine
 10
2070.918171683583
 20
2116.970246025501
 30
0.0
 11
2070.918171683583
 21
2390.999683277023
 31
0.0
  0
LINE
  5
165
330
1F
100
AcDbEntity
  8
0-4_枠
  6
Continuous
 62
    92
370
    13
100
AcDbLine
 10
2070.918171683581
 20
2413.199683277024
 30
0.0
 11
2070.918171683581
 21
2524.799683277025
 31
0.0
  0
LINE
  5
166
330
1F
100
AcDbEntity
  8
0-4_枠
  6
Continuous
 62
    92
370
    13
100
AcDbLine
 10
2073.917736808092
 20
2413.199683277024
 30
0.0
 11
2073.917736808092
 21
2524.799683277025
 31
0.0
  0
LINE
  5
167
330
1F
100
AcDbEntity
  8
0-4_枠
  6
Continuous
 62
    92
370
    13
100
AcDbLine
 10
2121.918171683581
 20
2390.999683277023
 30
0.0
 11
2121.918171683581
 21
2413.199683277024
 31
0.0
  0
LINE
  5
168
330
1F
100
AcDbEntity
  8
0-4_枠
  6
Continuous
 62
    92
370
    13
100
AcDbLine
 10
2121.918171683581
 20
2524.799683277025
 30
0.0
 11
2121.918171683581
 21
2546.999683277023
 31
0.0
  0
LINE
  5
169
330
1F
100
AcDbEntity
  8
0-4_枠
  6
Continuous
 62
    92
370
    13
100
AcDbLine
 10
2121.918171683581
 20
2546.999683277023
 30
0.0
 11
2070.918171683581
 21
2546.999683277023
 31
0.0
  0
LINE
  5
16A
330
1F
100
AcDbEntity
  8
0-4_枠
  6
Continuous
 62
    92
370
    13
100
AcDbLine
 10
2070.918171683581
 20
2524.799683277025
 30
0.0
 11
2121.918171683581
 21
2524.799683277025
 31
0.0
  0
LINE
  5
16B
330
1F
100
AcDbEntity
  8
0-4_枠
  6
Continuous
 62
    92
370
    13
100
AcDbLine
 10
2070.918171683581
 20
2413.199683277024
 30
0.0
 11
2121.918171683581
 21
2413.199683277024
 31
0.0
  0
LINE
  5
16C
330
1F
100
AcDbEntity
  8
0-C_ハッチ
  6
Continuous
 62
   120
370
     5
100
AcDbLine
 10
2214.918171683581
 20
2237.411694616304
 30
0.0
 11
2084.818691993956
 21
2107.312366402245
 31
0.0
  0
LINE
  5
16D
330
1F
100
AcDbEntity
  8
0-4_枠
  6
Continuous
 62
    92
370
    13
100
AcDbLine
 10
2089.131214901893
 20
2102.99984349431
 30
0.0
 11
2211.918171683581
 21
2102.99984349431
 31
0.0
  0
LINE
  5
16E
330
1F
100
AcDbEntity
  8
0-4_枠
  6
Continuous
 62
    92
370
    13
100
AcDbLine
 10
2089.131214901893
 20
2102.99984349431
 30
0.0
 11
2073.91773680809
 21
2118.21332158811
 31
0.0
  0
LINE
  5
16F
330
1F
100
AcDbEntity
  8
0-4_枠
  6
Continuous
 62
    92
370
    13
100
AcDbLine
 10
2089.131809994668
 20
2775.000118152512
 30
0.0
 11
2073.91773680809
 21
2759.786044965935
 31
0.0
  0
LINE
  5
170
330
1F
100
AcDbEntity
  8
0-4_枠
  6
Continuous
 62
    92
370
    13
100
AcDbLine
 10
2089.131809994668
 20
2775.000118152512
 30
0.0
 11
2211.918171683581
 21
2775.000118152512
 31
0.0
  0
LINE
  5
171
330
1F
100
AcDbEntity
  8
0-4_枠
  6
Continuous
 62
    92
370
    13
100
AcDbLine
 10
2087.888734432059
 20
2099.999683277023
 30
0.0
 11
2070.918171683583
 21
2116.970246025501
 31
0.0
  0
LINE
  5
172
330
1F
100
AcDbEntity
  8
0-4_枠
  6
Continuous
 62
    92
370
    13
100
AcDbLine
 10
2087.888734432059
 20
2099.999683277023
 30
0.0
 11
2214.918171683581
 21
2099.999683277023
 31
0.0
  0
LINE
  5
173
330
1F
100
AcDbEntity
  8
0-4_枠
  6
Continuous
 62
    92
370
    13
100
AcDbLine
 10
2087.888734432059
 20
2777.999683277022
 30
0.0
 11
2070.918171683583
 21
2761.029120528546
 31
0.0
  0
LINE
  5
174
330
1F
100
AcDbEntity
  8
0-4_枠
  6
Continuous
 62
    92
370
    13
100
AcDbLine
 10
2087.888734432059
 20
2777.999683277022
 30
0.0
 11
2214.918171683581
 21
2777.999683277022
 31
0.0
  0
LINE
  5
175
330
1F
100
AcDbEntity
  8
0-C_ハッチ
  6
Continuous
 62
   120
370
     5
100
AcDbLine
 10
2211.918171683581
 20
2166.529542281547
 30
0.0
 11
2148.388398928265
 21
2102.99984349431
 31
0.0
  0
LINE
  5
176
330
1F
100
AcDbEntity
  8
0-4_枠
  6
Continuous
 62
    92
370
    13
100
AcDbLine
 10
2214.918171683581
 20
2777.999683277022
 30
0.0
 11
2214.918171683581
 21
2099.999683277023
 31
0.0
  0
LINE
  5
177
330
1F
100
AcDbEntity
  8
0-4_枠
  6
Continuous
 62
    92
370
    13
100
AcDbLine
 10
2211.918171683581
 20
2189.999683277023
 30
0.0
 11
2211.918171683581
 21
2102.99984349431
 31
0.0
  0
LINE
  5
178
330
1F
100
AcDbEntity
  8
0-C_ハッチ
  6
Continuous
 62
   120
370
     5
100
AcDbLine
 10
2073.91773680809
 20
2639.469283954514
 30
0.0
 11
2209.448133537748
 21
2775.000118152512
 31
0.0
  0
LINE
  5
179
330
1F
100
AcDbEntity
  8
0-4_枠
  6
Continuous
 62
    92
370
    13
100
AcDbLine
 10
2211.918171683581
 20
2687.999683277022
 30
0.0
 11
2211.918171683581
 21
2775.000118152512
 31
0.0
  0
LINE
  5
17A
330
1F
100
AcDbEntity
  8
0-C_ハッチ
  6
Continuous
 62
   120
370
     5
100
AcDbLine
 10
2211.918171683581
 20
2709.587659009457
 30
0.0
 11
2073.91773680809
 21
2571.586845294847
 31
0.0
  0
LINE
  5
17B
330
1F
100
AcDbEntity
  8
0-4_枠
  6
Continuous
 62
    92
370
    13
100
AcDbLine
 10
2211.918171683581
 20
2189.999683277023
 30
0.0
 11
2214.918171683581
 21
2189.999683277023
 31
0.0
  0
LINE
  5
17C
330
1F
100
AcDbEntity
  8
0-4_枠
  6
Continuous
 62
    92
370
    13
100
AcDbLine
 10
2211.918171683581
 20
2687.999683277022
 30
0.0
 11
2214.918171683581
 21
2687.999683277022
 31
0.0
  0
LINE
  5
17D
330
1F
100
AcDbEntity
  8
0-C_ハッチ
  6
Continuous
 62
   120
370
     5
100
AcDbLine
 10
2141.566025882293
 20
2775.000118152512
 30
0.0
 11
2073.91773680809
 21
2707.351138965501
 31
0.0
  0
LINE
  5
17E
330
1F
100
AcDbEntity
  8
0-C_ハッチ
  6
Continuous
 62
   120
370
     5
100
AcDbLine
 10
2214.918171683581
 20
2441.055617156945
 30
0.0
 11
2073.91773680809
 21
2300.058257953538
 31
0.0
  0
LINE
  5
17F
330
1F
100
AcDbEntity
  8
0-C_ハッチ
  6
Continuous
 62
   120
370
     5
100
AcDbLine
 10
2214.918171683581
 20
2373.175796140843
 30
0.0
 11
2073.91773680809
 21
2232.175807849777
 31
0.0
  0
LINE
  5
180
330
1F
100
AcDbEntity
  8
0-C_ハッチ
  6
Continuous
 62
   120
370
     5
100
AcDbLine
 10
2214.918171683581
 20
2305.29358278816
 30
0.0
 11
2073.91773680809
 21
2164.293369190109
 31
0.0
  0
LINE
  5
181
330
1F
100
AcDbEntity
  8
0-3_仕上げ
  6
Continuous
 62
    40
370
    15
100
AcDbLine
 10
2814.918171683582
 20
2708.999683277025
 30
0.0
 11
2214.918171683581
 21
2708.999683277025
 31
0.0
  0
LINE
  5
182
330
1F
100
AcDbEntity
  8
0-C_ハッチ
  6
JWW_DASHED1
 62
   120
370
     5
100
AcDbLine
 10
2756.856551307153
 20
2633.999683277015
 30
0.0
 11
2814.918171683582
 21
2692.061303653441
 31
0.0
  0
LINE
  5
183
330
1F
100
AcDbEntity
  8
0-C_ハッチ
  6
JWW_DASHED1
 62
   120
370
     5
100
AcDbLine
 10
2799.282958178365
 20
2633.999683277026
 30
0.0
 11
2814.918171683582
 21
2649.634896782241
 31
0.0
  0
LINE
  5
184
330
1F
100
AcDbEntity
  8
0-3_仕上げ
  6
Continuous
 62
    40
370
    15
100
AcDbLine
 10
2814.918171683582
 20
2633.999683277025
 30
0.0
 11
2214.918171683581
 21
2633.999683277025
 31
0.0
  0
LINE
  5
185
330
1F
100
AcDbEntity
  8
0-3_仕上げ
  6
Continuous
 62
    40
370
    15
100
AcDbLine
 10
2814.918171683582
 20
2243.99968327703
 30
0.0
 11
2214.918171683581
 21
2243.99968327703
 31
0.0
  0
LINE
  5
186
330
1F
100
AcDbEntity
  8
0-C_ハッチ
  6
JWW_DASHED1
 62
   120
370
     5
100
AcDbLine
 10
2773.105468117455
 20
2168.99968327703
 30
0.0
 11
2814.918171683582
 21
2210.812386843156
 31
0.0
  0
LINE
  5
187
330
1F
100
AcDbEntity
  8
0-3_仕上げ
  6
Continuous
 62
    40
370
    15
100
AcDbLine
 10
2814.918171683582
 20
2168.99968327703
 30
0.0
 11
2214.918171683581
 21
2168.99968327703
 31
0.0
  0
LINE
  5
188
330
1F
100
AcDbEntity
  8
0-3_仕上げ
  6
Continuous
 62
    92
370
    13
100
AcDbLine
 10
2652.918171683581
 20
2243.999683277018
 30
0.0
 11
2652.918171683581
 21
2633.999683277025
 31
0.0
  0
LINE
  5
189
330
1F
100
AcDbEntity
  8
0-3_仕上げ
  6
Continuous
 62
    92
370
    13
100
AcDbLine
 10
2262.918171683581
 20
2243.999683277018
 30
0.0
 11
2262.918171683581
 21
2633.999683277025
 31
0.0
  0
LINE
  5
18A
330
1F
100
AcDbEntity
  8
0-C_ハッチ
  6
JWW_DASHED1
 62
   120
370
     5
100
AcDbLine
 10
2214.918171683581
 20
2204.782083039895
 30
0.0
 11
2254.135771920716
 21
2243.99968327703
 31
0.0
  0
LINE
  5
18B
330
1F
100
AcDbEntity
  8
0-C_ハッチ
  6
JWW_DASHED1
 62
   120
370
     5
100
AcDbLine
 10
2263.988585663111
 20
2168.99968327703
 30
0.0
 11
2338.988585663096
 21
2243.999683277016
 31
0.0
  0
LINE
  5
18C
330
1F
100
AcDbEntity
  8
0-C_ハッチ
  6
JWW_DASHED1
 62
   120
370
     5
100
AcDbLine
 10
2221.562178791911
 20
2168.99968327703
 30
0.0
 11
2296.562178791899
 21
2243.999683277021
 31
0.0
  0
LINE
  5
18D
330
1F
100
AcDbEntity
  8
0-C_ハッチ
  6
JWW_DASHED1
 62
   120
370
     5
100
AcDbLine
 10
2306.414992534309
 20
2168.99968327703
 30
0.0
 11
2381.414992534292
 21
2243.999683277012
 31
0.0
  0
LINE
  5
18E
330
1F
100
AcDbEntity
  8
0-C_ハッチ
  6
JWW_DASHED1
 62
   120
370
     5
100
AcDbLine
 10
2214.918171683581
 20
2686.030999850124
 30
0.0
 11
2237.886855110482
 21
2708.999683277025
 31
0.0
  0
LINE
  5
18F
330
1F
100
AcDbEntity
  8
0-C_ハッチ
  6
JWW_DASHED1
 62
   120
370
     5
100
AcDbLine
 10
2214.918171683581
 20
2643.604592978932
 30
0.0
 11
2280.313261981671
 21
2708.999683277022
 31
0.0
  0
LINE
  5
190
330
1F
100
AcDbEntity
  8
0-C_ハッチ
  6
JWW_DASHED1
 62
   120
370
     5
100
AcDbLine
 10
2247.739668852872
 20
2633.999683277025
 30
0.0
 11
2322.739668852868
 21
2708.999683277018
 31
0.0
  0
LINE
  5
191
330
1F
100
AcDbEntity
  8
0-C_ハッチ
  6
JWW_DASHED1
 62
   120
370
     5
100
AcDbLine
 10
2730.679061246258
 20
2168.999683277034
 30
0.0
 11
2805.679061246271
 21
2243.999683277045
 31
0.0
  0
LINE
  5
192
330
1F
100
AcDbEntity
  8
0-C_ハッチ
  6
JWW_DASHED1
 62
   120
370
     5
100
AcDbLine
 10
2688.252654375048
 20
2168.999683277022
 30
0.0
 11
2763.252654375043
 21
2243.999683277018
 31
0.0
  0
LINE
  5
193
330
1F
100
AcDbEntity
  8
0-C_ハッチ
  6
JWW_DASHED1
 62
   120
370
     5
100
AcDbLine
 10
2645.826247503847
 20
2168.999683277022
 30
0.0
 11
2720.826247503845
 21
2243.999683277021
 31
0.0
  0
LINE
  5
194
330
1F
100
AcDbEntity
  8
0-C_ハッチ
  6
JWW_DASHED1
 62
   120
370
     5
100
AcDbLine
 10
2603.39984063265
 20
2168.999683277025
 30
0.0
 11
2678.399840632648
 21
2243.999683277022
 31
0.0
  0
LINE
  5
195
330
1F
100
AcDbEntity
  8
0-C_ハッチ
  6
JWW_DASHED1
 62
   120
370
     5
100
AcDbLine
 10
2560.973433761453
 20
2168.999683277026
 30
0.0
 11
2635.97343376145
 21
2243.999683277022
 31
0.0
  0
LINE
  5
196
330
1F
100
AcDbEntity
  8
0-C_ハッチ
  6
JWW_DASHED1
 62
   120
370
     5
100
AcDbLine
 10
2518.547026890315
 20
2168.999683277034
 30
0.0
 11
2593.547026890311
 21
2243.99968327703
 31
0.0
  0
LINE
  5
197
330
1F
100
AcDbEntity
  8
0-C_ハッチ
  6
JWW_DASHED1
 62
   120
370
     5
100
AcDbLine
 10
2476.120620019118
 20
2168.999683277036
 30
0.0
 11
2551.120620019115
 21
2243.999683277034
 31
0.0
  0
LINE
  5
198
330
1F
100
AcDbEntity
  8
0-C_ハッチ
  6
JWW_DASHED1
 62
   120
370
     5
100
AcDbLine
 10
2433.694213147905
 20
2168.999683277022
 30
0.0
 11
2508.694213147916
 21
2243.999683277036
 31
0.0
  0
LINE
  5
199
330
1F
100
AcDbEntity
  8
0-C_ハッチ
  6
JWW_DASHED1
 62
   120
370
     5
100
AcDbLine
 10
2391.267806276703
 20
2168.999683277022
 30
0.0
 11
2466.267806276713
 21
2243.999683277034
 31
0.0
  0
LINE
  5
19A
330
1F
100
AcDbEntity
  8
0-C_ハッチ
  6
JWW_DASHED1
 62
   120
370
     5
100
AcDbLine
 10
2348.841399405506
 20
2168.999683277026
 30
0.0
 11
2423.841399405501
 21
2243.999683277022
 31
0.0
  0
LINE
  5
19B
330
1F
100
AcDbEntity
  8
0-C_ハッチ
  6
JWW_DASHED1
 62
   120
370
     5
100
AcDbLine
 10
2714.430144435958
 20
2633.999683277018
 30
0.0
 11
2789.430144435968
 21
2708.999683277029
 31
0.0
  0
LINE
  5
19C
330
1F
100
AcDbEntity
  8
0-C_ハッチ
  6
JWW_DASHED1
 62
   120
370
     5
100
AcDbLine
 10
2672.003737564757
 20
2633.999683277018
 30
0.0
 11
2747.003737564755
 21
2708.999683277015
 31
0.0
  0
LINE
  5
19D
330
1F
100
AcDbEntity
  8
0-C_ハッチ
  6
JWW_DASHED1
 62
   120
370
     5
100
AcDbLine
 10
2629.57733069356
 20
2633.999683277022
 30
0.0
 11
2704.577330693557
 21
2708.999683277018
 31
0.0
  0
LINE
  5
19E
330
1F
100
AcDbEntity
  8
0-C_ハッチ
  6
JWW_DASHED1
 62
   120
370
     5
100
AcDbLine
 10
2587.150923822422
 20
2633.999683277029
 30
0.0
 11
2662.150923822418
 21
2708.999683277025
 31
0.0
  0
LINE
  5
19F
330
1F
100
AcDbEntity
  8
0-C_ハッチ
  6
JWW_DASHED1
 62
   120
370
     5
100
AcDbLine
 10
2544.724516951225
 20
2633.999683277032
 30
0.0
 11
2619.724516951222
 21
2708.999683277029
 31
0.0
  0
LINE
  5
1A0
330
1F
100
AcDbEntity
  8
0-C_ハッチ
  6
JWW_DASHED1
 62
   120
370
     5
100
AcDbLine
 10
2502.298110080027
 20
2633.999683277034
 30
0.0
 11
2577.298110080025
 21
2708.99968327703
 31
0.0
  0
LINE
  5
1A1
330
1F
100
AcDbEntity
  8
0-C_ハッチ
  6
JWW_DASHED1
 62
   120
370
     5
100
AcDbLine
 10
2459.871703208815
 20
2633.999683277021
 30
0.0
 11
2534.871703208827
 21
2708.999683277034
 31
0.0
  0
LINE
  5
1A2
330
1F
100
AcDbEntity
  8
0-C_ハッチ
  6
JWW_DASHED1
 62
   120
370
     5
100
AcDbLine
 10
2417.445296337613
 20
2633.999683277018
 30
0.0
 11
2492.445296337623
 21
2708.999683277029
 31
0.0
  0
LINE
  5
1A3
330
1F
100
AcDbEntity
  8
0-C_ハッチ
  6
JWW_DASHED1
 62
   120
370
     5
100
AcDbLine
 10
2375.018889466405
 20
2633.999683277008
 30
0.0
 11
2450.018889466401
 21
2708.999683277008
 31
0.0
  0
LINE
  5
1A4
330
1F
100
AcDbEntity
  8
0-C_ハッチ
  6
JWW_DASHED1
 62
   120
370
     5
100
AcDbLine
 10
2332.592482595206
 20
2633.999683277012
 30
0.0
 11
2407.592482595203
 21
2708.999683277008
 31
0.0
  0
LINE
  5
1A5
330
1F
100
AcDbEntity
  8
0-C_ハッチ
  6
JWW_DASHED1
 62
   120
370
     5
100
AcDbLine
 10
2290.16607572401
 20
2633.999683277015
 30
0.0
 11
2365.166075724006
 21
2708.999683277011
 31
0.0
  0
LINE
  5
1A6
330
1F
100
AcDbEntity
  8
0-1_通り芯
  6
JWW_CENTER1
 62
   120
370
     5
100
AcDbLine
 10
-2795.081828316418
 20
2438.999683277028
 30
0.0
 11
2814.918171683582
 21
2438.999683277028
 31
0.0
  0
LINE
  5
1A7
330
1F
100
AcDbEntity
  8
0-C_ハッチ
  6
Continuous
 62
   120
370
     5
100
AcDbLine
 10
-2195.081828316418
 20
2305.29358278816
 30
0.0
 11
-2054.081393440929
 21
2164.293369190109
 31
0.0
  0
LINE
  5
1A8
330
1F
100
AcDbEntity
  8
0-C_ハッチ
  6
Continuous
 62
   120
370
     5
100
AcDbLine
 10
-2195.081828316418
 20
2373.175796140843
 30
0.0
 11
-2054.081393440929
 21
2232.175807849779
 31
0.0
  0
LINE
  5
1A9
330
1F
100
AcDbEntity
  8
0-C_ハッチ
  6
Continuous
 62
   120
370
     5
100
AcDbLine
 10
-2195.081828316418
 20
2441.055617156946
 30
0.0
 11
-2054.081393440929
 21
2300.05825795354
 31
0.0
  0
LINE
  5
1AA
330
1F
100
AcDbEntity
  8
0-C_ハッチ
  6
Continuous
 62
   120
370
     5
100
AcDbLine
 10
-2121.729682515129
 20
2775.000118152512
 30
0.0
 11
-2054.081393440929
 21
2707.351138965503
 31
0.0
  0
LINE
  5
1AB
330
1F
100
AcDbEntity
  8
0-4_枠
  6
Continuous
 62
    92
370
    13
100
AcDbLine
 10
-2192.081828316418
 20
2687.999683277023
 30
0.0
 11
-2195.081828316418
 21
2687.999683277023
 31
0.0
  0
LINE
  5
1AC
330
1F
100
AcDbEntity
  8
0-4_枠
  6
Continuous
 62
    92
370
    13
100
AcDbLine
 10
-2192.081828316418
 20
2189.999683277023
 30
0.0
 11
-2195.081828316418
 21
2189.999683277023
 31
0.0
  0
LINE
  5
1AD
330
1F
100
AcDbEntity
  8
0-C_ハッチ
  6
Continuous
 62
   120
370
     5
100
AcDbLine
 10
-2192.081828316418
 20
2709.587659009457
 30
0.0
 11
-2054.081393440929
 21
2571.586845294848
 31
0.0
  0
LINE
  5
1AE
330
1F
100
AcDbEntity
  8
0-4_枠
  6
Continuous
 62
    92
370
    13
100
AcDbLine
 10
-2192.081828316418
 20
2687.999683277023
 30
0.0
 11
-2192.081828316418
 21
2775.000118152512
 31
0.0
  0
LINE
  5
1AF
330
1F
100
AcDbEntity
  8
0-C_ハッチ
  6
Continuous
 62
   120
370
     5
100
AcDbLine
 10
-2054.081393440929
 20
2639.469283954514
 30
0.0
 11
-2189.611790170586
 21
2775.000118152512
 31
0.0
  0
LINE
  5
1B0
330
1F
100
AcDbEntity
  8
0-4_枠
  6
Continuous
 62
    92
370
    13
100
AcDbLine
 10
-2192.081828316418
 20
2189.999683277023
 30
0.0
 11
-2192.081828316418
 21
2102.99984349431
 31
0.0
  0
LINE
  5
1B1
330
1F
100
AcDbEntity
  8
0-4_枠
  6
Continuous
 62
    92
370
    13
100
AcDbLine
 10
-2195.081828316418
 20
2777.999683277023
 30
0.0
 11
-2195.081828316418
 21
2099.999683277023
 31
0.0
  0
LINE
  5
1B2
330
1F
100
AcDbEntity
  8
0-C_ハッチ
  6
Continuous
 62
   120
370
     5
100
AcDbLine
 10
-2192.081828316418
 20
2166.529542281549
 30
0.0
 11
-2128.552055561102
 21
2102.99984349431
 31
0.0
  0
LINE
  5
1B3
330
1F
100
AcDbEntity
  8
0-4_枠
  6
Continuous
 62
    92
370
    13
100
AcDbLine
 10
-2068.052391064897
 20
2777.999683277023
 30
0.0
 11
-2195.081828316418
 21
2777.999683277023
 31
0.0
  0
LINE
  5
1B4
330
1F
100
AcDbEntity
  8
0-4_枠
  6
Continuous
 62
    92
370
    13
100
AcDbLine
 10
-2068.052391064897
 20
2777.999683277023
 30
0.0
 11
-2051.081828316419
 21
2761.029120528546
 31
0.0
  0
LINE
  5
1B5
330
1F
100
AcDbEntity
  8
0-4_枠
  6
Continuous
 62
    92
370
    13
100
AcDbLine
 10
-2068.052391064897
 20
2099.999683277023
 30
0.0
 11
-2195.081828316418
 21
2099.999683277023
 31
0.0
  0
LINE
  5
1B6
330
1F
100
AcDbEntity
  8
0-4_枠
  6
Continuous
 62
    92
370
    13
100
AcDbLine
 10
-2068.052391064897
 20
2099.999683277023
 30
0.0
 11
-2051.081828316419
 21
2116.970246025501
 31
0.0
  0
LINE
  5
1B7
330
1F
100
AcDbEntity
  8
0-4_枠
  6
Continuous
 62
    92
370
    13
100
AcDbLine
 10
-2069.295466627505
 20
2775.000118152512
 30
0.0
 11
-2192.081828316418
 21
2775.000118152512
 31
0.0
  0
LINE
  5
1B8
330
1F
100
AcDbEntity
  8
0-4_枠
  6
Continuous
 62
    92
370
    13
100
AcDbLine
 10
-2069.295466627505
 20
2775.000118152512
 30
0.0
 11
-2054.081393440929
 21
2759.786044965935
 31
0.0
  0
LINE
  5
1B9
330
1F
100
AcDbEntity
  8
0-4_枠
  6
Continuous
 62
    92
370
    13
100
AcDbLine
 10
-2069.29487153473
 20
2102.99984349431
 30
0.0
 11
-2054.081393440929
 21
2118.213321588112
 31
0.0
  0
LINE
  5
1BA
330
1F
100
AcDbEntity
  8
0-4_枠
  6
Continuous
 62
    92
370
    13
100
AcDbLine
 10
-2069.29487153473
 20
2102.99984349431
 30
0.0
 11
-2192.081828316418
 21
2102.99984349431
 31
0.0
  0
LINE
  5
1BB
330
1F
100
AcDbEntity
  8
0-C_ハッチ
  6
Continuous
 62
   120
370
     5
100
AcDbLine
 10
-2195.081828316418
 20
2237.411694616304
 30
0.0
 11
-2064.982348626795
 21
2107.312366402245
 31
0.0
  0
LINE
  5
1BC
330
1F
100
AcDbEntity
  8
0-4_枠
  6
Continuous
 62
    92
370
    13
100
AcDbLine
 10
-2051.081828316419
 20
2413.199683277024
 30
0.0
 11
-2102.081828316419
 21
2413.199683277024
 31
0.0
  0
LINE
  5
1BD
330
1F
100
AcDbEntity
  8
0-4_枠
  6
Continuous
 62
    92
370
    13
100
AcDbLine
 10
-2051.081828316419
 20
2524.799683277025
 30
0.0
 11
-2102.081828316419
 21
2524.799683277025
 31
0.0
  0
LINE
  5
1BE
330
1F
100
AcDbEntity
  8
0-4_枠
  6
Continuous
 62
    92
370
    13
100
AcDbLine
 10
-2102.081828316419
 20
2546.999683277023
 30
0.0
 11
-2051.081828316419
 21
2546.999683277023
 31
0.0
  0
LINE
  5
1BF
330
1F
100
AcDbEntity
  8
0-4_枠
  6
Continuous
 62
    92
370
    13
100
AcDbLine
 10
-2102.081828316419
 20
2524.799683277025
 30
0.0
 11
-2102.081828316419
 21
2546.999683277023
 31
0.0
  0
LINE
  5
1C0
330
1F
100
AcDbEntity
  8
0-4_枠
  6
Continuous
 62
    92
370
    13
100
AcDbLine
 10
-2102.081828316419
 20
2390.999683277025
 30
0.0
 11
-2102.081828316419
 21
2413.199683277024
 31
0.0
  0
LINE
  5
1C1
330
1F
100
AcDbEntity
  8
0-4_枠
  6
Continuous
 62
    92
370
    13
100
AcDbLine
 10
-2054.081393440931
 20
2413.199683277024
 30
0.0
 11
-2054.081393440931
 21
2524.799683277025
 31
0.0
  0
LINE
  5
1C2
330
1F
100
AcDbEntity
  8
0-4_枠
  6
Continuous
 62
    92
370
    13
100
AcDbLine
 10
-2051.081828316419
 20
2413.199683277024
 30
0.0
 11
-2051.081828316419
 21
2524.799683277025
 31
0.0
  0
LINE
  5
1C3
330
1F
100
AcDbEntity
  8
0-4_枠
  6
Continuous
 62
    92
370
    13
100
AcDbLine
 10
-2051.081828316419
 20
2116.970246025501
 30
0.0
 11
-2051.081828316419
 21
2390.999683277025
 31
0.0
  0
LINE
  5
1C4
330
1F
100
AcDbEntity
  8
0-4_枠
  6
Continuous
 62
    92
370
    13
100
AcDbLine
 10
-2054.081393440929
 20
2118.213321588112
 30
0.0
 11
-2054.081393440929
 21
2390.999683277025
 31
0.0
  0
LINE
  5
1C5
330
1F
100
AcDbEntity
  8
0-4_枠
  6
Continuous
 62
    92
370
    13
100
AcDbLine
 10
-2054.081393440929
 20
2759.786044965935
 30
0.0
 11
-2054.081393440929
 21
2546.999683277023
 31
0.0
  0
LINE
  5
1C6
330
1F
100
AcDbEntity
  8
0-4_枠
  6
Continuous
 62
    92
370
    13
100
AcDbLine
 10
-2051.081828316419
 20
2761.029120528546
 30
0.0
 11
-2051.081828316419
 21
2546.999683277023
 31
0.0
  0
LINE
  5
1C7
330
1F
100
AcDbEntity
  8
0-C_ハッチ
  6
Continuous
 62
   120
370
     5
100
AcDbLine
 10
-2195.081828316418
 20
2644.705178566342
 30
0.0
 11
-2097.376211283156
 21
2546.999683277023
 31
0.0
  0
LINE
  5
1C8
330
1F
100
AcDbEntity
  8
0-C_ハッチ
  6
Continuous
 62
   120
370
     5
100
AcDbLine
 10
-2075.176183621298
 20
2524.799683277025
 30
0.0
 11
-2054.081393440931
 21
2503.704919381358
 31
0.0
  0
LINE
  5
1C9
330
1F
100
AcDbEntity
  8
0-C_ハッチ
  6
Continuous
 62
   120
370
     5
100
AcDbLine
 10
-2195.081828316418
 20
2576.822877886261
 30
0.0
 11
-2054.081393440931
 21
2435.82282136073
 31
0.0
  0
LINE
  5
1CA
330
1F
100
AcDbEntity
  8
0-C_ハッチ
  6
Continuous
 62
   120
370
     5
100
AcDbLine
 10
-2077.139801301846
 20
2390.999683277025
 30
0.0
 11
-2054.081393440929
 21
2367.941441407379
 31
0.0
  0
LINE
  5
1CB
330
1F
100
AcDbEntity
  8
0-C_ハッチ
  6
Continuous
 62
   120
370
     5
100
AcDbLine
 10
-2195.081828316418
 20
2508.940861258693
 30
0.0
 11
-2099.33996111482
 21
2413.199683277024
 31
0.0
  0
LINE
  5
1CC
330
1F
100
AcDbEntity
  8
0-3_仕上げ
  6
Continuous
 62
    40
370
    15
100
AcDbLine
 10
-2795.081828316418
 20
2708.999683277025
 30
0.0
 11
-2195.081828316418
 21
2708.999683277025
 31
0.0
  0
LINE
  5
1CD
330
1F
100
AcDbEntity
  8
0-C_ハッチ
  6
JWW_DASHED1
 62
   120
370
     5
100
AcDbLine
 10
-2792.695531621508
 20
2708.999683277011
 30
0.0
 11
-2795.081828316418
 21
2706.613386582098
 31
0.0
  0
LINE
  5
1CE
330
1F
100
AcDbEntity
  8
0-C_ハッチ
  6
JWW_DASHED1
 62
   120
370
     5
100
AcDbLine
 10
-2750.269124750294
 20
2708.999683277025
 30
0.0
 11
-2795.081828316418
 21
2664.186979710898
 31
0.0
  0
LINE
  5
1CF
330
1F
100
AcDbEntity
  8
0-3_仕上げ
  6
Continuous
 62
    40
370
    15
100
AcDbLine
 10
-2795.081828316418
 20
2633.999683277025
 30
0.0
 11
-2195.081828316418
 21
2633.999683277025
 31
0.0
  0
LINE
  5
1D0
330
1F
100
AcDbEntity
  8
0-3_仕上げ
  6
Continuous
 62
    40
370
    15
100
AcDbLine
 10
-2795.081828316418
 20
2243.99968327703
 30
0.0
 11
-2195.081828316418
 21
2243.99968327703
 31
0.0
  0
LINE
  5
1D1
330
1F
100
AcDbEntity
  8
0-C_ハッチ
  6
JWW_DASHED1
 62
   120
370
     5
100
AcDbLine
 10
-2776.446614811203
 20
2243.999683277029
 30
0.0
 11
-2795.081828316418
 21
2225.364469771812
 31
0.0
  0
LINE
  5
1D2
330
1F
100
AcDbEntity
  8
0-C_ハッチ
  6
JWW_DASHED1
 62
   120
370
     5
100
AcDbLine
 10
-2734.020207939991
 20
2243.999683277039
 30
0.0
 11
-2795.081828316418
 21
2182.938062900614
 31
0.0
  0
LINE
  5
1D3
330
1F
100
AcDbEntity
  8
0-3_仕上げ
  6
Continuous
 62
    40
370
    15
100
AcDbLine
 10
-2795.081828316418
 20
2168.99968327703
 30
0.0
 11
-2195.081828316418
 21
2168.99968327703
 31
0.0
  0
LINE
  5
1D4
330
1F
100
AcDbEntity
  8
0-C_ハッチ
  6
JWW_DASHED1
 62
   120
370
     5
100
AcDbLine
 10
-2195.081828316418
 20
2670.217283514159
 30
0.0
 11
-2231.299428553553
 21
2633.999683277025
 31
0.0
  0
LINE
  5
1D5
330
1F
100
AcDbEntity
  8
0-C_ハッチ
  6
JWW_DASHED1
 62
   120
370
     5
100
AcDbLine
 10
-2198.725835424748
 20
2708.999683277025
 30
0.0
 11
-2273.725835424736
 21
2633.999683277036
 31
0.0
  0
LINE
  5
1D6
330
1F
100
AcDbEntity
  8
0-C_ハッチ
  6
JWW_DASHED1
 62
   120
370
     5
100
AcDbLine
 10
-2241.152242295948
 20
2708.999683277025
 30
0.0
 11
-2316.152242295935
 21
2633.999683277038
 31
0.0
  0
LINE
  5
1D7
330
1F
100
AcDbEntity
  8
0-C_ハッチ
  6
JWW_DASHED1
 62
   120
370
     5
100
AcDbLine
 10
-2195.081828316418
 20
2188.968366703929
 30
0.0
 11
-2215.050511743317
 21
2168.99968327703
 31
0.0
  0
LINE
  5
1D8
330
1F
100
AcDbEntity
  8
0-C_ハッチ
  6
JWW_DASHED1
 62
   120
370
     5
100
AcDbLine
 10
-2195.081828316418
 20
2231.394773575123
 30
0.0
 11
-2257.476918614507
 21
2168.999683277034
 31
0.0
  0
LINE
  5
1D9
330
1F
100
AcDbEntity
  8
0-C_ハッチ
  6
JWW_DASHED1
 62
   120
370
     5
100
AcDbLine
 10
-2224.903325485712
 20
2243.99968327703
 30
0.0
 11
-2299.903325485705
 21
2168.999683277036
 31
0.0
  0
LINE
  5
1DA
330
1F
100
AcDbEntity
  8
0-C_ハッチ
  6
JWW_DASHED1
 62
   120
370
     5
100
AcDbLine
 10
-2267.329732356857
 20
2243.99968327703
 30
0.0
 11
-2342.329732356844
 21
2168.999683277043
 31
0.0
  0
LINE
  5
1DB
330
1F
100
AcDbEntity
  8
0-C_ハッチ
  6
JWW_DASHED1
 62
   120
370
     5
100
AcDbLine
 10
-2707.842717879096
 20
2708.999683277022
 30
0.0
 11
-2782.842717879108
 21
2633.999683277008
 31
0.0
  0
LINE
  5
1DC
330
1F
100
AcDbEntity
  8
0-C_ハッチ
  6
JWW_DASHED1
 62
   120
370
     5
100
AcDbLine
 10
-2665.416311007885
 20
2708.999683277032
 30
0.0
 11
-2740.41631100788
 21
2633.999683277036
 31
0.0
  0
LINE
  5
1DD
330
1F
100
AcDbEntity
  8
0-C_ハッチ
  6
JWW_DASHED1
 62
   120
370
     5
100
AcDbLine
 10
-2622.989904136684
 20
2708.999683277034
 30
0.0
 11
-2697.989904136682
 21
2633.999683277036
 31
0.0
  0
LINE
  5
1DE
330
1F
100
AcDbEntity
  8
0-C_ハッチ
  6
JWW_DASHED1
 62
   120
370
     5
100
AcDbLine
 10
-2580.563497265487
 20
2708.99968327703
 30
0.0
 11
-2655.563497265485
 21
2633.999683277032
 31
0.0
  0
LINE
  5
1DF
330
1F
100
AcDbEntity
  8
0-C_ハッチ
  6
JWW_DASHED1
 62
   120
370
     5
100
AcDbLine
 10
-2538.137090394291
 20
2708.999683277029
 30
0.0
 11
-2613.137090394287
 21
2633.999683277032
 31
0.0
  0
LINE
  5
1E0
330
1F
100
AcDbEntity
  8
0-C_ハッチ
  6
JWW_DASHED1
 62
   120
370
     5
100
AcDbLine
 10
-2495.710683523152
 20
2708.999683277022
 30
0.0
 11
-2570.710683523148
 21
2633.999683277025
 31
0.0
  0
LINE
  5
1E1
330
1F
100
AcDbEntity
  8
0-C_ハッチ
  6
JWW_DASHED1
 62
   120
370
     5
100
AcDbLine
 10
-2453.284276651955
 20
2708.999683277018
 30
0.0
 11
-2528.284276651952
 21
2633.999683277022
 31
0.0
  0
LINE
  5
1E2
330
1F
100
AcDbEntity
  8
0-C_ハッチ
  6
JWW_DASHED1
 62
   120
370
     5
100
AcDbLine
 10
-2410.857869780742
 20
2708.999683277032
 30
0.0
 11
-2485.857869780753
 21
2633.999683277018
 31
0.0
  0
LINE
  5
1E3
330
1F
100
AcDbEntity
  8
0-C_ハッチ
  6
JWW_DASHED1
 62
   120
370
     5
100
AcDbLine
 10
-2368.43146290954
 20
2708.999683277032
 30
0.0
 11
-2443.43146290955
 21
2633.999683277022
 31
0.0
  0
LINE
  5
1E4
330
1F
100
AcDbEntity
  8
0-C_ハッチ
  6
JWW_DASHED1
 62
   120
370
     5
100
AcDbLine
 10
-2326.005056038343
 20
2708.999683277029
 30
0.0
 11
-2401.005056038338
 21
2633.999683277034
 31
0.0
  0
LINE
  5
1E5
330
1F
100
AcDbEntity
  8
0-C_ハッチ
  6
JWW_DASHED1
 62
   120
370
     5
100
AcDbLine
 10
-2283.578649167135
 20
2708.999683277038
 30
0.0
 11
-2358.57864916713
 21
2633.999683277043
 31
0.0
  0
LINE
  5
1E6
330
1F
100
AcDbEntity
  8
0-C_ハッチ
  6
JWW_DASHED1
 62
   120
370
     5
100
AcDbLine
 10
-2691.593801068794
 20
2243.999683277036
 30
0.0
 11
-2766.593801068805
 21
2168.999683277026
 31
0.0
  0
LINE
  5
1E7
330
1F
100
AcDbEntity
  8
0-C_ハッチ
  6
JWW_DASHED1
 62
   120
370
     5
100
AcDbLine
 10
-2649.167394197594
 20
2243.999683277036
 30
0.0
 11
-2724.167394197591
 21
2168.999683277039
 31
0.0
  0
LINE
  5
1E8
330
1F
100
AcDbEntity
  8
0-C_ハッチ
  6
JWW_DASHED1
 62
   120
370
     5
100
AcDbLine
 10
-2606.740987326398
 20
2243.999683277034
 30
0.0
 11
-2681.740987326394
 21
2168.999683277036
 31
0.0
  0
LINE
  5
1E9
330
1F
100
AcDbEntity
  8
0-C_ハッチ
  6
JWW_DASHED1
 62
   120
370
     5
100
AcDbLine
 10
-2564.314580455259
 20
2243.999683277026
 30
0.0
 11
-2639.314580455257
 21
2168.99968327703
 31
0.0
  0
LINE
  5
1EA
330
1F
100
AcDbEntity
  8
0-C_ハッチ
  6
JWW_DASHED1
 62
   120
370
     5
100
AcDbLine
 10
-2521.888173584062
 20
2243.999683277022
 30
0.0
 11
-2596.888173584059
 21
2168.999683277026
 31
0.0
  0
LINE
  5
1EB
330
1F
100
AcDbEntity
  8
0-C_ハッチ
  6
JWW_DASHED1
 62
   120
370
     5
100
AcDbLine
 10
-2479.461766712864
 20
2243.999683277022
 30
0.0
 11
-2554.461766712862
 21
2168.999683277025
 31
0.0
  0
LINE
  5
1EC
330
1F
100
AcDbEntity
  8
0-C_ハッチ
  6
JWW_DASHED1
 62
   120
370
     5
100
AcDbLine
 10
-2437.035359841652
 20
2243.999683277036
 30
0.0
 11
-2512.035359841664
 21
2168.999683277022
 31
0.0
  0
LINE
  5
1ED
330
1F
100
AcDbEntity
  8
0-C_ハッチ
  6
JWW_DASHED1
 62
   120
370
     5
100
AcDbLine
 10
-2394.60895297045
 20
2243.999683277036
 30
0.0
 11
-2469.608952970461
 21
2168.999683277026
 31
0.0
  0
LINE
  5
1EE
330
1F
100
AcDbEntity
  8
0-C_ハッチ
  6
JWW_DASHED1
 62
   120
370
     5
100
AcDbLine
 10
-2352.182546099244
 20
2243.999683277045
 30
0.0
 11
-2427.182546099239
 21
2168.999683277048
 31
0.0
  0
LINE
  5
1EF
330
1F
100
AcDbEntity
  8
0-C_ハッチ
  6
JWW_DASHED1
 62
   120
370
     5
100
AcDbLine
 10
-2309.756139228044
 20
2243.999683277043
 30
0.0
 11
-2384.75613922804
 21
2168.999683277045
 31
0.0
  0
LINE
  5
1F0
330
1F
100
AcDbEntity
  8
0-3_仕上げ
  6
Continuous
 62
    92
370
    13
100
AcDbLine
 10
-2243.081828316419
 20
2633.999683277036
 30
0.0
 11
-2243.081828316419
 21
2243.99968327703
 31
0.0
  0
LINE
  5
1F1
330
1F
100
AcDbEntity
  8
0-3_仕上げ
  6
Continuous
 62
    92
370
    13
100
AcDbLine
 10
-2633.081828316419
 20
2633.999683277036
 30
0.0
 11
-2633.081828316419
 21
2243.99968327703
 31
0.0
  0
LINE
  5
1F2
330
1F
100
AcDbEntity
  8
0-0_補助線
  6
JWW_HOJO
 62
   120
370
     5
100
AcDbLine
 10
2814.918171683582
 20
2955.943749397113
 30
0.0
 11
2814.918171683582
 21
1917.943749397116
 31
0.0
  0
LINE
  5
1F3
330
1F
100
AcDbEntity
  8
0-4_枠
  6
Continuous
 62
    92
370
    13
100
AcDbLine
 10
-2051.081828316419
 20
2390.999683277025
 30
0.0
 11
-2102.081828316419
 21
2390.999683277025
 31
0.0
  0
LINE
  5
1F4
330
1F
100
AcDbEntity
  8
0-4_枠
  6
Continuous
 62
    92
370
    13
100
AcDbLine
 10
2070.918171683581
 20
2390.999683277023
 30
0.0
 11
2121.918171683581
 21
2390.999683277023
 31
0.0
  0
LINE
  5
1F5
330
1F
100
AcDbEntity
  8
0-0_補助線
  6
JWW_HOJO
 62
   120
370
     5
100
AcDbLine
 10
78.9181716835813
 20
2955.943749397113
 30
0.0
 11
78.9181716835813
 21
1917.943749397116
 31
0.0
  0
LINE
  5
1F6
330
1F
100
AcDbEntity
  8
0-0_補助線
  6
JWW_HOJO
 62
   120
370
     5
100
AcDbLine
 10
-41.08182831641869
 20
2955.943749397113
 30
0.0
 11
-41.08182831641869
 21
1917.943749397116
 31
0.0
  0
LWPOLYLINE
  5
1F7
330
1F
100
AcDbEntity
  8
0-B_寸法
  6
Continuous
 62
     7
370
     9
100
AcDbPolyline
 90
        4
 70
     1
 43
6.0
 10
2217.918171683581
 20
1017.943749397116
 42
0.4142135623731
 10
2214.918171683581
 20
1020.943749397116
 42
0.4142135623731
 10
2211.918171683581
 20
1017.943749397116
 42
0.4142135623731
 10
2214.918171683581
 20
1014.943749397116
 42
0.4142135623731
  0
LINE
  5
1F8
330
1F
100
AcDbEntity
  8
0-B_寸法
  6
Continuous
 62
   120
370
     5
100
AcDbLine
 10
2214.918171683581
 20
1017.943749397116
 30
0.0
 11
-2195.081828316418
 21
1017.943749397116
 31
0.0
  0
LINE
  5
1F9
330
1F
100
AcDbEntity
  8
0-B_寸法
  6
Continuous
 62
   120
370
     5
100
AcDbLine
 10
2214.918171683581
 20
1017.943749397116
 30
0.0
 11
2214.918171683581
 21
1917.943749397116
 31
0.0
  0
LWPOLYLINE
  5
1FA
330
1F
100
AcDbEntity
  8
0-B_寸法
  6
Continuous
 62
     7
370
     9
100
AcDbPolyline
 90
        4
 70
     1
 43
6.0
 10
2073.918171683581
 20
1197.943749397116
 42
0.4142135623731
 10
2070.918171683581
 20
1200.943749397116
 42
0.4142135623731
 10
2067.918171683581
 20
1197.943749397116
 42
0.4142135623731
 10
2070.918171683581
 20
1194.943749397116
 42
0.4142135623731
  0
LWPOLYLINE
  5
1FB
330
1F
100
AcDbEntity
  8
0-B_寸法
  6
Continuous
 62
     7
370
     9
100
AcDbPolyline
 90
        4
 70
     1
 43
6.0
 10
2217.918171683581
 20
1197.943749397116
 42
0.4142135623731
 10
2214.918171683581
 20
1200.943749397116
 42
0.4142135623731
 10
2211.918171683581
 20
1197.943749397116
 42
0.4142135623731
 10
2214.918171683581
 20
1194.943749397116
 42
0.4142135623731
  0
LINE
  5
1FC
330
1F
100
AcDbEntity
  8
0-B_寸法
  6
Continuous
 62
   120
370
     5
100
AcDbLine
 10
2214.918171683581
 20
1197.943749397116
 30
0.0
 11
-2195.081828316418
 21
1197.943749397116
 31
0.0
  0
LINE
  5
1FD
330
1F
100
AcDbEntity
  8
0-B_寸法
  6
Continuous
 62
   120
370
     5
100
AcDbLine
 10
2058.918171683582
 20
1377.943749397116
 30
0.0
 11
2058.918171683582
 21
1917.943749397116
 31
0.0
  0
LINE
  5
1FE
330
1F
100
AcDbEntity
  8
0-B_寸法
  6
Continuous
 62
   120
370
     5
100
AcDbLine
 10
2070.918171683581
 20
1197.943749397116
 30
0.0
 11
2070.918171683581
 21
1917.943749397116
 31
0.0
  0
LWPOLYLINE
  5
1FF
330
1F
100
AcDbEntity
  8
0-B_寸法
  6
Continuous
 62
     7
370
     9
100
AcDbPolyline
 90
        4
 70
     1
 43
6.0
 10
2061.918171683582
 20
1377.943749397116
 42
0.4142135623731
 10
2058.918171683582
 20
1380.943749397116
 42
0.4142135623731
 10
2055.918171683582
 20
1377.943749397116
 42
0.4142135623731
 10
2058.918171683582
 20
1374.943749397116
 42
0.4142135623731
  0
LWPOLYLINE
  5
200
330
1F
100
AcDbEntity
  8
0-B_寸法
  6
Continuous
 62
     7
370
     9
100
AcDbPolyline
 90
        4
 70
     1
 43
6.0
 10
2073.918171683581
 20
1377.943749397116
 42
0.4142135623731
 10
2070.918171683581
 20
1380.943749397116
 42
0.4142135623731
 10
2067.918171683581
 20
1377.943749397116
 42
0.4142135623731
 10
2070.918171683581
 20
1374.943749397116
 42
0.4142135623731
  0
LINE
  5
201
330
1F
100
AcDbEntity
  8
0-B_寸法
  6
Continuous
 62
   120
370
     5
100
AcDbLine
 10
2070.918171683581
 20
1377.943749397116
 30
0.0
 11
-2051.081828316419
 21
1377.943749397116
 31
0.0
  0
LWPOLYLINE
  5
202
330
1F
100
AcDbEntity
  8
0-B_寸法
  6
Continuous
 62
     7
370
     9
100
AcDbPolyline
 90
        4
 70
     1
 43
6.0
 10
-2192.081828316419
 20
1017.943749397116
 42
0.4142135623731
 10
-2195.081828316418
 20
1020.943749397116
 42
0.4142135623731
 10
-2198.081828316418
 20
1017.943749397116
 42
0.4142135623731
 10
-2195.081828316418
 20
1014.943749397116
 42
0.4142135623731
  0
LINE
  5
203
330
1F
100
AcDbEntity
  8
0-B_寸法
  6
Continuous
 62
   120
370
     5
100
AcDbLine
 10
-2195.081828316418
 20
1017.943749397116
 30
0.0
 11
-2195.081828316418
 21
1917.943749397116
 31
0.0
  0
LWPOLYLINE
  5
204
330
1F
100
AcDbEntity
  8
0-B_寸法
  6
Continuous
 62
     7
370
     9
100
AcDbPolyline
 90
        4
 70
     1
 43
6.0
 10
-2192.081828316419
 20
1197.943749397116
 42
0.4142135623731
 10
-2195.081828316418
 20
1200.943749397116
 42
0.4142135623731
 10
-2198.081828316418
 20
1197.943749397116
 42
0.4142135623731
 10
-2195.081828316418
 20
1194.943749397116
 42
0.4142135623731
  0
LWPOLYLINE
  5
205
330
1F
100
AcDbEntity
  8
0-B_寸法
  6
Continuous
 62
     7
370
     9
100
AcDbPolyline
 90
        4
 70
     1
 43
6.0
 10
-2048.08182831642
 20
1197.943749397116
 42
0.4142135623731
 10
-2051.081828316419
 20
1200.943749397116
 42
0.4142135623731
 10
-2054.081828316419
 20
1197.943749397116
 42
0.4142135623731
 10
-2051.081828316419
 20
1194.943749397116
 42
0.4142135623731
  0
LINE
  5
206
330
1F
100
AcDbEntity
  8
0-B_寸法
  6
Continuous
 62
   120
370
     5
100
AcDbLine
 10
-2051.081828316419
 20
1197.943749397116
 30
0.0
 11
-2051.081828316419
 21
1917.943749397116
 31
0.0
  0
LWPOLYLINE
  5
207
330
1F
100
AcDbEntity
  8
0-B_寸法
  6
Continuous
 62
     7
370
     9
100
AcDbPolyline
 90
        4
 70
     1
 43
6.0
 10
-2048.08182831642
 20
1377.943749397116
 42
0.4142135623731
 10
-2051.081828316419
 20
1380.943749397116
 42
0.4142135623731
 10
-2054.081828316419
 20
1377.943749397116
 42
0.4142135623731
 10
-2051.081828316419
 20
1374.943749397116
 42
0.4142135623731
  0
LWPOLYLINE
  5
208
330
1F
100
AcDbEntity
  8
0-B_寸法
  6
Continuous
 62
     7
370
     9
100
AcDbPolyline
 90
        4
 70
     1
 43
6.0
 10
-2018.08182831642
 20
1377.943749397116
 42
0.4142135623731
 10
-2021.081828316419
 20
1380.943749397116
 42
0.4142135623731
 10
-2024.081828316419
 20
1377.943749397116
 42
0.4142135623731
 10
-2021.081828316419
 20
1374.943749397116
 42
0.4142135623731
  0
LINE
  5
209
330
1F
100
AcDbEntity
  8
0-B_寸法
  6
Continuous
 62
   120
370
     5
100
AcDbLine
 10
-2021.081828316419
 20
1377.943749397116
 30
0.0
 11
-2021.081828316419
 21
1917.943749397116
 31
0.0
  0
LINE
  5
20A
330
1F
100
AcDbEntity
  8
0-B_寸法
  6
Continuous
 62
   120
370
     5
100
AcDbLine
 10
1710.949247545136
 20
1557.943749397116
 30
0.0
 11
1710.949247545136
 21
1917.943749397116
 31
0.0
  0
LWPOLYLINE
  5
20B
330
1F
100
AcDbEntity
  8
0-B_寸法
  6
Continuous
 62
     7
370
     9
100
AcDbPolyline
 90
        4
 70
     1
 43
6.0
 10
1713.949247545136
 20
1557.943749397116
 42
0.4142135623731
 10
1710.949247545136
 20
1560.943749397116
 42
0.4142135623731
 10
1707.949247545136
 20
1557.943749397116
 42
0.4142135623731
 10
1710.949247545136
 20
1554.943749397116
 42
0.4142135623731
  0
LINE
  5
20C
330
1F
100
AcDbEntity
  8
0-B_寸法
  6
Continuous
 62
   120
370
     5
100
AcDbLine
 10
-1991.081931313247
 20
1557.943749397116
 30
0.0
 11
1710.949247545136
 21
1557.943749397116
 31
0.0
  0
LINE
  5
20D
330
1F
100
AcDbEntity
  8
0-B_寸法
  6
Continuous
 62
   120
370
     5
100
AcDbLine
 10
-1991.081931313247
 20
1557.943749397116
 30
0.0
 11
-1991.081931313247
 21
1917.943749397116
 31
0.0
  0
LWPOLYLINE
  5
20E
330
1F
100
AcDbEntity
  8
0-B_寸法
  6
Continuous
 62
     7
370
     9
100
AcDbPolyline
 90
        4
 70
     1
 43
6.0
 10
-1988.081931313247
 20
1557.943749397116
 42
0.4142135623731
 10
-1991.081931313247
 20
1560.943749397116
 42
0.4142135623731
 10
-1994.081931313246
 20
1557.943749397116
 42
0.4142135623731
 10
-1991.081931313247
 20
1554.943749397116
 42
0.4142135623731
  0
LINE
  5
20F
330
1F
100
AcDbEntity
  8
0-3_仕上げ
  6
Continuous
 62
     7
370
     9
100
AcDbLine
 10
-2633.081828316419
 20
2243.999683277018
 30
0.0
 11
-2243.081828316419
 21
2633.999683277025
 31
0.0
  0
LINE
  5
210
330
1F
100
AcDbEntity
  8
0-3_仕上げ
  6
Continuous
 62
     7
370
     9
100
AcDbLine
 10
2652.918171683581
 20
2633.999683277036
 30
0.0
 11
2262.918171683581
 21
2243.99968327703
 31
0.0
  0
TEXT
  5
211
330
1F
100
AcDbEntity
  8
0-A_文字
  6
Continuous
 62
     7
370
     9
100
AcDbText
 10
2051.008767622021
 20
1955.551515849175
 30
0.0
 40
91.44
  1
（丁番側）
 41
1.1
  7
ＭＳ ゴシック
100
AcDbText
  0
TEXT
  5
212
330
1F
100
AcDbEntity
  8
0-A_文字
  6
Continuous
 62
     7
370
     0
100
AcDbText
 10
-2709.581897599571
 20
1934.863749397116
 30
0.0
 40
91.44
  1
（ラッチ側）
  7
ＭＳ ゴシック
100
AcDbText
  0
TEXT
  5
213
330
1F
100
AcDbEntity
  8
0-A_文字
  6
Continuous
 62
     7
370
     9
100
AcDbText
 10
1853.746531773312
 20
901.840260332001
 30
0.0
 40
68.58
  1
※図示：右吊り元
 41
1.0
  7
ＭＳ ゴシック
100
AcDbText
  0
TEXT
  5
214
330
1F
100
AcDbEntity
  8
0-B_寸法
  6
Continuous
 62
     7
370
   211
100
AcDbText
 10
-2009.081828316419
 20
1409.863749397116
 30
0.0
 40
91.44
  1
5
  7
ＭＳ ゴシック
100
AcDbText
  0
TEXT
  5
215
330
1F
100
AcDbEntity
  8
0-B_寸法
  6
Continuous
 62
     7
370
   211
100
AcDbText
 10
1986.918171683582
 20
1409.863749397116
 30
0.0
 40
91.44
  1
2
  7
ＭＳ ゴシック
100
AcDbText
  0
TEXT
  5
216
330
1F
100
AcDbEntity
  8
0-B_寸法
  6
Continuous
 62
     7
370
   211
100
AcDbText
 10
-2183.081828316419
 20
1229.863749397116
 30
0.0
 40
91.44
  1
24
  7
ＭＳ ゴシック
100
AcDbText
  0
TEXT
  5
217
330
1F
100
AcDbEntity
  8
0-B_寸法
  6
Continuous
 62
     7
370
   211
100
AcDbText
 10
2082.918171683581
 20
1229.863749397116
 30
0.0
 40
91.44
  1
24
  7
ＭＳ ゴシック
100
AcDbText
  0
LINE
  5
218
330
1F
100
AcDbEntity
  8
0-0_補助線
  6
JWW_HOJO
 62
   120
370
     5
100
AcDbLine
 10
-2795.081828316418
 20
2237.999683277022
 30
0.0
 11
2814.918171683582
 21
2237.999683277022
 31
0.0
  0
LINE
  5
219
330
1F
100
AcDbEntity
  8
0-6_扉
  6
Continuous
 62
   200
370
    20
100
AcDbLine
 10
2058.918171683582
 20
2345.999683277022
 30
0.0
 11
2058.918171683582
 21
2129.999683277023
 31
0.0
  0
LINE
  5
21A
330
1F
100
AcDbEntity
  8
0-6_扉
  6
Continuous
 62
   200
370
    20
100
AcDbLine
 10
-2021.081828316419
 20
2345.999683277022
 30
0.0
 11
-2021.081828316419
 21
2129.999683277023
 31
0.0
  0
LINE
  5
21B
330
1F
100
AcDbEntity
  8
0-6_扉
  6
Continuous
 62
   200
370
    20
100
AcDbLine
 10
-2021.081828316419
 20
2345.999683277022
 30
0.0
 11
-41.08182831641869
 21
2345.999683277022
 31
0.0
  0
LINE
  5
21C
330
1F
100
AcDbEntity
  8
0-6_扉
  6
Continuous
 62
   200
370
    20
100
AcDbLine
 10
-2021.081828316419
 20
2129.999683277023
 30
0.0
 11
-41.08182831641869
 21
2129.999683277023
 31
0.0
  0
LINE
  5
21D
330
1F
100
AcDbEntity
  8
0-6_扉
  6
Continuous
 62
   200
370
    20
100
AcDbLine
 10
78.9181716835813
 20
2345.999683277022
 30
0.0
 11
2058.918171683582
 21
2345.999683277022
 31
0.0
  0
LINE
  5
21E
330
1F
100
AcDbEntity
  8
0-6_扉
  6
Continuous
 62
   200
370
    20
100
AcDbLine
 10
78.9181716835813
 20
2129.999683277023
 30
0.0
 11
2058.918171683582
 21
2129.999683277023
 31
0.0
  0
LINE
  5
21F
330
1F
100
AcDbEntity
  8
0-6_扉
  6
JWW_DASHED2
 62
   200
370
    20
100
AcDbLine
 10
1710.949247545136
 20
1973.448156947582
 30
0.0
 11
1926.949247545136
 21
1973.448156947582
 31
0.0
  0
CIRCLE
  5
220
330
1F
100
AcDbEntity
  8
0-7_金物
  6
Continuous
 62
     7
370
     9
100
AcDbCircle
 10
2053.209472724903
 20
1967.739458097252
 30
0.0
 40
30.0
  0
CIRCLE
  5
221
330
1F
100
AcDbEntity
  8
0-7_金物
  6
Continuous
 62
     7
370
     9
100
AcDbCircle
 10
2053.209472724903
 20
1967.739458097252
 30
0.0
 40
21.00000000000001
  0
LINE
  5
222
330
1F
100
AcDbEntity
  8
0-6_扉
  6
JWW_DASHED2
 62
   200
370
    20
100
AcDbLine
 10
1710.949247545136
 20
1973.448156947582
 30
0.0
 11
1710.949247545136
 21
1917.943749397116
 31
0.0
  0
LINE
  5
223
330
1F
100
AcDbEntity
  8
0-6_扉
  6
JWW_DASHED2
 62
   200
370
    20
100
AcDbLine
 10
1926.949247545136
 20
1973.448156947582
 30
0.0
 11
1926.949247545136
 21
1917.943749397116
 31
0.0
  0
LWPOLYLINE
  5
224
330
1F
100
AcDbEntity
  8
0-B_寸法
  6
Continuous
 62
     7
370
     9
100
AcDbPolyline
 90
        4
 70
     1
 43
6.0
 10
-1736.552273505831
 20
2099.999683277023
 42
0.4142135623731
 10
-1739.552273505831
 20
2102.999683277023
 42
0.4142135623731
 10
-1742.552273505831
 20
2099.999683277023
 42
0.4142135623731
 10
-1739.552273505831
 20
2096.999683277024
 42
0.4142135623731
  0
LWPOLYLINE
  5
225
330
1F
100
AcDbEntity
  8
0-B_寸法
  6
Continuous
 62
     7
370
     9
100
AcDbPolyline
 90
        4
 70
     1
 43
6.0
 10
-1736.552273505831
 20
2777.999683277022
 42
0.4142135623731
 10
-1739.552273505831
 20
2780.999683277022
 42
0.4142135623731
 10
-1742.552273505831
 20
2777.999683277022
 42
0.4142135623731
 10
-1739.552273505831
 20
2774.999683277022
 42
0.4142135623731
  0
LINE
  5
226
330
1F
100
AcDbEntity
  8
0-B_寸法
  6
Continuous
 62
   120
370
     5
100
AcDbLine
 10
-1739.552273505831
 20
2777.999683277022
 30
0.0
 11
-1739.552273505831
 21
2099.999683277023
 31
0.0
  0
LINE
  5
227
330
1F
100
AcDbEntity
  8
0-B_寸法
  6
Continuous
 62
   120
370
     5
100
AcDbLine
 10
-1739.552273505831
 20
2099.999683277023
 30
0.0
 11
-1946.684412329433
 21
2099.999683277023
 31
0.0
  0
LINE
  5
228
330
1F
100
AcDbEntity
  8
0-B_寸法
  6
Continuous
 62
   120
370
     5
100
AcDbLine
 10
-1739.552273505831
 20
2777.999683277022
 30
0.0
 11
-1946.684412329433
 21
2777.999683277022
 31
0.0
  0
TEXT
  5
229
330
1F
100
AcDbEntity
  8
0-B_寸法
  6
Continuous
 62
     7
370
     0
100
AcDbText
 10
-1764.196032316547
 20
2393.31929289251
 30
0.0
 40
91.44
  1
113
 50
90.0
  7
ＭＳ ゴシック
100
AcDbText
  0
LINE
  5
22A
330
1F
100
AcDbEntity
  8
0-0_補助線
  6
JWW_HOJO
 62
   120
370
     5
100
AcDbLine
 10
2814.918171683581
 20
2955.943749397113
 30
0.0
 11
-2795.081828316418
 21
2955.943749397113
 31
0.0
  0
LINE
  5
22B
330
1F
100
AcDbEntity
  8
0-0_補助線
  6
JWW_HOJO
 62
   120
370
     5
100
AcDbLine
 10
-2795.081828316418
 20
2955.943749397113
 30
0.0
 11
-2795.081828316418
 21
1917.943749397116
 31
0.0
  0
LINE
  5
22C
330
1F
100
AcDbEntity
  8
0-0_補助線
  6
JWW_HOJO
 62
   120
370
     5
100
AcDbLine
 10
2814.918171683581
 20
1917.943749397116
 30
0.0
 11
-2795.081828316418
 21
1917.943749397116
 31
0.0
  0
TEXT
  5
22D
330
1F
100
AcDbEntity
  8
0-A_文字
  6
Continuous
 62
     7
370
     9
100
AcDbText
 10
-2795.081828316417
 20
3062.86374939746
 30
0.0
 40
91.44
  1
■横断面図
 41
1.1
  7
ＭＳ ゴシック
100
AcDbText
  0
INSERT
  5
22E
330
1F
100
AcDbEntity
  8
0-0_補助線
  6
Continuous
 62
     7
370
     9
100
AcDbBlockReference
  2
2@@SfigorgFlag@@4_0-0_
 10
-2050.155750241409
 20
2459.530998685452
 30
0.0
 41
-30.0
 42
30.0
  0
INSERT
  5
22F
330
1F
100
AcDbEntity
  8
0-0_補助線
  6
Continuous
 62
     7
370
     9
100
AcDbBlockReference
  2
01@@SfigorgFlag@@4_0-0_
 10
2070.040722446815
 20
2468.999683277022
 30
0.0
 41
-30.0
 42
30.0
 50
270.0
  0
LINE
  5
230
330
1F
100
AcDbEntity
  8
0-A_文字
  6
Continuous
 62
    92
370
    13
100
AcDbLine
 10
4083.835838693025
 20
3730.000181455871
 30
0.0
 11
4083.835838693025
 21
2764.000181455871
 31
0.0
  0
LINE
  5
231
330
1F
100
AcDbEntity
  8
0-A_文字
  6
Continuous
 62
    92
370
    13
100
AcDbLine
 10
4083.835838693025
 20
3604.000181455871
 30
0.0
 11
5679.835838693025
 21
3604.000181455871
 31
0.0
  0
LINE
  5
232
330
1F
100
AcDbEntity
  8
0-A_文字
  6
Continuous
 62
    92
370
    13
100
AcDbLine
 10
5679.835838693025
 20
3730.000181455871
 30
0.0
 11
4083.835838693025
 21
3730.000181455871
 31
0.0
  0
LINE
  5
233
330
1F
100
AcDbEntity
  8
0-A_文字
  6
Continuous
 62
    92
370
    13
100
AcDbLine
 10
5679.835838693025
 20
3730.000181455871
 30
0.0
 11
5679.835838693025
 21
2764.000181455871
 31
0.0
  0
LINE
  5
234
330
1F
100
AcDbEntity
  8
0-A_文字
  6
Continuous
 62
    92
370
    13
100
AcDbLine
 10
5679.835838693025
 20
2764.000181455871
 30
0.0
 11
4083.835838693025
 21
2764.000181455871
 31
0.0
  0
LINE
  5
235
330
1F
100
AcDbEntity
  8
0-A_文字
  6
Continuous
 62
    92
370
    13
100
AcDbLine
 10
4881.835838693026
 20
3730.000181455871
 30
0.0
 11
4881.835838693026
 21
2764.000181455871
 31
0.0
  0
LINE
  5
236
330
1F
100
AcDbEntity
  8
0-0_補助線
  6
JWW_HOJO
 62
   120
370
     5
100
AcDbLine
 10
5658.835838693025
 20
3730.000181455871
 30
0.0
 11
5658.835838693025
 21
2764.000181455871
 31
0.0
  0
LINE
  5
237
330
1F
100
AcDbEntity
  8
0-0_補助線
  6
JWW_HOJO
 62
   120
370
     5
100
AcDbLine
 10
4902.835838693027
 20
3730.000181455871
 30
0.0
 11
4902.835838693027
 21
2764.000181455871
 31
0.0
  0
LINE
  5
238
330
1F
100
AcDbEntity
  8
戸当り
  6
Continuous
 62
    40
370
    15
100
AcDbLine
 10
5436.235838693025
 20
3481.846273380328
 30
0.0
 11
5658.835838693025
 21
3481.846273380328
 31
0.0
  0
LINE
  5
239
330
1F
100
AcDbEntity
  8
戸当り
  6
Continuous
 62
    40
370
    15
100
AcDbLine
 10
5436.235838693025
 20
3481.846273380328
 30
0.0
 11
5436.235838693025
 21
3444.046273380328
 31
0.0
  0
LINE
  5
23A
330
1F
100
AcDbEntity
  8
戸当り
  6
Continuous
 62
    40
370
    15
100
AcDbLine
 10
5125.435838693026
 20
3481.846273380329
 30
0.0
 11
4902.835838693027
 21
3481.846273380329
 31
0.0
  0
LINE
  5
23B
330
1F
100
AcDbEntity
  8
戸当り
  6
Continuous
 62
    40
370
    15
100
AcDbLine
 10
4638.235838693025
 20
3481.846273380328
 30
0.0
 11
4860.835838693025
 21
3481.846273380328
 31
0.0
  0
LINE
  5
23C
330
1F
100
AcDbEntity
  8
戸当り
  6
Continuous
 62
    40
370
    15
100
AcDbLine
 10
4327.435838693025
 20
3481.846273380329
 30
0.0
 11
4327.435838693025
 21
3444.046273380328
 31
0.0
  0
LINE
  5
23D
330
1F
100
AcDbEntity
  8
戸当り
  6
Continuous
 62
    40
370
    15
100
AcDbLine
 10
4327.435838693025
 20
3481.846273380329
 30
0.0
 11
4104.835838693025
 21
3481.846273380329
 31
0.0
  0
LINE
  5
23E
330
1F
100
AcDbEntity
  8
0-0_補助線
  6
JWW_HOJO
 62
   120
370
     5
100
AcDbLine
 10
4860.835838693025
 20
3730.000181455871
 30
0.0
 11
4860.835838693025
 21
2764.000181455871
 31
0.0
  0
LINE
  5
23F
330
1F
100
AcDbEntity
  8
0-0_補助線
  6
JWW_HOJO
 62
   120
370
     5
100
AcDbLine
 10
4104.835838693025
 20
3730.000181455871
 30
0.0
 11
4104.835838693025
 21
2764.000181455871
 31
0.0
  0
LINE
  5
240
330
1F
100
AcDbEntity
  8
戸当り
  6
Continuous
 62
    40
370
    15
100
AcDbLine
 10
4104.835838693025
 20
3444.046273380328
 30
0.0
 11
4860.835838693025
 21
3444.046273380328
 31
0.0
  0
LINE
  5
241
330
1F
100
AcDbEntity
  8
戸当り
  6
Continuous
 62
    40
370
    15
100
AcDbLine
 10
4638.235838693025
 20
3481.846273380328
 30
0.0
 11
4638.235838693025
 21
3133.246273380327
 31
0.0
  0
ARC
  5
242
330
1F
100
AcDbEntity
  8
戸当り
  6
Continuous
 62
    40
370
    15
100
AcDbCircle
 10
4638.235838693025
 20
3444.046273380328
 30
0.0
 40
310.8
100
AcDbArc
 50
180.0
 51
270.0
  0
LINE
  5
243
330
1F
100
AcDbEntity
  8
戸当り
  6
Continuous
 62
    40
370
    15
100
AcDbLine
 10
5658.835838693025
 20
3444.046273380328
 30
0.0
 11
4902.835838693027
 21
3444.046273380328
 31
0.0
  0
LINE
  5
244
330
1F
100
AcDbEntity
  8
戸当り
  6
Continuous
 62
    40
370
    15
100
AcDbLine
 10
5125.435838693026
 20
3481.846273380329
 30
0.0
 11
5125.435838693024
 21
3133.246273380327
 31
0.0
  0
ARC
  5
245
330
1F
100
AcDbEntity
  8
戸当り
  6
Continuous
 62
    40
370
    15
100
AcDbCircle
 10
5125.435838693024
 20
3444.046273380328
 30
0.0
 40
310.8
100
AcDbArc
 50
270.0
 51
0.0
  0
ELLIPSE
  5
246
330
1F
100
AcDbEntity
  8
戸当り
  6
Continuous
 62
    92
370
    13
100
AcDbEllipse
 10
5207.192036141519
 20
2972.884428393054
 30
0.0
 11
-17.7763823922528
 21
100.8148742797557
 31
0.0
210
0.0
220
0.0
230
1.0
 40
0.4000000000000001
 41
1.85063327265668
 42
2.442876790075129
  0
ELLIPSE
  5
247
330
1F
100
AcDbEntity
  8
戸当り
  6
Continuous
 62
    92
370
    13
100
AcDbEllipse
 10
5207.192036141519
 20
2972.884428393054
 30
0.0
 11
-17.7763823922528
 21
100.8148742797557
 31
0.0
210
0.0
220
0.0
230
1.0
 40
0.4000000000000001
 41
3.840308517104467
 42
4.432552034522944
  0
ELLIPSE
  5
248
330
1F
100
AcDbEntity
  8
戸当り
  6
Continuous
 62
    92
370
    13
100
AcDbEllipse
 10
5206.772290091618
 20
2975.264926534712
 30
0.0
 11
-14.67024424252691
 21
83.19908946199425
 31
0.0
210
0.0
220
0.0
230
1.0
 40
0.5
 41
4.340591432030095
 42
8.225779182329084
  0
LINE
  5
249
330
1F
100
AcDbEntity
  8
戸当り
  6
Continuous
 62
    92
370
    13
100
AcDbLine
 10
5246.741919914281
 20
2900.267379069785
 30
0.0
 11
5194.863795824744
 21
2891.119866084259
 31
0.0
  0
LINE
  5
24A
330
1F
100
AcDbEntity
  8
戸当り
  6
Continuous
 62
    92
370
    13
100
AcDbLine
 10
5248.929886952885
 20
2887.858801381831
 30
0.0
 11
5197.051762863347
 21
2878.711288396305
 31
0.0
  0
ELLIPSE
  5
24B
330
1F
100
AcDbEntity
  8
戸当り
  6
Continuous
 62
    92
370
    13
100
AcDbEllipse
 10
5222.990824908115
 20
2883.285044889069
 30
0.0
 11
-7.622927487939132
 21
43.23177007461331
 31
0.0
210
0.0
220
0.0
230
1.0
 40
0.6
 41
1.570796326794897
 42
4.71238898038469
  0
ELLIPSE
  5
24C
330
1F
100
AcDbEntity
  8
戸当り
  6
Continuous
 62
    92
370
    13
100
AcDbEllipse
 10
5361.652805079396
 20
3008.935263882863
 30
0.0
 11
26.49533313827762
 21
98.88192943551533
 31
0.0
210
0.0
220
0.0
230
1.0
 40
0.4
 41
1.85063327265668
 42
2.442876790075129
  0
ELLIPSE
  5
24D
330
1F
100
AcDbEntity
  8
戸当り
  6
Continuous
 62
    92
370
    13
100
AcDbEllipse
 10
5361.652805079396
 20
3008.935263882863
 30
0.0
 11
26.49533313827762
 21
98.88192943551533
 31
0.0
210
0.0
220
0.0
230
1.0
 40
0.4
 41
3.840308517104467
 42
4.432552034522944
  0
ELLIPSE
  5
24E
330
1F
100
AcDbEntity
  8
戸当り
  6
Continuous
 62
    92
370
    13
100
AcDbEllipse
 10
5362.278427952499
 20
3011.270120231655
 30
0.0
 11
21.86569797210526
 21
81.6038957748525
 31
0.0
210
0.0
220
0.0
230
1.0
 40
0.5
 41
4.340591432030095
 42
8.225779182329084
  0
LINE
  5
24F
330
1F
100
AcDbEntity
  8
戸当り
  6
Continuous
 62
    92
370
    13
100
AcDbLine
 10
5366.807881561305
 20
2926.407363477467
 30
0.0
 11
5315.924427684911
 21
2940.041543851753
 31
0.0
  0
LINE
  5
250
330
1F
100
AcDbEntity
  8
戸当り
  6
Continuous
 62
    92
370
    13
100
AcDbLine
 10
5363.546761593014
 20
2914.236698066225
 30
0.0
 11
5312.66330771662
 21
2927.870878440511
 31
0.0
  0
ELLIPSE
  5
251
330
1F
100
AcDbEntity
  8
戸当り
  6
Continuous
 62
    92
370
    13
100
AcDbEllipse
 10
5338.105034654818
 20
2921.053788253369
 30
0.0
 11
11.36181697857171
 21
42.40287823032828
 31
0.0
210
0.0
220
0.0
230
1.0
 40
0.6
 41
1.570796326794897
 42
4.71238898038469
  0
LINE
  5
252
330
1F
100
AcDbEntity
  8
0-0_補助線
  6
JWW_HOJO
 62
   120
370
     5
100
AcDbLine
 10
5280.835838693025
 20
3730.000181455871
 30
0.0
 11
5280.835838693025
 21
2764.000181455871
 31
0.0
  0
LINE
  5
253
330
1F
100
AcDbEntity
  8
0-0_補助線
  6
JWW_HOJO
 62
   120
370
     5
100
AcDbLine
 10
4482.835838693024
 20
3730.000181455871
 30
0.0
 11
4482.835838693024
 21
2764.000181455871
 31
0.0
  0
ELLIPSE
  5
254
330
1F
100
AcDbEntity
  8
戸当り
  6
Continuous
 62
    92
370
    13
100
AcDbEllipse
 10
4409.192036141519
 20
2972.884428393054
 30
0.0
 11
-17.7763823922528
 21
100.8148742797557
 31
0.0
210
0.0
220
0.0
230
1.0
 40
0.4000000000000001
 41
1.85063327265668
 42
2.442876790075129
  0
ELLIPSE
  5
255
330
1F
100
AcDbEntity
  8
戸当り
  6
Continuous
 62
    92
370
    13
100
AcDbEllipse
 10
4409.192036141519
 20
2972.884428393054
 30
0.0
 11
-17.7763823922528
 21
100.8148742797557
 31
0.0
210
0.0
220
0.0
230
1.0
 40
0.4000000000000001
 41
3.840308517104467
 42
4.432552034522944
  0
ELLIPSE
  5
256
330
1F
100
AcDbEntity
  8
戸当り
  6
Continuous
 62
    92
370
    13
100
AcDbEllipse
 10
4408.772290091617
 20
2975.264926534712
 30
0.0
 11
-14.67024424252691
 21
83.19908946199425
 31
0.0
210
0.0
220
0.0
230
1.0
 40
0.5
 41
4.340591432030095
 42
8.225779182329084
  0
LINE
  5
257
330
1F
100
AcDbEntity
  8
戸当り
  6
Continuous
 62
    92
370
    13
100
AcDbLine
 10
4448.741919914279
 20
2900.267379069785
 30
0.0
 11
4396.863795824744
 21
2891.119866084259
 31
0.0
  0
LINE
  5
258
330
1F
100
AcDbEntity
  8
戸当り
  6
Continuous
 62
    92
370
    13
100
AcDbLine
 10
4450.929886952883
 20
2887.858801381831
 30
0.0
 11
4399.051762863347
 21
2878.711288396305
 31
0.0
  0
ELLIPSE
  5
259
330
1F
100
AcDbEntity
  8
戸当り
  6
Continuous
 62
    92
370
    13
100
AcDbEllipse
 10
4424.990824908115
 20
2883.285044889069
 30
0.0
 11
-7.622927487939132
 21
43.23177007461331
 31
0.0
210
0.0
220
0.0
230
1.0
 40
0.6
 41
1.570796326794897
 42
4.71238898038469
  0
ELLIPSE
  5
25A
330
1F
100
AcDbEntity
  8
戸当り
  6
Continuous
 62
    92
370
    13
100
AcDbEllipse
 10
4563.652805079395
 20
3008.935263882863
 30
0.0
 11
26.49533313827762
 21
98.88192943551533
 31
0.0
210
0.0
220
0.0
230
1.0
 40
0.4
 41
1.85063327265668
 42
2.442876790075129
  0
ELLIPSE
  5
25B
330
1F
100
AcDbEntity
  8
戸当り
  6
Continuous
 62
    92
370
    13
100
AcDbEllipse
 10
4563.652805079395
 20
3008.935263882863
 30
0.0
 11
26.49533313827762
 21
98.88192943551533
 31
0.0
210
0.0
220
0.0
230
1.0
 40
0.4
 41
3.840308517104467
 42
4.432552034522944
  0
ELLIPSE
  5
25C
330
1F
100
AcDbEntity
  8
戸当り
  6
Continuous
 62
    92
370
    13
100
AcDbEllipse
 10
4564.278427952496
 20
3011.270120231655
 30
0.0
 11
21.86569797210526
 21
81.6038957748525
 31
0.0
210
0.0
220
0.0
230
1.0
 40
0.5
 41
4.340591432030095
 42
8.225779182329084
  0
LINE
  5
25D
330
1F
100
AcDbEntity
  8
戸当り
  6
Continuous
 62
    92
370
    13
100
AcDbLine
 10
4568.807881561304
 20
2926.407363477467
 30
0.0
 11
4517.92442768491
 21
2940.041543851753
 31
0.0
  0
LINE
  5
25E
330
1F
100
AcDbEntity
  8
戸当り
  6
Continuous
 62
    92
370
    13
100
AcDbLine
 10
4565.546761593013
 20
2914.236698066225
 30
0.0
 11
4514.66330771662
 21
2927.870878440511
 31
0.0
  0
ELLIPSE
  5
25F
330
1F
100
AcDbEntity
  8
戸当り
  6
Continuous
 62
    92
370
    13
100
AcDbEllipse
 10
4540.105034654816
 20
2921.053788253369
 30
0.0
 11
11.36181697857171
 21
42.40287823032828
 31
0.0
210
0.0
220
0.0
230
1.0
 40
0.6
 41
1.570796326794897
 42
4.71238898038469
  0
TEXT
  5
260
330
1F
100
AcDbEntity
  8
0-A_文字
  6
Continuous
 62
     7
370
     9
100
AcDbText
 10
4083.835838693027
 20
3776.92018145587
 30
0.0
 40
91.44
  1
■吊り手方向
 41
1.104166666666667
  7
ＭＳ ゴシック
100
AcDbText
  0
TEXT
  5
261
330
1F
100
AcDbEntity
  8
0-A_文字
  6
Continuous
 62
     7
370
     9
100
AcDbText
 10
4332.835838693027
 20
3634.690181455871
 30
0.0
 40
68.58
  1
右吊元
 41
1.111111111111111
  7
ＭＳ ゴシック
100
AcDbText
  0
TEXT
  5
262
330
1F
100
AcDbEntity
  8
0-A_文字
  6
Continuous
 62
     7
370
     9
100
AcDbText
 10
5130.835838693025
 20
3634.690181455871
 30
0.0
 40
68.58
  1
左吊元
 41
1.111111111111111
  7
ＭＳ ゴシック
100
AcDbText
  0
LINE
  5
263
330
1F
100
AcDbEntity
  8
F-0_補助線
  6
JWW_HOJO
 62
   120
370
     5
100
AcDbLine
 10
-5659.999495325861
 20
4424.999604096284
 30
0.0
 11
-5659.999495325861
 21
-4455.0
 31
0.0
  0
LINE
  5
264
330
1F
100
AcDbEntity
  8
F-0_補助線
  6
JWW_HOJO
 62
   120
370
     5
100
AcDbLine
 10
-6140.081333436773
 20
194.9998020481422
 30
0.0
 11
6159.917676803936
 21
194.9998020481422
 31
0.0
  0
LINE
  5
265
330
1F
100
AcDbEntity
  8
F-0_補助線
  6
JWW_HOJO
 62
   120
370
     5
100
AcDbLine
 10
9.918171683581818
 20
-4455.0
 30
0.0
 11
9.918171683581818
 21
4424.999604096284
 31
0.0
  0
LINE
  5
266
330
1F
100
AcDbEntity
  8
F-0_補助線
  6
JWW_HOJO
 62
   120
370
     5
100
AcDbLine
 10
-200.0818283164182
 20
-3159.000197951857
 30
0.0
 11
-200.0818283164182
 21
194.9998020481422
 31
0.0
  0
LINE
  5
267
330
1F
100
AcDbEntity
  8
F-0_補助線
  6
JWW_HOJO
 62
   120
370
     5
100
AcDbLine
 10
219.9181716835818
 20
-3159.000197951857
 30
0.0
 11
219.9181716835818
 21
194.9998020481422
 31
0.0
  0
LINE
  5
268
330
1F
100
AcDbEntity
  8
F-0_補助線
  6
JWW_HOJO
 62
   120
370
     5
100
AcDbLine
 10
5679.835838693025
 20
4000.000181455871
 30
0.0
 11
5679.835838693025
 21
-4455.0
 31
0.0
  0
LINE
  5
269
330
1F
100
AcDbEntity
  8
F-0_補助線
  6
JWW_HOJO
 62
   120
370
     5
100
AcDbLine
 10
-6140.081333436773
 20
-3159.000197951857
 30
0.0
 11
6159.917676803936
 21
-3159.000197951857
 31
0.0
  0
LINE
  5
26A
330
1F
100
AcDbEntity
  8
F-0_補助線
  6
JWW_HOJO
 62
   120
370
     5
100
AcDbLine
 10
-6140.081333436773
 20
2438.999683277028
 30
0.0
 11
6159.917676803936
 21
2438.999683277028
 31
0.0
  0
LINE
  5
26B
330
1F
100
AcDbEntity
  8
F-0_補助線
  6
JWW_HOJO
 62
   120
370
     5
100
AcDbLine
 10
-6140.081333436773
 20
3730.000181455871
 30
0.0
 11
6159.917676803936
 21
3730.000181455871
 31
0.0
  0
LINE
  5
26C
330
1F
100
AcDbEntity
  8
F-0_補助線
  6
JWW_HOJO
 62
   120
370
     5
100
AcDbLine
 10
-6140.081333436773
 20
4000.000181455871
 30
0.0
 11
6159.917676803936
 21
4000.000181455871
 31
0.0
  0
LINE
  5
26D
330
1F
100
AcDbEntity
  8
0-A_文字
  6
Continuous
 62
    92
370
    13
100
AcDbLine
 10
219.9181716835818
 20
-339.000403945508
 30
0.0
 11
219.9181716835818
 21
-2058.041960825095
 31
0.0
  0
LINE
  5
26E
330
1F
100
AcDbEntity
  8
0-A_文字
  6
Continuous
 62
    92
370
    13
100
AcDbLine
 10
1719.918171683582
 20
-339.000403945508
 30
0.0
 11
1719.918171683582
 21
-2058.041960825095
 31
0.0
  0
LINE
  5
26F
330
1F
100
AcDbEntity
  8
0-A_文字
  6
Continuous
 62
    92
370
    13
100
AcDbLine
 10
1719.918171683582
 20
-519.000403945508
 30
0.0
 11
219.9181716835818
 21
-519.000403945508
 31
0.0
  0
LINE
  5
270
330
1F
100
AcDbEntity
  8
0-A_文字
  6
Continuous
 62
    92
370
    13
100
AcDbLine
 10
1719.918171683582
 20
-339.000403945508
 30
0.0
 11
219.9181716835818
 21
-339.000403945508
 31
0.0
  0
LINE
  5
271
330
1F
100
AcDbEntity
  8
0-A_文字
  6
Continuous
 62
    92
370
    13
100
AcDbLine
 10
1719.918171683582
 20
-2058.041960825095
 30
0.0
 11
219.9181716835818
 21
-2058.041960825095
 31
0.0
  0
TEXT
  5
272
330
1F
100
AcDbEntity
  8
0-A_文字
  6
Continuous
 62
     7
370
     9
100
AcDbText
 10
549.9181716835818
 20
-472.080403945508
 30
0.0
 40
91.44
  1
竪枠下端加工図
  7
ＭＳ ゴシック
100
AcDbText
  0
LWPOLYLINE
  5
273
330
1F
100
AcDbEntity
  8
0-B_寸法
  6
Continuous
 62
     7
370
     9
100
AcDbPolyline
 90
        4
 70
     1
 43
6.0
 10
474.5715307039176
 20
-1661.551811400017
 42
0.4142135623731
 10
471.5715307039176
 20
-1658.551811400017
 42
0.4142135623731
 10
468.5715307039176
 20
-1661.551811400017
 42
0.4142135623731
 10
471.5715307039176
 20
-1664.551811400017
 42
0.4142135623731
  0
LINE
  5
274
330
1F
100
AcDbEntity
  8
0-B_寸法
  6
Continuous
 62
   120
370
     5
100
AcDbLine
 10
471.5715307039176
 20
-1661.551811400017
 30
0.0
 11
591.5715307039176
 21
-1661.551811400017
 31
0.0
  0
LINE
  5
275
330
1F
100
AcDbEntity
  8
0-4_枠
  6
Continuous
 62
    92
370
    13
100
AcDbLine
 10
663.9181716835668
 20
-1661.551811400017
 30
0.0
 11
1341.918171683568
 21
-1661.551811400017
 31
0.0
  0
LINE
  5
276
330
1F
100
AcDbEntity
  8
0-C_ハッチ
  6
JWW_DASHED1
 62
   120
370
     5
100
AcDbLine
 10
1296.898575742425
 20
-1661.551811400003
 30
0.0
 11
1341.918171683568
 21
-1616.53221545886
 31
0.0
  0
LWPOLYLINE
  5
277
330
1F
100
AcDbEntity
  8
0-B_寸法
  6
Continuous
 62
     7
370
     9
100
AcDbPolyline
 90
        4
 70
     1
 43
6.0
 10
474.5715307039176
 20
-1613.551811400017
 42
0.4142135623731
 10
471.5715307039176
 20
-1610.551811400017
 42
0.4142135623731
 10
468.5715307039176
 20
-1613.551811400017
 42
0.4142135623731
 10
471.5715307039176
 20
-1616.551811400017
 42
0.4142135623731
  0
LINE
  5
278
330
1F
100
AcDbEntity
  8
0-4_枠
  6
Continuous
 62
    92
370
    13
100
AcDbLine
 10
663.9181716835668
 20
-1613.551811400017
 30
0.0
 11
1341.918171683568
 21
-1613.551811400017
 31
0.0
  0
TEXT
  5
279
330
1F
100
AcDbEntity
  8
0-B_寸法
  6
Continuous
 62
     7
370
   211
100
AcDbText
 10
439.6515307039176
 20
-1665.301811400017
 30
0.0
 40
91.44
  1
8
 50
90.0
  7
ＭＳ ゴシック
100
AcDbText
  0
LINE
  5
27A
330
1F
100
AcDbEntity
  8
0-B_寸法
  6
Continuous
 62
   120
370
     5
100
AcDbLine
 10
471.5715307039176
 20
-1661.551811400017
 30
0.0
 11
471.5715307039176
 21
-1613.551811400017
 31
0.0
  0
LINE
  5
27B
330
1F
100
AcDbEntity
  8
0-B_寸法
  6
Continuous
 62
   120
370
     5
100
AcDbLine
 10
471.5715307039176
 20
-1613.551811400017
 30
0.0
 11
591.5715307039176
 21
-1613.551811400017
 31
0.0
  0
LINE
  5
27C
330
1F
100
AcDbEntity
  8
0-C_ハッチ
  6
JWW_DASHED1
 62
   120
370
     5
100
AcDbLine
 10
663.9181716835668
 20
-1658.136112390912
 30
0.0
 11
708.5024726744584
 21
-1613.551811400017
 31
0.0
  0
LINE
  5
27D
330
1F
100
AcDbEntity
  8
0-C_ハッチ
  6
JWW_DASHED1
 62
   120
370
     5
100
AcDbLine
 10
1254.472168871218
 20
-1661.55181140001
 30
0.0
 11
1302.472168871212
 21
-1613.551811400017
 31
0.0
  0
LINE
  5
27E
330
1F
100
AcDbEntity
  8
0-C_ハッチ
  6
JWW_DASHED1
 62
   120
370
     5
100
AcDbLine
 10
702.9288795456586
 20
-1661.551811400017
 30
0.0
 11
750.9288795456532
 21
-1613.551811400017
 31
0.0
  0
LINE
  5
27F
330
1F
100
AcDbEntity
  8
0-C_ハッチ
  6
JWW_DASHED1
 62
   120
370
     5
100
AcDbLine
 10
745.3552864168518
 20
-1661.551811400017
 30
0.0
 11
793.3552864168516
 21
-1613.551811400017
 31
0.0
  0
LINE
  5
280
330
1F
100
AcDbEntity
  8
0-C_ハッチ
  6
JWW_DASHED1
 62
   120
370
     5
100
AcDbLine
 10
787.7816932880586
 20
-1661.55181140001
 30
0.0
 11
835.7816932880517
 21
-1613.551811400017
 31
0.0
  0
LINE
  5
281
330
1F
100
AcDbEntity
  8
0-C_ハッチ
  6
JWW_DASHED1
 62
   120
370
     5
100
AcDbLine
 10
830.2081001592381
 20
-1661.551811400017
 30
0.0
 11
878.2081001592456
 21
-1613.551811400017
 31
0.0
  0
LINE
  5
282
330
1F
100
AcDbEntity
  8
0-C_ハッチ
  6
JWW_DASHED1
 62
   120
370
     5
100
AcDbLine
 10
876.0502060395464
 20
-1658.136112390912
 30
0.0
 11
920.634507030438
 21
-1613.551811400017
 31
0.0
  0
LINE
  5
283
330
1F
100
AcDbEntity
  8
0-C_ハッチ
  6
JWW_DASHED1
 62
   120
370
     5
100
AcDbLine
 10
915.0609139016382
 20
-1661.551811400017
 30
0.0
 11
963.0609139016328
 21
-1613.551811400017
 31
0.0
  0
LINE
  5
284
330
1F
100
AcDbEntity
  8
0-C_ハッチ
  6
JWW_DASHED1
 62
   120
370
     5
100
AcDbLine
 10
957.4873207728314
 20
-1661.551811400017
 30
0.0
 11
1005.487320772831
 21
-1613.551811400017
 31
0.0
  0
LINE
  5
285
330
1F
100
AcDbEntity
  8
0-C_ハッチ
  6
JWW_DASHED1
 62
   120
370
     5
100
AcDbLine
 10
999.9137276440382
 20
-1661.55181140001
 30
0.0
 11
1047.913727644031
 21
-1613.551811400017
 31
0.0
  0
LINE
  5
286
330
1F
100
AcDbEntity
  8
0-C_ハッチ
  6
JWW_DASHED1
 62
   120
370
     5
100
AcDbLine
 10
1042.340134515245
 20
-1661.551811400003
 30
0.0
 11
1090.340134515231
 21
-1613.551811400017
 31
0.0
  0
LINE
  5
287
330
1F
100
AcDbEntity
  8
0-C_ハッチ
  6
JWW_DASHED1
 62
   120
370
     5
100
AcDbLine
 10
1084.766541386418
 20
-1661.551811400017
 30
0.0
 11
1132.766541386425
 21
-1613.551811400017
 31
0.0
  0
LINE
  5
288
330
1F
100
AcDbEntity
  8
0-C_ハッチ
  6
JWW_DASHED1
 62
   120
370
     5
100
AcDbLine
 10
1130.608647266726
 20
-1658.136112390912
 30
0.0
 11
1175.192948257618
 21
-1613.551811400017
 31
0.0
  0
LINE
  5
289
330
1F
100
AcDbEntity
  8
0-C_ハッチ
  6
JWW_DASHED1
 62
   120
370
     5
100
AcDbLine
 10
1169.619355128818
 20
-1661.551811400017
 30
0.0
 11
1217.619355128812
 21
-1613.551811400017
 31
0.0
  0
LINE
  5
28A
330
1F
100
AcDbEntity
  8
0-C_ハッチ
  6
JWW_DASHED1
 62
   120
370
     5
100
AcDbLine
 10
1212.045762000011
 20
-1661.551811400017
 30
0.0
 11
1260.045762000011
 21
-1613.551811400017
 31
0.0
  0
LINE
  5
28B
330
1F
100
AcDbEntity
  8
0-A_文字
  6
Continuous
 62
     7
370
     9
100
AcDbLine
 10
778.7268226523764
 20
-1643.994457748297
 30
0.0
 11
957.2428827400648
 21
-1397.033389608307
 31
0.0
  0
TEXT
  5
28C
330
1F
100
AcDbEntity
  8
0-A_文字
  6
Continuous
 62
     7
370
     0
100
AcDbText
 10
811.4316371721742
 20
-1362.137123262888
 30
0.0
 40
91.44
  1
現場ｶｯﾄ
  7
ＭＳ ゴシック
100
AcDbText
  0
LINE
  5
28D
330
1F
100
AcDbEntity
  8
0-A_文字
  6
Continuous
 62
     7
370
     9
100
AcDbLine
 10
778.7268226523764
 20
-1643.994457748297
 30
0.0
 11
801.2089561263105
 21
-1582.15178169322
 31
0.0
  0
LINE
  5
28E
330
1F
100
AcDbEntity
  8
0-B_寸法
  6
Continuous
 62
   120
370
     5
100
AcDbLine
 10
663.9181716835668
 20
-709.5966702702362
 30
0.0
 11
663.9181716835668
 21
-859.5966702702362
 31
0.0
  0
LWPOLYLINE
  5
28F
330
1F
100
AcDbEntity
  8
0-B_寸法
  6
Continuous
 62
     7
370
     9
100
AcDbPolyline
 90
        4
 70
     1
 43
6.0
 10
666.9181716835668
 20
-709.5966702702362
 42
0.4142135623731
 10
663.9181716835668
 20
-706.5966702702362
 42
0.4142135623731
 10
660.9181716835668
 20
-709.5966702702362
 42
0.4142135623731
 10
663.9181716835668
 20
-712.5966702702364
 42
0.4142135623731
  0
LINE
  5
290
330
1F
100
AcDbEntity
  8
0-B_寸法
  6
Continuous
 62
   120
370
     5
100
AcDbLine
 10
663.9181716835668
 20
-709.5966702702362
 30
0.0
 11
1341.918171683567
 21
-709.5966702702362
 31
0.0
  0
LINE
  5
291
330
1F
100
AcDbEntity
  8
0-B_寸法
  6
Continuous
 62
   120
370
     5
100
AcDbLine
 10
1341.918171683567
 20
-709.5966702702362
 30
0.0
 11
1341.918171683567
 21
-859.5966702702362
 31
0.0
  0
LWPOLYLINE
  5
292
330
1F
100
AcDbEntity
  8
0-B_寸法
  6
Continuous
 62
     7
370
     9
100
AcDbPolyline
 90
        4
 70
     1
 43
6.0
 10
1344.918171683568
 20
-709.5966702702362
 42
0.4142135623731
 10
1341.918171683567
 20
-706.5966702702362
 42
0.4142135623731
 10
1338.918171683567
 20
-709.5966702702362
 42
0.4142135623731
 10
1341.918171683567
 20
-712.5966702702364
 42
0.4142135623731
  0
TEXT
  5
293
330
1F
100
AcDbEntity
  8
0-B_寸法
  6
Continuous
 62
     7
370
   211
100
AcDbText
 10
912.9181716835672
 20
-677.6766702702363
 30
0.0
 40
91.44
  1
113
  7
ＭＳ ゴシック
100
AcDbText
  0
LINE
  5
294
330
1F
100
AcDbEntity
  8
0-4_枠
  6
Continuous
 62
    92
370
    13
100
AcDbLine
 10
1341.918171683568
 20
-919.5966702702384
 30
0.0
 11
1341.918171683568
 21
-1661.551811400017
 31
0.0
  0
LINE
  5
295
330
1F
100
AcDbEntity
  8
0-4_枠
  6
Continuous
 62
    92
370
    13
100
AcDbLine
 10
663.9181716835668
 20
-919.5966702702384
 30
0.0
 11
663.9181716835668
 21
-1661.551811400017
 31
0.0
  0
TEXT
  5
296
330
1F
100
AcDbEntity
  8
0-B_寸法
  6
Continuous
 62
     7
370
   211
100
AcDbText
 10
-1160.081828316418
 20
1574.863749397116
 30
0.0
 40
91.44
  1
有効開口寸法＝730（660）<640>［617］
  7
ＭＳ ゴシック
100
AcDbText
  0
TEXT
  5
297
330
1F
100
AcDbEntity
  8
0-B_寸法
  6
Continuous
 62
     7
370
   211
100
AcDbText
 10
-680.0818283164182
 20
1394.863749397116
 30
0.0
 40
91.44
  1
ＤＷ＝793（723）<703>［680］
  7
ＭＳ ゴシック
100
AcDbText
  0
TEXT
  5
298
330
1F
100
AcDbEntity
  8
0-B_寸法
  6
Continuous
 62
     7
370
   211
100
AcDbText
 10
-680.0818283164182
 20
1214.863749397116
 30
0.0
 40
91.44
  1
枠内＝800（730）<710>［687］
  7
ＭＳ ゴシック
100
AcDbText
  0
TEXT
  5
299
330
1F
100
AcDbEntity
  8
0-B_寸法
  6
Continuous
 62
     7
370
   211
100
AcDbText
 10
-680.0818283164182
 20
1034.863749397116
 30
0.0
 40
91.44
  1
枠外＝848（778）<758>［735］
  7
ＭＳ ゴシック
100
AcDbText
  0
ENDSEC
  0
SECTION
  2
OBJECTS
  0
DICTIONARY
  5
C
330
0
100
AcDbDictionary
281
     1
  3
ACAD_DETAILVIEWSTYLE
350
357
  3
ACAD_GROUP
350
D
  3
ACAD_LAYOUT
350
1A
  3
ACAD_MATERIAL
350
43
  3
ACAD_MLEADERSTYLE
350
6B
  3
ACAD_MLINESTYLE
350
17
  3
ACAD_PLOTSETTINGS
350
19
  3
ACAD_PLOTSTYLENAME
350
E
  3
ACAD_SCALELIST
350
47
  3
ACAD_SECTIONVIEWSTYLE
350
358
  3
ACAD_TABLESTYLE
350
69
  3
ACAD_VISUALSTYLE
350
2A
  3
ACDB_RECOMPOSE_DATA
350
354
  3
AcDbVariableDictionary
350
320
  0
SUN
  5
6D
330
29
100
AcDbSun
 90
        1
290
     0
 63
     7
421
 16777215
 40
1.0
291
     1
 91
  2455826
 92
 54000000
292
     0
 70
     2
 71
   256
280
     1
  0
DICTIONARY
  5
357
102
{ACAD_REACTORS
330
C
102
}
330
C
100
AcDbDictionary
281
     1
  0
DICTIONARY
  5
D
102
{ACAD_REACTORS
330
C
102
}
330
C
100
AcDbDictionary
281
     1
  0
DICTIONARY
  5
1A
102
{ACAD_REACTORS
330
C
102
}
330
C
100
AcDbDictionary
281
     1
  3
Layout1
350
1E
  3
Layout2
350
26
  3
Model
350
22
  0
DICTIONARY
  5
43
102
{ACAD_REACTORS
330
C
102
}
330
C
100
AcDbDictionary
281
     1
  3
ByBlock
350
45
  3
ByLayer
350
44
  3
Global
350
46
  0
DICTIONARY
  5
6B
102
{ACAD_REACTORS
330
C
102
}
330
C
100
AcDbDictionary
281
     1
  3
Standard
350
6C
  0
DICTIONARY
  5
17
102
{ACAD_REACTORS
330
C
102
}
330
C
100
AcDbDictionary
281
     1
  3
Standard
350
18
  0
DICTIONARY
  5
19
102
{ACAD_REACTORS
330
C
102
}
330
C
100
AcDbDictionary
281
     1
  0
ACDBDICTIONARYWDFLT
  5
E
102
{ACAD_REACTORS
330
C
102
}
330
C
100
AcDbDictionary
281
     1
  3
Normal
350
F
100
AcDbDictionaryWithDefault
340
F
  0
DICTIONARY
  5
47
102
{ACAD_REACTORS
330
C
102
}
330
C
100
AcDbDictionary
281
     1
  3
A0
350
48
  3
A1
350
49
  3
A2
350
4A
  3
A3
350
4B
  3
A4
350
4C
  3
A5
350
4D
  3
A6
350
4E
  3
A7
350
4F
  3
A8
350
50
  3
A9
350
51
  3
B0
350
52
  3
B1
350
53
  3
B2
350
54
  3
B3
350
55
  3
B4
350
56
  3
B5
350
57
  3
B6
350
58
  3
B7
350
59
  3
B8
350
5A
  3
B9
350
5B
  3
C0
350
5C
  3
C1
350
5D
  3
C2
350
5E
  3
C3
350
5F
  3
C4
350
60
  3
C5
350
61
  3
C6
350
62
  3
C7
350
63
  3
C8
350
64
  3
C9
350
65
  3
D0
350
66
  3
D1
350
67
  3
D2
350
68
  0
DICTIONARY
  5
358
102
{ACAD_REACTORS
330
C
102
}
330
C
100
AcDbDictionary
281
     1
  0
DICTIONARY
  5
69
102
{ACAD_REACTORS
330
C
102
}
330
C
100
AcDbDictionary
281
     1
  3
Standard
350
6A
  0
DICTIONARY
  5
2A
102
{ACAD_REACTORS
330
C
102
}
330
C
100
AcDbDictionary
281
     1
  3
2dWireframe
350
2F
  3
Basic
350
32
  3
Brighten
350
36
  3
ColorChange
350
3A
  3
Conceptual
350
34
  3
Dim
350
35
  3
EdgeColorOff
350
3D
  3
Facepattern
350
39
  3
Flat
350
2B
  3
FlatWithEdges
350
2C
  3
Gouraud
350
2D
  3
GouraudWithEdges
350
2E
  3
Hidden
350
31
  3
JitterOff
350
3B
  3
Linepattern
350
38
  3
OverhangOff
350
3C
  3
Realistic
350
33
  3
Shaded
350
42
  3
Shaded with edges
350
41
  3
Shades of Gray
350
3E
  3
Sketchy
350
3F
  3
Thicken
350
37
  3
Wireframe
350
30
  3
X-Ray
350
40
  0
XRECORD
  5
354
102
{ACAD_REACTORS
330
C
102
}
330
C
100
AcDbXrecord
280
     1
 90
        1
330
6A
  0
DICTIONARY
  5
320
102
{ACAD_REACTORS
330
C
102
}
330
C
100
AcDbDictionary
281
     1
  3
CANNOSCALE
350
321
  3
CENTEREXE
350
359
  3
CENTERLTYPEFILE
350
35A
  3
CMLEADERSTYLE
350
356
  3
CTABLESTYLE
350
355
  0
LAYOUT
  5
1E
102
{ACAD_REACTORS
330
1A
102
}
330
1A
100
AcDbPlotSettings
  1

  2
none_device
  4

  6

 40
0.0
 41
0.0
 42
0.0
 43
0.0
 44
0.0
 45
0.0
 46
0.0
 47
0.0
 48
0.0
 49
0.0
140
0.0
141
0.0
142
1.0
143
1.0
 70
   688
 72
     1
 73
     0
 74
     5
  7

 75
    16
 76
     0
 77
     5
 78
   300
147
1.0
148
0.0
149
0.0
100
AcDbLayout
  1
Layout1
 70
     1
 71
     1
 10
0.0
 20
0.0
 11
420.0
 21
297.0
 12
0.0
 22
0.0
 32
0.0
 14
1.000000000000000E+20
 24
1.000000000000000E+20
 34
1.000000000000000E+20
 15
-1.000000000000000E+20
 25
-1.000000000000000E+20
 35
-1.000000000000000E+20
146
0.0
 13
0.0
 23
0.0
 33
0.0
 16
1.0
 26
0.0
 36
0.0
 17
0.0
 27
1.0
 37
0.0
 76
     0
330
1B
  0
LAYOUT
  5
26
102
{ACAD_REACTORS
330
1A
102
}
330
1A
100
AcDbPlotSettings
  1

  2
none_device
  4

  6

 40
0.0
 41
0.0
 42
0.0
 43
0.0
 44
0.0
 45
0.0
 46
0.0
 47
0.0
 48
0.0
 49
0.0
140
0.0
141
0.0
142
1.0
143
1.0
 70
   688
 72
     1
 73
     0
 74
     5
  7

 75
    16
 76
     0
 77
     5
 78
   300
147
1.0
148
0.0
149
0.0
100
AcDbLayout
  1
Layout2
 70
     1
 71
     2
 10
0.0
 20
0.0
 11
0.0
 21
0.0
 12
0.0
 22
0.0
 32
0.0
 14
0.0
 24
0.0
 34
0.0
 15
0.0
 25
0.0
 35
0.0
146
0.0
 13
0.0
 23
0.0
 33
0.0
 16
1.0
 26
0.0
 36
0.0
 17
0.0
 27
1.0
 37
0.0
 76
     0
330
23
  0
LAYOUT
  5
22
102
{ACAD_REACTORS
330
1A
102
}
330
1A
100
AcDbPlotSettings
  1

  2
none_device
  4
Letter_(8.50_x_11.00_Inches)
  6

 40
6.35
 41
6.35
 42
6.35000508
 43
6.35000508
 44
215.9
 45
279.4
 46
0.0
 47
0.0
 48
0.0
 49
0.0
140
0.0
141
0.0
142
1.0
143
1.0
 70
  1712
 72
     1
 73
     0
 74
     0
  7

 75
     0
 76
     0
 77
     5
 78
   300
147
1.0
148
0.0
149
0.0
100
AcDbLayout
  1
Model
 70
     1
 71
     0
 10
-6300.0
 20
-4455.0
 11
6300.0
 21
4455.0
 12
0.0
 22
0.0
 32
0.0
 14
-6300.0
 24
-4455.0
 34
0.0
 15
6300.0
 25
4455.0
 35
0.0
146
0.0
 13
0.0
 23
0.0
 33
0.0
 16
1.0
 26
0.0
 36
0.0
 17
0.0
 27
1.0
 37
0.0
 76
     0
330
1F
331
29
  0
MATERIAL
  5
45
102
{ACAD_REACTORS
330
43
102
}
330
43
100
AcDbMaterial
  1
ByBlock
 72
     1
 94
      127
  0
MATERIAL
  5
44
102
{ACAD_REACTORS
330
43
102
}
330
43
100
AcDbMaterial
  1
ByLayer
 72
     1
 94
      127
  0
MATERIAL
  5
46
102
{ACAD_REACTORS
330
43
102
}
330
43
100
AcDbMaterial
  1
Global
 72
     1
 94
      127
  0
MLEADERSTYLE
  5
6C
102
{ACAD_REACTORS
330
6B
102
}
330
6B
100
AcDbMLeaderStyle
179
     2
170
     2
171
     1
172
     0
 90
        2
 40
0.0
 41
0.0
173
     1
 91
-1056964608
340
14
 92
       -2
290
     1
 42
2.0
291
     1
 43
8.0
  3
Standard
341
0
 44
4.0
300

342
11
174
     1
178
     6
175
     1
176
     0
 93
-1056964608
 45
4.0
292
     0
297
     0
 46
4.0
343
0
 94
-1056964608
 47
1.0
 49
1.0
140
1.0
293
     1
141
0.0
294
     1
177
     0
142
1.0
295
     0
296
     0
143
3.75
271
     0
272
     9
273
     9
  0
MLINESTYLE
  5
18
102
{ACAD_REACTORS
330
17
102
}
330
17
100
AcDbMlineStyle
  2
Standard
 70
     0
  3

 62
   256
 51
90.0
 52
90.0
 71
     2
 49
0.5
 62
   256
  6
BYLAYER
 49
-0.5
 62
   256
  6
BYLAYER
  0
ACDBPLACEHOLDER
  5
F
102
{ACAD_REACTORS
330
E
102
}
330
E
  0
SCALE
  5
48
102
{ACAD_REACTORS
330
47
102
}
330
47
100
AcDbScale
 70
     0
300
1:1
140
1.0
141
1.0
290
     1
  0
SCALE
  5
49
102
{ACAD_REACTORS
330
47
102
}
330
47
100
AcDbScale
 70
     0
300
1:2
140
1.0
141
2.0
290
     0
  0
SCALE
  5
4A
102
{ACAD_REACTORS
330
47
102
}
330
47
100
AcDbScale
 70
     0
300
1:4
140
1.0
141
4.0
290
     0
  0
SCALE
  5
4B
102
{ACAD_REACTORS
330
47
102
}
330
47
100
AcDbScale
 70
     0
300
1:5
140
1.0
141
5.0
290
     0
  0
SCALE
  5
4C
102
{ACAD_REACTORS
330
47
102
}
330
47
100
AcDbScale
 70
     0
300
1:8
140
1.0
141
8.0
290
     0
  0
SCALE
  5
4D
102
{ACAD_REACTORS
330
47
102
}
330
47
100
AcDbScale
 70
     0
300
1:10
140
1.0
141
10.0
290
     0
  0
SCALE
  5
4E
102
{ACAD_REACTORS
330
47
102
}
330
47
100
AcDbScale
 70
     0
300
1:16
140
1.0
141
16.0
290
     0
  0
SCALE
  5
4F
102
{ACAD_REACTORS
330
47
102
}
330
47
100
AcDbScale
 70
     0
300
1:20
140
1.0
141
20.0
290
     0
  0
SCALE
  5
50
102
{ACAD_REACTORS
330
47
102
}
330
47
100
AcDbScale
 70
     0
300
1:30
140
1.0
141
30.0
290
     0
  0
SCALE
  5
51
102
{ACAD_REACTORS
330
47
102
}
330
47
100
AcDbScale
 70
     0
300
1:40
140
1.0
141
40.0
290
     0
  0
SCALE
  5
52
102
{ACAD_REACTORS
330
47
102
}
330
47
100
AcDbScale
 70
     0
300
1:50
140
1.0
141
50.0
290
     0
  0
SCALE
  5
53
102
{ACAD_REACTORS
330
47
102
}
330
47
100
AcDbScale
 70
     0
300
1:100
140
1.0
141
100.0
290
     0
  0
SCALE
  5
54
102
{ACAD_REACTORS
330
47
102
}
330
47
100
AcDbScale
 70
     0
300
2:1
140
2.0
141
1.0
290
     0
  0
SCALE
  5
55
102
{ACAD_REACTORS
330
47
102
}
330
47
100
AcDbScale
 70
     0
300
4:1
140
4.0
141
1.0
290
     0
  0
SCALE
  5
56
102
{ACAD_REACTORS
330
47
102
}
330
47
100
AcDbScale
 70
     0
300
8:1
140
8.0
141
1.0
290
     0
  0
SCALE
  5
57
102
{ACAD_REACTORS
330
47
102
}
330
47
100
AcDbScale
 70
     0
300
10:1
140
10.0
141
1.0
290
     0
  0
SCALE
  5
58
102
{ACAD_REACTORS
330
47
102
}
330
47
100
AcDbScale
 70
     0
300
100:1
140
100.0
141
1.0
290
     0
  0
SCALE
  5
59
102
{ACAD_REACTORS
330
47
102
}
330
47
100
AcDbScale
 70
     0
300
1/128" = 1'-0"
140
0.0078125
141
12.0
290
     0
  0
SCALE
  5
5A
102
{ACAD_REACTORS
330
47
102
}
330
47
100
AcDbScale
 70
     0
300
1/64" = 1'-0"
140
0.015625
141
12.0
290
     0
  0
SCALE
  5
5B
102
{ACAD_REACTORS
330
47
102
}
330
47
100
AcDbScale
 70
     0
300
1/32" = 1'-0"
140
0.03125
141
12.0
290
     0
  0
SCALE
  5
5C
102
{ACAD_REACTORS
330
47
102
}
330
47
100
AcDbScale
 70
     0
300
1/16" = 1'-0"
140
0.0625
141
12.0
290
     0
  0
SCALE
  5
5D
102
{ACAD_REACTORS
330
47
102
}
330
47
100
AcDbScale
 70
     0
300
3/32" = 1'-0"
140
0.09375
141
12.0
290
     0
  0
SCALE
  5
5E
102
{ACAD_REACTORS
330
47
102
}
330
47
100
AcDbScale
 70
     0
300
1/8" = 1'-0"
140
0.125
141
12.0
290
     0
  0
SCALE
  5
5F
102
{ACAD_REACTORS
330
47
102
}
330
47
100
AcDbScale
 70
     0
300
3/16" = 1'-0"
140
0.1875
141
12.0
290
     0
  0
SCALE
  5
60
102
{ACAD_REACTORS
330
47
102
}
330
47
100
AcDbScale
 70
     0
300
1/4" = 1'-0"
140
0.25
141
12.0
290
     0
  0
SCALE
  5
61
102
{ACAD_REACTORS
330
47
102
}
330
47
100
AcDbScale
 70
     0
300
3/8" = 1'-0"
140
0.375
141
12.0
290
     0
  0
SCALE
  5
62
102
{ACAD_REACTORS
330
47
102
}
330
47
100
AcDbScale
 70
     0
300
1/2" = 1'-0"
140
0.5
141
12.0
290
     0
  0
SCALE
  5
63
102
{ACAD_REACTORS
330
47
102
}
330
47
100
AcDbScale
 70
     0
300
3/4" = 1'-0"
140
0.75
141
12.0
290
     0
  0
SCALE
  5
64
102
{ACAD_REACTORS
330
47
102
}
330
47
100
AcDbScale
 70
     0
300
1" = 1'-0"
140
1.0
141
12.0
290
     0
  0
SCALE
  5
65
102
{ACAD_REACTORS
330
47
102
}
330
47
100
AcDbScale
 70
     0
300
1-1/2" = 1'-0"
140
1.5
141
12.0
290
     0
  0
SCALE
  5
66
102
{ACAD_REACTORS
330
47
102
}
330
47
100
AcDbScale
 70
     0
300
3" = 1'-0"
140
3.0
141
12.0
290
     0
  0
SCALE
  5
67
102
{ACAD_REACTORS
330
47
102
}
330
47
100
AcDbScale
 70
     0
300
6" = 1'-0"
140
6.0
141
12.0
290
     0
  0
SCALE
  5
68
102
{ACAD_REACTORS
330
47
102
}
330
47
100
AcDbScale
 70
     0
300
1'-0" = 1'-0"
140
12.0
141
12.0
290
     0
  0
TABLESTYLE
  5
6A
102
{ACAD_REACTORS
330
69
102
}
102
{ACAD_XDICTIONARY
360
352
102
}
330
69
100
AcDbTableStyle
  3
Standard
 70
     0
 71
     0
 40
0.06
 41
0.06
280
     0
281
     0
  7
Standard
140
4.5
170
     2
 62
     0
 63
   257
283
     0
 90
        4
 91
        0
  1

274
    -2
284
     1
 64
     0
275
    -2
285
     1
 65
     0
276
    -2
286
     1
 66
     0
277
    -2
287
     1
 67
     0
278
    -2
288
     1
 68
     0
279
    -2
289
     1
 69
     0
  7
Standard
140
6.0
170
     5
 62
     0
 63
   257
283
     0
 90
        4
 91
        0
  1

274
    -2
284
     1
 64
     0
275
    -2
285
     1
 65
     0
276
    -2
286
     1
 66
     0
277
    -2
287
     1
 67
     0
278
    -2
288
     1
 68
     0
279
    -2
289
     1
 69
     0
  7
Standard
140
4.5
170
     5
 62
     0
 63
   257
283
     0
 90
        4
 91
        0
  1

274
    -2
284
     1
 64
     0
275
    -2
285
     1
 65
     0
276
    -2
286
     1
 66
     0
277
    -2
287
     1
 67
     0
278
    -2
288
     1
 68
     0
279
    -2
289
     1
 69
     0
  0
VISUALSTYLE
  5
2F
102
{ACAD_REACTORS
330
2A
102
}
102
{ACAD_XDICTIONARY
360
32A
102
}
330
2A
100
AcDbVisualStyle
  2
2dWireframe
 70
     4
177
     2
291
     0
 71
     0
176
     1
 72
     2
176
     1
 73
     0
176
     1
 90
        0
176
     1
 40
0.6
176
     1
 41
30.0
176
     1
 62
     5
 63
     7
421
 16777215
176
     1
 74
     1
176
     1
 91
        4
176
     1
 64
     7
176
     1
 65
   257
176
     1
 75
     1
176
     1
175
     1
176
     1
 42
1.0
176
     1
 92
        0
176
     1
 66
   257
176
     1
 43
1.0
176
     1
 76
     1
176
     1
 77
     6
176
     1
 78
     2
176
     1
 67
     7
176
     1
 79
     5
176
     1
170
     0
176
     1
171
     0
176
     1
290
     0
176
     1
 93
        1
176
     1
 44
0.0
176
     1
173
     0
176
     1
  0
VISUALSTYLE
  5
32
102
{ACAD_REACTORS
330
2A
102
}
102
{ACAD_XDICTIONARY
360
330
102
}
330
2A
100
AcDbVisualStyle
  2
Basic
 70
     7
177
     2
291
     1
 71
     1
176
     1
 72
     0
176
     1
 73
     1
176
     1
 90
        0
176
     1
 40
0.6
176
     1
 41
30.0
176
     1
 62
     5
 63
     7
421
 16777215
176
     1
 74
     0
176
     1
 91
        4
176
     1
 64
     7
176
     1
 65
   257
176
     1
 75
     1
176
     1
175
     1
176
     1
 42
1.0
176
     1
 92
        8
176
     1
 66
     7
176
     1
 43
1.0
176
     1
 76
     1
176
     1
 77
     6
176
     1
 78
     2
176
     1
 67
     7
176
     1
 79
     5
176
     1
170
     0
176
     1
171
     0
176
     1
290
     0
176
     1
 93
        1
176
     1
 44
0.0
176
     1
173
     0
176
     1
  0
VISUALSTYLE
  5
36
102
{ACAD_REACTORS
330
2A
102
}
102
{ACAD_XDICTIONARY
360
338
102
}
330
2A
100
AcDbVisualStyle
  2
Brighten
 70
    12
177
     2
291
     1
 71
     2
176
     1
 72
     2
176
     1
 73
     0
176
     1
 90
        0
176
     1
 40
0.6
176
     1
 41
30.0
176
     1
 62
     5
 63
     7
421
 16777215
176
     1
 74
     1
176
     1
 91
        4
176
     1
 64
     7
176
     1
 65
   257
176
     1
 75
     1
176
     1
175
     1
176
     1
 42
1.0
176
     1
 92
        8
176
     1
 66
     7
176
     1
 43
1.0
176
     1
 76
     1
176
     1
 77
     6
176
     1
 78
     2
176
     1
 67
     7
176
     1
 79
     5
176
     1
170
     0
176
     1
171
     0
176
     1
290
     0
176
     1
 93
        1
176
     1
 44
50.0
176
     1
173
     0
176
     1
  0
VISUALSTYLE
  5
3A
102
{ACAD_REACTORS
330
2A
102
}
102
{ACAD_XDICTIONARY
360
340
102
}
330
2A
100
AcDbVisualStyle
  2
ColorChange
 70
    16
177
     2
291
     1
 71
     2
176
     1
 72
     2
176
     1
 73
     3
176
     1
 90
        0
176
     1
 40
0.6
176
     1
 41
30.0
176
     1
 62
     5
 63
     8
421
  8421504
176
     1
 74
     1
176
     1
 91
        4
176
     1
 64
     7
176
     1
 65
   257
176
     1
 75
     1
176
     1
175
     1
176
     1
 42
1.0
176
     1
 92
        8
176
     1
 66
     8
424
  8421504
176
     1
 43
1.0
176
     1
 76
     1
176
     1
 77
     6
176
     1
 78
     2
176
     1
 67
     7
176
     1
 79
     5
176
     1
170
     0
176
     1
171
     0
176
     1
290
     0
176
     1
 93
        1
176
     1
 44
0.0
176
     1
173
     0
176
     1
  0
VISUALSTYLE
  5
34
102
{ACAD_REACTORS
330
2A
102
}
102
{ACAD_XDICTIONARY
360
334
102
}
330
2A
100
AcDbVisualStyle
  2
Conceptual
 70
     9
177
     2
291
     0
 71
     3
176
     1
 72
     2
176
     1
 73
     0
176
     1
 90
        0
176
     1
 40
0.6
176
     1
 41
30.0
176
     1
 62
     5
 63
     7
421
 16777215
176
     1
 74
     2
176
     1
 91
        2
176
     1
 64
     7
176
     1
 65
   257
176
     1
 75
     1
176
     1
175
     1
176
     1
 42
179.0
176
     1
 92
        8
176
     1
 66
     7
176
     1
 43
1.0
176
     1
 76
     1
176
     1
 77
     6
176
     1
 78
     2
176
     1
 67
     7
176
     1
 79
     3
176
     1
170
     0
176
     1
171
     0
176
     1
290
     0
176
     1
 93
        1
176
     1
 44
0.0
176
     1
173
     0
176
     1
  0
VISUALSTYLE
  5
35
102
{ACAD_REACTORS
330
2A
102
}
102
{ACAD_XDICTIONARY
360
336
102
}
330
2A
100
AcDbVisualStyle
  2
Dim
 70
    11
177
     2
291
     1
 71
     2
176
     1
 72
     2
176
     1
 73
     0
176
     1
 90
        0
176
     1
 40
0.6
176
     1
 41
30.0
176
     1
 62
     5
 63
     7
421
 16777215
176
     1
 74
     1
176
     1
 91
        4
176
     1
 64
     7
176
     1
 65
   257
176
     1
 75
     1
176
     1
175
     1
176
     1
 42
1.0
176
     1
 92
        8
176
     1
 66
     7
176
     1
 43
1.0
176
     1
 76
     1
176
     1
 77
     6
176
     1
 78
     2
176
     1
 67
     7
176
     1
 79
     5
176
     1
170
     0
176
     1
171
     0
176
     1
290
     0
176
     1
 93
        1
176
     1
 44
-50.0
176
     1
173
     0
176
     1
  0
VISUALSTYLE
  5
3D
102
{ACAD_REACTORS
330
2A
102
}
102
{ACAD_XDICTIONARY
360
346
102
}
330
2A
100
AcDbVisualStyle
  2
EdgeColorOff
 70
    22
177
     2
291
     1
 71
     2
176
     0
 72
     2
176
     0
 73
     0
176
     0
 90
        0
176
     0
 40
0.6
176
     0
 41
30.0
176
     0
 62
     5
 63
     7
421
 16777215
176
     0
 74
     1
176
     0
 91
        4
176
     0
 64
     7
176
     0
 65
   257
176
     0
 75
     1
176
     0
175
     1
176
     0
 42
1.0
176
     0
 92
        8
176
     2
 66
     7
176
     0
 43
1.0
176
     0
 76
     1
176
     0
 77
     6
176
     0
 78
     2
176
     0
 67
     7
176
     0
 79
     5
176
     0
170
     0
176
     0
171
     0
176
     0
290
     0
176
     0
 93
        1
176
     0
 44
0.0
176
     0
173
     0
176
     0
  0
VISUALSTYLE
  5
39
102
{ACAD_REACTORS
330
2A
102
}
102
{ACAD_XDICTIONARY
360
33E
102
}
330
2A
100
AcDbVisualStyle
  2
Facepattern
 70
    15
177
     2
291
     1
 71
     2
176
     1
 72
     2
176
     1
 73
     0
176
     1
 90
        0
176
     1
 40
0.6
176
     1
 41
30.0
176
     1
 62
     5
 63
     7
421
 16777215
176
     1
 74
     1
176
     1
 91
        4
176
     1
 64
     7
176
     1
 65
   257
176
     1
 75
     1
176
     1
175
     1
176
     1
 42
1.0
176
     1
 92
        8
176
     1
 66
     7
176
     1
 43
1.0
176
     1
 76
     1
176
     1
 77
     6
176
     1
 78
     2
176
     1
 67
     7
176
     1
 79
     5
176
     1
170
     0
176
     1
171
     0
176
     1
290
     0
176
     1
 93
        1
176
     1
 44
0.0
176
     1
173
     0
176
     1
  0
VISUALSTYLE
  5
2B
102
{ACAD_REACTORS
330
2A
102
}
102
{ACAD_XDICTIONARY
360
322
102
}
330
2A
100
AcDbVisualStyle
  2
Flat
 70
     0
177
     2
291
     1
 71
     2
176
     1
 72
     1
176
     1
 73
     1
176
     1
 90
        2
176
     1
 40
0.6
176
     1
 41
30.0
176
     1
 62
     5
 63
     7
421
 16777215
176
     1
 74
     0
176
     1
 91
        0
176
     1
 64
     7
176
     1
 65
   257
176
     1
 75
     1
176
     1
175
     1
176
     1
 42
1.0
176
     1
 92
        8
176
     1
 66
     7
176
     1
 43
1.0
176
     1
 76
     1
176
     1
 77
     6
176
     1
 78
     2
176
     1
 67
     7
176
     1
 79
     5
176
     1
170
     0
176
     1
171
     0
176
     1
290
     0
176
     1
 93
       13
176
     1
 44
0.0
176
     1
173
     0
176
     1
  0
VISUALSTYLE
  5
2C
102
{ACAD_REACTORS
330
2A
102
}
102
{ACAD_XDICTIONARY
360
324
102
}
330
2A
100
AcDbVisualStyle
  2
FlatWithEdges
 70
     1
177
     2
291
     1
 71
     2
176
     1
 72
     1
176
     1
 73
     1
176
     1
 90
        2
176
     1
 40
0.6
176
     1
 41
30.0
176
     1
 62
     5
 63
     7
421
 16777215
176
     1
 74
     1
176
     1
 91
        0
176
     1
 64
     7
176
     1
 65
   257
176
     1
 75
     1
176
     1
175
     1
176
     1
 42
1.0
176
     1
 92
        0
176
     1
 66
   257
176
     1
 43
1.0
176
     1
 76
     1
176
     1
 77
     6
176
     1
 78
     2
176
     1
 67
     7
176
     1
 79
     5
176
     1
170
     0
176
     1
171
     0
176
     1
290
     0
176
     1
 93
       13
176
     1
 44
0.0
176
     1
173
     0
176
     1
  0
VISUALSTYLE
  5
2D
102
{ACAD_REACTORS
330
2A
102
}
102
{ACAD_XDICTIONARY
360
326
102
}
330
2A
100
AcDbVisualStyle
  2
Gouraud
 70
     2
177
     2
291
     1
 71
     2
176
     1
 72
     2
176
     1
 73
     1
176
     1
 90
        2
176
     1
 40
0.6
176
     1
 41
30.0
176
     1
 62
     5
 63
     7
421
 16777215
176
     1
 74
     0
176
     1
 91
        0
176
     1
 64
     7
176
     1
 65
   257
176
     1
 75
     1
176
     1
175
     1
176
     1
 42
1.0
176
     1
 92
        0
176
     1
 66
     7
176
     1
 43
1.0
176
     1
 76
     1
176
     1
 77
     6
176
     1
 78
     2
176
     1
 67
     7
176
     1
 79
     5
176
     1
170
     0
176
     1
171
     0
176
     1
290
     0
176
     1
 93
       13
176
     1
 44
0.0
176
     1
173
     0
176
     1
  0
VISUALSTYLE
  5
2E
102
{ACAD_REACTORS
330
2A
102
}
102
{ACAD_XDICTIONARY
360
328
102
}
330
2A
100
AcDbVisualStyle
  2
GouraudWithEdges
 70
     3
177
     2
291
     1
 71
     2
176
     1
 72
     2
176
     1
 73
     1
176
     1
 90
        2
176
     1
 40
0.6
176
     1
 41
30.0
176
     1
 62
     5
 63
     7
421
 16777215
176
     1
 74
     1
176
     1
 91
        0
176
     1
 64
     7
176
     1
 65
   257
176
     1
 75
     1
176
     1
175
     1
176
     1
 42
1.0
176
     1
 92
        0
176
     1
 66
   257
176
     1
 43
1.0
176
     1
 76
     1
176
     1
 77
     6
176
     1
 78
     2
176
     1
 67
     7
176
     1
 79
     5
176
     1
170
     0
176
     1
171
     0
176
     1
290
     0
176
     1
 93
       13
176
     1
 44
0.0
176
     1
173
     0
176
     1
  0
VISUALSTYLE
  5
31
102
{ACAD_REACTORS
330
2A
102
}
102
{ACAD_XDICTIONARY
360
32E
102
}
330
2A
100
AcDbVisualStyle
  2
Hidden
 70
     6
177
     2
291
     0
 71
     1
176
     1
 72
     2
176
     1
 73
     2
176
     1
 90
        0
176
     1
 40
0.6
176
     1
 41
30.0
176
     1
 62
     5
 63
     7
421
 16777215
176
     1
 74
     2
176
     1
 91
        2
176
     1
 64
     7
176
     1
 65
   257
176
     1
 75
     2
176
     1
175
     1
176
     1
 42
40.0
176
     1
 92
        0
176
     1
 66
   257
176
     1
 43
1.0
176
     1
 76
     1
176
     1
 77
     6
176
     1
 78
     2
176
     1
 67
     7
176
     1
 79
     3
176
     1
170
     0
176
     1
171
     0
176
     1
290
     0
176
     1
 93
        1
176
     1
 44
0.0
176
     1
173
     0
176
     1
  0
VISUALSTYLE
  5
3B
102
{ACAD_REACTORS
330
2A
102
}
102
{ACAD_XDICTIONARY
360
342
102
}
330
2A
100
AcDbVisualStyle
  2
JitterOff
 70
    20
177
     2
291
     1
 71
     2
176
     0
 72
     2
176
     0
 73
     0
176
     0
 90
        0
176
     0
 40
0.6
176
     0
 41
30.0
176
     0
 62
     5
 63
     7
421
 16777215
176
     0
 74
     1
176
     0
 91
        4
176
     0
 64
     7
176
     0
 65
   257
176
     0
 75
     1
176
     0
175
     1
176
     0
 42
1.0
176
     0
 92
       10
176
     2
 66
     7
176
     0
 43
1.0
176
     0
 76
     1
176
     0
 77
     6
176
     0
 78
     2
176
     0
 67
     7
176
     0
 79
     5
176
     0
170
     0
176
     0
171
     0
176
     0
290
     0
176
     0
 93
        1
176
     0
 44
0.0
176
     0
173
     0
176
     0
  0
VISUALSTYLE
  5
38
102
{ACAD_REACTORS
330
2A
102
}
102
{ACAD_XDICTIONARY
360
33C
102
}
330
2A
100
AcDbVisualStyle
  2
Linepattern
 70
    14
177
     2
291
     1
 71
     2
176
     1
 72
     2
176
     1
 73
     0
176
     1
 90
        0
176
     1
 40
0.6
176
     1
 41
30.0
176
     1
 62
     5
 63
     7
421
 16777215
176
     1
 74
     1
176
     1
 91
        4
176
     1
 64
     7
176
     1
 65
   257
176
     1
 75
     7
176
     1
175
     7
176
     1
 42
1.0
176
     1
 92
        8
176
     1
 66
     7
176
     1
 43
1.0
176
     1
 76
     1
176
     1
 77
     6
176
     1
 78
     2
176
     1
 67
     7
176
     1
 79
     5
176
     1
170
     0
176
     1
171
     0
176
     1
290
     0
176
     1
 93
        1
176
     1
 44
0.0
176
     1
173
     0
176
     1
  0
VISUALSTYLE
  5
3C
102
{ACAD_REACTORS
330
2A
102
}
102
{ACAD_XDICTIONARY
360
344
102
}
330
2A
100
AcDbVisualStyle
  2
OverhangOff
 70
    21
177
     2
291
     1
 71
     2
176
     0
 72
     2
176
     0
 73
     0
176
     0
 90
        0
176
     0
 40
0.6
176
     0
 41
30.0
176
     0
 62
     5
 63
     7
421
 16777215
176
     0
 74
     1
176
     0
 91
        4
176
     0
 64
     7
176
     0
 65
   257
176
     0
 75
     1
176
     0
175
     1
176
     0
 42
1.0
176
     0
 92
        9
176
     2
 66
     7
176
     0
 43
1.0
176
     0
 76
     1
176
     0
 77
     6
176
     0
 78
     2
176
     0
 67
     7
176
     0
 79
     5
176
     0
170
     0
176
     0
171
     0
176
     0
290
     0
176
     0
 93
        1
176
     0
 44
0.0
176
     0
173
     0
176
     0
  0
VISUALSTYLE
  5
33
102
{ACAD_REACTORS
330
2A
102
}
102
{ACAD_XDICTIONARY
360
332
102
}
330
2A
100
AcDbVisualStyle
  2
Realistic
 70
     8
177
     2
291
     0
 71
     2
176
     1
 72
     3
176
     1
 73
     0
176
     1
 90
        2
176
     1
 40
0.6
176
     1
 41
30.0
176
     1
 62
     5
 63
     7
421
 16777215
176
     1
 74
     0
176
     1
 91
        0
176
     1
 64
     7
176
     1
 65
   257
176
     1
 75
     1
176
     1
175
     1
176
     1
 42
1.0
176
     1
 92
        8
176
     1
 66
   257
176
     1
 43
1.0
176
     1
 76
     1
176
     1
 77
     6
176
     1
 78
     2
176
     1
 67
     7
176
     1
 79
     3
176
     1
170
     0
176
     1
171
     0
176
     1
290
     0
176
     1
 93
       13
176
     1
 44
0.0
176
     1
173
     0
176
     1
  0
VISUALSTYLE
  5
42
102
{ACAD_REACTORS
330
2A
102
}
102
{ACAD_XDICTIONARY
360
350
102
}
330
2A
100
AcDbVisualStyle
  2
Shaded
 70
    27
177
     2
291
     0
 71
     2
176
     1
 72
     2
176
     1
 73
     1
176
     1
 90
        2
176
     1
 40
0.6
176
     1
 41
30.0
176
     1
 62
     5
 63
     7
421
 16777215
176
     1
 74
     0
176
     1
 91
        4
176
     1
 64
     7
176
     1
 65
   257
176
     1
 75
     1
176
     1
175
     1
176
     1
 42
1.0
176
     1
 92
        8
176
     1
 66
   257
176
     1
 43
1.0
176
     1
 76
     1
176
     1
 77
     6
176
     1
 78
     2
176
     1
 67
     8
425
  7895160
176
     1
 79
     3
176
     1
170
     0
176
     1
171
     0
176
     1
290
     0
176
     1
 93
        5
176
     1
 44
0.0
176
     1
173
     0
176
     1
  0
VISUALSTYLE
  5
41
102
{ACAD_REACTORS
330
2A
102
}
102
{ACAD_XDICTIONARY
360
34E
102
}
330
2A
100
AcDbVisualStyle
  2
Shaded with edges
 70
    26
177
     2
291
     0
 71
     2
176
     1
 72
     2
176
     1
 73
     1
176
     1
 90
        2
176
     1
 40
0.6
176
     1
 41
30.0
176
     1
 62
     5
 63
     7
421
 16777215
176
     1
 74
     1
176
     1
 91
       10
176
     1
 64
     7
176
     1
 65
   257
176
     1
 75
     2
176
     1
175
     1
176
     1
 42
1.0
176
     1
 92
        8
176
     1
 66
   257
176
     1
 43
1.0
176
     1
 76
     1
176
     1
 77
     6
176
     1
 78
     2
176
     1
 67
     7
176
     1
 79
     3
176
     1
170
     0
176
     1
171
     0
176
     1
290
     0
176
     1
 93
        5
176
     1
 44
0.0
176
     1
173
     0
176
     1
  0
VISUALSTYLE
  5
3E
102
{ACAD_REACTORS
330
2A
102
}
102
{ACAD_XDICTIONARY
360
348
102
}
330
2A
100
AcDbVisualStyle
  2
Shades of Gray
 70
    23
177
     2
291
     0
 71
     2
176
     1
 72
     2
176
     1
 73
     3
176
     1
 90
        0
176
     1
 40
0.6
176
     1
 41
30.0
176
     1
 62
     5
 63
     7
421
 16777215
176
     1
 74
     2
176
     1
 91
        2
176
     1
 64
     7
176
     1
 65
     7
176
     1
 75
     1
176
     1
175
     1
176
     1
 42
40.0
176
     1
 92
        8
176
     1
 66
     7
176
     1
 43
1.0
176
     1
 76
     1
176
     1
 77
     6
176
     1
 78
     2
176
     1
 67
     7
176
     1
 79
     3
176
     1
170
     0
176
     1
171
     0
176
     1
290
     0
176
     1
 93
        1
176
     1
 44
0.0
176
     1
173
     0
176
     1
  0
VISUALSTYLE
  5
3F
102
{ACAD_REACTORS
330
2A
102
}
102
{ACAD_XDICTIONARY
360
34A
102
}
330
2A
100
AcDbVisualStyle
  2
Sketchy
 70
    24
177
     2
291
     0
 71
     1
176
     1
 72
     2
176
     1
 73
     2
176
     1
 90
        0
176
     1
 40
0.6
176
     1
 41
30.0
176
     1
 62
     5
 63
     7
421
 16777215
176
     1
 74
     2
176
     1
 91
        2
176
     1
 64
     7
176
     1
 65
     7
176
     1
 75
     1
176
     1
175
     1
176
     1
 42
40.0
176
     1
 92
       11
176
     1
 66
     7
176
     1
 43
1.0
176
     1
 76
     1
176
     1
 77
     6
176
     1
 78
     2
176
     1
 67
     7
176
     1
 79
     6
176
     1
170
     0
176
     1
171
     0
176
     1
290
     0
176
     1
 93
        1
176
     1
 44
0.0
176
     1
173
     0
176
     1
  0
VISUALSTYLE
  5
37
102
{ACAD_REACTORS
330
2A
102
}
102
{ACAD_XDICTIONARY
360
33A
102
}
330
2A
100
AcDbVisualStyle
  2
Thicken
 70
    13
177
     2
291
     1
 71
     2
176
     1
 72
     2
176
     1
 73
     0
176
     1
 90
        0
176
     1
 40
0.6
176
     1
 41
30.0
176
     1
 62
     5
 63
     7
421
 16777215
176
     1
 74
     1
176
     1
 91
        4
176
     1
 64
     7
176
     1
 65
   257
176
     1
 75
     1
176
     1
175
     1
176
     1
 42
1.0
176
     1
 92
       12
176
     1
 66
     7
176
     1
 43
1.0
176
     1
 76
     1
176
     1
 77
     6
176
     1
 78
     2
176
     1
 67
     7
176
     1
 79
     5
176
     1
170
     0
176
     1
171
     0
176
     1
290
     0
176
     1
 93
        1
176
     1
 44
0.0
176
     1
173
     0
176
     1
  0
VISUALSTYLE
  5
30
102
{ACAD_REACTORS
330
2A
102
}
102
{ACAD_XDICTIONARY
360
32C
102
}
330
2A
100
AcDbVisualStyle
  2
Wireframe
 70
     5
177
     2
291
     0
 71
     0
176
     1
 72
     2
176
     1
 73
     0
176
     1
 90
        0
176
     1
 40
0.6
176
     1
 41
30.0
176
     1
 62
     5
 63
     7
421
 16777215
176
     1
 74
     1
176
     1
 91
        4
176
     1
 64
     7
176
     1
 65
   257
176
     1
 75
     1
176
     1
175
     1
176
     1
 42
1.0
176
     1
 92
        0
176
     1
 66
   257
176
     1
 43
1.0
176
     1
 76
     1
176
     1
 77
     6
176
     1
 78
     2
176
     1
 67
     7
176
     1
 79
     3
176
     1
170
     0
176
     1
171
     0
176
     1
290
     0
176
     1
 93
        1
176
     1
 44
0.0
176
     1
173
     0
176
     1
  0
VISUALSTYLE
  5
40
102
{ACAD_REACTORS
330
2A
102
}
102
{ACAD_XDICTIONARY
360
34C
102
}
330
2A
100
AcDbVisualStyle
  2
X-Ray
 70
    25
177
     2
291
     0
 71
     2
176
     1
 72
     2
176
     1
 73
     1
176
     1
 90
        1
176
     1
 40
0.5
176
     1
 41
30.0
176
     1
 62
     5
 63
     7
421
 16777215
176
     1
 74
     1
176
     1
 91
        0
176
     1
 64
     7
176
     1
 65
   257
176
     1
 75
     1
176
     1
175
     1
176
     1
 42
1.0
176
     1
 92
        8
176
     1
 66
     7
176
     1
 43
1.0
176
     1
 76
     1
176
     1
 77
     6
176
     1
 78
     2
176
     1
 67
     7
176
     1
 79
     3
176
     1
170
     0
176
     1
171
     0
176
     1
290
     0
176
     1
 93
       13
176
     1
 44
0.0
176
     1
173
     0
176
     1
  0
DICTIONARYVAR
  5
321
102
{ACAD_REACTORS
330
320
102
}
330
320
100
DictionaryVariables
280
     0
  1
1:1
  0
DICTIONARYVAR
  5
359
102
{ACAD_REACTORS
330
320
102
}
330
320
100
DictionaryVariables
280
     0
  1
3.500000
  0
DICTIONARYVAR
  5
35A
102
{ACAD_REACTORS
330
320
102
}
330
320
100
DictionaryVariables
280
     0
  1
acadiso.lin
  0
DICTIONARYVAR
  5
356
102
{ACAD_REACTORS
330
320
102
}
330
320
100
DictionaryVariables
280
     0
  1
Standard
  0
DICTIONARYVAR
  5
355
102
{ACAD_REACTORS
330
320
102
}
330
320
100
DictionaryVariables
280
     0
  1
Standard
  0
DICTIONARY
  5
352
330
6A
100
AcDbDictionary
280
     1
281
     1
  3
ACAD_ROUNDTRIP_2008_TABLESTYLE_CELLSTYLEMAP
360
353
  0
DICTIONARY
  5
32A
330
2F
100
AcDbDictionary
280
     1
281
     1
  3
ACAD_XREC_ROUNDTRIP
360
32B
  0
DICTIONARY
  5
330
330
32
100
AcDbDictionary
280
     1
281
     1
  3
ACAD_XREC_ROUNDTRIP
360
331
  0
DICTIONARY
  5
338
330
36
100
AcDbDictionary
280
     1
281
     1
  3
ACAD_XREC_ROUNDTRIP
360
339
  0
DICTIONARY
  5
340
330
3A
100
AcDbDictionary
280
     1
281
     1
  3
ACAD_XREC_ROUNDTRIP
360
341
  0
DICTIONARY
  5
334
330
34
100
AcDbDictionary
280
     1
281
     1
  3
ACAD_XREC_ROUNDTRIP
360
335
  0
DICTIONARY
  5
336
330
35
100
AcDbDictionary
280
     1
281
     1
  3
ACAD_XREC_ROUNDTRIP
360
337
  0
DICTIONARY
  5
346
330
3D
100
AcDbDictionary
280
     1
281
     1
  3
ACAD_XREC_ROUNDTRIP
360
347
  0
DICTIONARY
  5
33E
330
39
100
AcDbDictionary
280
     1
281
     1
  3
ACAD_XREC_ROUNDTRIP
360
33F
  0
DICTIONARY
  5
322
330
2B
100
AcDbDictionary
280
     1
281
     1
  3
ACAD_XREC_ROUNDTRIP
360
323
  0
DICTIONARY
  5
324
330
2C
100
AcDbDictionary
280
     1
281
     1
  3
ACAD_XREC_ROUNDTRIP
360
325
  0
DICTIONARY
  5
326
330
2D
100
AcDbDictionary
280
     1
281
     1
  3
ACAD_XREC_ROUNDTRIP
360
327
  0
DICTIONARY
  5
328
330
2E
100
AcDbDictionary
280
     1
281
     1
  3
ACAD_XREC_ROUNDTRIP
360
329
  0
DICTIONARY
  5
32E
330
31
100
AcDbDictionary
280
     1
281
     1
  3
ACAD_XREC_ROUNDTRIP
360
32F
  0
DICTIONARY
  5
342
330
3B
100
AcDbDictionary
280
     1
281
     1
  3
ACAD_XREC_ROUNDTRIP
360
343
  0
DICTIONARY
  5
33C
330
38
100
AcDbDictionary
280
     1
281
     1
  3
ACAD_XREC_ROUNDTRIP
360
33D
  0
DICTIONARY
  5
344
330
3C
100
AcDbDictionary
280
     1
281
     1
  3
ACAD_XREC_ROUNDTRIP
360
345
  0
DICTIONARY
  5
332
330
33
100
AcDbDictionary
280
     1
281
     1
  3
ACAD_XREC_ROUNDTRIP
360
333
  0
DICTIONARY
  5
350
330
42
100
AcDbDictionary
280
     1
281
     1
  3
ACAD_XREC_ROUNDTRIP
360
351
  0
DICTIONARY
  5
34E
330
41
100
AcDbDictionary
280
     1
281
     1
  3
ACAD_XREC_ROUNDTRIP
360
34F
  0
DICTIONARY
  5
348
330
3E
100
AcDbDictionary
280
     1
281
     1
  3
ACAD_XREC_ROUNDTRIP
360
349
  0
DICTIONARY
  5
34A
330
3F
100
AcDbDictionary
280
     1
281
     1
  3
ACAD_XREC_ROUNDTRIP
360
34B
  0
DICTIONARY
  5
33A
330
37
100
AcDbDictionary
280
     1
281
     1
  3
ACAD_XREC_ROUNDTRIP
360
33B
  0
DICTIONARY
  5
32C
330
30
100
AcDbDictionary
280
     1
281
     1
  3
ACAD_XREC_ROUNDTRIP
360
32D
  0
DICTIONARY
  5
34C
330
40
100
AcDbDictionary
280
     1
281
     1
  3
ACAD_XREC_ROUNDTRIP
360
34D
  0
CELLSTYLEMAP
  5
353
102
{ACAD_REACTORS
330
352
102
}
330
352
100
AcDbCellStyleMap
 90
        3
300
CELLSTYLE
  1
TABLEFORMAT_BEGIN
 90
        5
170
     1
 91
        0
 92
    32768
 62
   257
 93
        1
300
CONTENTFORMAT
  1
CONTENTFORMAT_BEGIN
 90
        0
 91
        0
 92
        4
 93
        0
300

 40
0.0
140
1.0
 94
        5
 62
     0
340
11
144
6.0
309
CONTENTFORMAT_END
171
     1
301
MARGIN
  1
CELLMARGIN_BEGIN
 40
1.5
 40
1.5
 40
1.5
 40
1.5
 40
1.5
 40
1.5
309
CELLMARGIN_END
 94
        6
 95
        1
302
GRIDFORMAT
  1
GRIDFORMAT_BEGIN
 90
        0
 91
        1
 62
     0
 92
       -2
340
14
 93
        0
 40
0.045
309
GRIDFORMAT_END
 95
        2
302
GRIDFORMAT
  1
GRIDFORMAT_BEGIN
 90
        0
 91
        1
 62
     0
 92
       -2
340
14
 93
        0
 40
0.045
309
GRIDFORMAT_END
 95
        4
302
GRIDFORMAT
  1
GRIDFORMAT_BEGIN
 90
        0
 91
        1
 62
     0
 92
       -2
340
14
 93
        0
 40
0.045
309
GRIDFORMAT_END
 95
        8
302
GRIDFORMAT
  1
GRIDFORMAT_BEGIN
 90
        0
 91
        1
 62
     0
 92
       -2
340
14
 93
        0
 40
0.045
309
GRIDFORMAT_END
 95
       16
302
GRIDFORMAT
  1
GRIDFORMAT_BEGIN
 90
        0
 91
        1
 62
     0
 92
       -2
340
14
 93
        0
 40
0.045
309
GRIDFORMAT_END
 95
       32
302
GRIDFORMAT
  1
GRIDFORMAT_BEGIN
 90
        0
 91
        1
 62
     0
 92
       -2
340
14
 93
        0
 40
0.045
309
GRIDFORMAT_END
309
TABLEFORMAT_END
  1
CELLSTYLE_BEGIN
 90
        1
 91
        1
300
_TITLE
309
CELLSTYLE_END
300
CELLSTYLE
  1
TABLEFORMAT_BEGIN
 90
        5
170
     1
 91
        0
 92
        0
 62
   257
 93
        1
300
CONTENTFORMAT
  1
CONTENTFORMAT_BEGIN
 90
        0
 91
        0
 92
        4
 93
        0
300

 40
0.0
140
1.0
 94
        5
 62
     0
340
11
144
4.5
309
CONTENTFORMAT_END
171
     1
301
MARGIN
  1
CELLMARGIN_BEGIN
 40
1.5
 40
1.5
 40
1.5
 40
1.5
 40
1.5
 40
1.5
309
CELLMARGIN_END
 94
        6
 95
        1
302
GRIDFORMAT
  1
GRIDFORMAT_BEGIN
 90
        0
 91
        1
 62
     0
 92
       -2
340
14
 93
        0
 40
0.045
309
GRIDFORMAT_END
 95
        2
302
GRIDFORMAT
  1
GRIDFORMAT_BEGIN
 90
        0
 91
        1
 62
     0
 92
       -2
340
14
 93
        0
 40
0.045
309
GRIDFORMAT_END
 95
        4
302
GRIDFORMAT
  1
GRIDFORMAT_BEGIN
 90
        0
 91
        1
 62
     0
 92
       -2
340
14
 93
        0
 40
0.045
309
GRIDFORMAT_END
 95
        8
302
GRIDFORMAT
  1
GRIDFORMAT_BEGIN
 90
        0
 91
        1
 62
     0
 92
       -2
340
14
 93
        0
 40
0.045
309
GRIDFORMAT_END
 95
       16
302
GRIDFORMAT
  1
GRIDFORMAT_BEGIN
 90
        0
 91
        1
 62
     0
 92
       -2
340
14
 93
        0
 40
0.045
309
GRIDFORMAT_END
 95
       32
302
GRIDFORMAT
  1
GRIDFORMAT_BEGIN
 90
        0
 91
        1
 62
     0
 92
       -2
340
14
 93
        0
 40
0.045
309
GRIDFORMAT_END
309
TABLEFORMAT_END
  1
CELLSTYLE_BEGIN
 90
        2
 91
        1
300
_HEADER
309
CELLSTYLE_END
300
CELLSTYLE
  1
TABLEFORMAT_BEGIN
 90
        5
170
     1
 91
        0
 92
        0
 62
   257
 93
        1
300
CONTENTFORMAT
  1
CONTENTFORMAT_BEGIN
 90
        0
 91
        0
 92
        4
 93
        0
300

 40
0.0
140
1.0
 94
        2
 62
     0
340
11
144
4.5
309
CONTENTFORMAT_END
171
     1
301
MARGIN
  1
CELLMARGIN_BEGIN
 40
1.5
 40
1.5
 40
1.5
 40
1.5
 40
1.5
 40
1.5
309
CELLMARGIN_END
 94
        6
 95
        1
302
GRIDFORMAT
  1
GRIDFORMAT_BEGIN
 90
        0
 91
        1
 62
     0
 92
       -2
340
14
 93
        0
 40
0.045
309
GRIDFORMAT_END
 95
        2
302
GRIDFORMAT
  1
GRIDFORMAT_BEGIN
 90
        0
 91
        1
 62
     0
 92
       -2
340
14
 93
        0
 40
0.045
309
GRIDFORMAT_END
 95
        4
302
GRIDFORMAT
  1
GRIDFORMAT_BEGIN
 90
        0
 91
        1
 62
     0
 92
       -2
340
14
 93
        0
 40
0.045
309
GRIDFORMAT_END
 95
        8
302
GRIDFORMAT
  1
GRIDFORMAT_BEGIN
 90
        0
 91
        1
 62
     0
 92
       -2
340
14
 93
        0
 40
0.045
309
GRIDFORMAT_END
 95
       16
302
GRIDFORMAT
  1
GRIDFORMAT_BEGIN
 90
        0
 91
        1
 62
     0
 92
       -2
340
14
 93
        0
 40
0.045
309
GRIDFORMAT_END
 95
       32
302
GRIDFORMAT
  1
GRIDFORMAT_BEGIN
 90
        0
 91
        1
 62
     0
 92
       -2
340
14
 93
        0
 40
0.045
309
GRIDFORMAT_END
309
TABLEFORMAT_END
  1
CELLSTYLE_BEGIN
 90
        3
 91
        2
300
_DATA
309
CELLSTYLE_END
  0
XRECORD
  5
32B
102
{ACAD_REACTORS
330
32A
102
}
330
32A
100
AcDbXrecord
280
     1
102
RTVSPost2010Prop28
280
     1
102
RTVSPost2010PropOp28
 70
     1
102
RTVSPost2010Prop29
280
     1
102
RTVSPost2010PropOp29
 70
     1
102
RTVSPost2010Prop30
280
     0
102
RTVSPost2010PropOp30
 70
     1
102
RTVSPost2010Prop31
280
     0
102
RTVSPost2010PropOp31
 70
     1
102
RTVSPost2010Prop32
280
     0
102
RTVSPost2010PropOp32
 70
     1
102
RTVSPost2010Prop33
280
     0
102
RTVSPost2010PropOp33
 70
     1
102
RTVSPost2010Prop34
280
     0
102
RTVSPost2010PropOp34
 70
     1
102
RTVSPost2010Prop35
280
     0
102
RTVSPost2010PropOp35
 70
     1
102
RTVSPost2010Prop36
280
     0
102
RTVSPost2010PropOp36
 70
     1
102
RTVSPost2010Prop37
 90
       50
102
RTVSPost2010PropOp37
 70
     1
102
RTVSPost2010Prop38
140
0.0
102
RTVSPost2010PropOp38
 70
     1
102
RTVSPost2010Prop39
140
1.0
102
RTVSPost2010PropOp39
 70
     1
102
RTVSPost2010Prop40
 90
        0
102
RTVSPost2010PropOp40
 70
     1
102
RTVSPost2010Prop41ColorIndex
 90
       18
102
RTVSPost2010Prop41ColorRGB
 90
        0
102
RTVSPost2010PropOp41
 70
     1
102
RTVSPost2010Prop42
 90
       50
102
RTVSPost2010PropOp42
 70
     1
102
RTVSPost2010Prop43
 90
        3
102
RTVSPost2010PropOp43
 70
     1
102
RTVSPost2010Prop44ColorIndex
 90
        5
102
RTVSPost2010Prop44ColorRGB
 90
      255
102
RTVSPost2010PropOp44
 70
     1
102
RTVSPost2010Prop45
280
     0
102
RTVSPost2010PropOp45
 70
     1
102
RTVSPost2010Prop46
 90
       50
102
RTVSPost2010PropOp46
 70
     1
102
RTVSPost2010Prop47
 90
       50
102
RTVSPost2010PropOp47
 70
     1
102
RTVSPost2010Prop48
 90
       50
102
RTVSPost2010PropOp48
 70
     1
102
RTVSPost2010Prop49
280
     0
102
RTVSPost2010PropOp49
 70
     1
102
RTVSPost2010Prop50
 90
       50
102
RTVSPost2010PropOp50
 70
     1
102
RTVSPost2010Prop51ColorIndex
 90
      256
102
RTVSPost2010Prop51ColorRGB
 90
-16777216
102
RTVSPost2010PropOp51
 70
     0
102
RTVSPost2010Prop52
140
1.0
102
RTVSPost2010PropOp52
 70
     0
102
RTVSPost2010Prop53
 90
        2
102
RTVSPost2010PropOp53
 70
     1
102
RTVSPost2010Prop54
  1
strokes_ogs.tif
102
RTVSPost2010PropOp54
 70
     1
102
RTVSPost2010Prop55
280
     0
102
RTVSPost2010PropOp55
 70
     1
102
RTVSPost2010Prop56
140
1.0
102
RTVSPost2010PropOp56
 70
     1
102
RTVSPost2010Prop57
140
1.0
102
RTVSPost2010PropOp57
 70
     1
  0
XRECORD
  5
331
102
{ACAD_REACTORS
330
330
102
}
330
330
100
AcDbXrecord
280
     1
102
RTVSPost2010Prop28
280
     0
102
RTVSPost2010PropOp28
 70
     1
102
RTVSPost2010Prop29
280
     1
102
RTVSPost2010PropOp29
 70
     1
102
RTVSPost2010Prop30
280
     1
102
RTVSPost2010PropOp30
 70
     1
102
RTVSPost2010Prop31
280
     0
102
RTVSPost2010PropOp31
 70
     1
102
RTVSPost2010Prop32
280
     0
102
RTVSPost2010PropOp32
 70
     1
102
RTVSPost2010Prop33
280
     0
102
RTVSPost2010PropOp33
 70
     1
102
RTVSPost2010Prop34
280
     0
102
RTVSPost2010PropOp34
 70
     1
102
RTVSPost2010Prop35
280
     0
102
RTVSPost2010PropOp35
 70
     1
102
RTVSPost2010Prop36
280
     0
102
RTVSPost2010PropOp36
 70
     1
102
RTVSPost2010Prop37
 90
       50
102
RTVSPost2010PropOp37
 70
     1
102
RTVSPost2010Prop38
140
0.0
102
RTVSPost2010PropOp38
 70
     1
102
RTVSPost2010Prop39
140
1.0
102
RTVSPost2010PropOp39
 70
     1
102
RTVSPost2010Prop40
 90
        0
102
RTVSPost2010PropOp40
 70
     1
102
RTVSPost2010Prop41ColorIndex
 90
       18
102
RTVSPost2010Prop41ColorRGB
 90
        0
102
RTVSPost2010PropOp41
 70
     1
102
RTVSPost2010Prop42
 90
       50
102
RTVSPost2010PropOp42
 70
     1
102
RTVSPost2010Prop43
 90
        3
102
RTVSPost2010PropOp43
 70
     1
102
RTVSPost2010Prop44ColorIndex
 90
        5
102
RTVSPost2010Prop44ColorRGB
 90
      255
102
RTVSPost2010PropOp44
 70
     1
102
RTVSPost2010Prop45
280
     0
102
RTVSPost2010PropOp45
 70
     1
102
RTVSPost2010Prop46
 90
       50
102
RTVSPost2010PropOp46
 70
     1
102
RTVSPost2010Prop47
 90
       50
102
RTVSPost2010PropOp47
 70
     1
102
RTVSPost2010Prop48
 90
       50
102
RTVSPost2010PropOp48
 70
     1
102
RTVSPost2010Prop49
280
     0
102
RTVSPost2010PropOp49
 70
     1
102
RTVSPost2010Prop50
 90
       50
102
RTVSPost2010PropOp50
 70
     1
102
RTVSPost2010Prop51ColorIndex
 90
      256
102
RTVSPost2010Prop51ColorRGB
 90
-16777216
102
RTVSPost2010PropOp51
 70
     0
102
RTVSPost2010Prop52
140
1.0
102
RTVSPost2010PropOp52
 70
     0
102
RTVSPost2010Prop53
 90
        2
102
RTVSPost2010PropOp53
 70
     1
102
RTVSPost2010Prop54
  1
strokes_ogs.tif
102
RTVSPost2010PropOp54
 70
     1
102
RTVSPost2010Prop55
280
     0
102
RTVSPost2010PropOp55
 70
     1
102
RTVSPost2010Prop56
140
1.0
102
RTVSPost2010PropOp56
 70
     1
102
RTVSPost2010Prop57
140
1.0
102
RTVSPost2010PropOp57
 70
     1
  0
XRECORD
  5
339
102
{ACAD_REACTORS
330
338
102
}
330
338
100
AcDbXrecord
280
     1
102
RTVSPost2010Prop28
280
     0
102
RTVSPost2010PropOp28
 70
     1
102
RTVSPost2010Prop29
280
     1
102
RTVSPost2010PropOp29
 70
     1
102
RTVSPost2010Prop30
280
     1
102
RTVSPost2010PropOp30
 70
     1
102
RTVSPost2010Prop31
280
     0
102
RTVSPost2010PropOp31
 70
     1
102
RTVSPost2010Prop32
280
     0
102
RTVSPost2010PropOp32
 70
     1
102
RTVSPost2010Prop33
280
     0
102
RTVSPost2010PropOp33
 70
     1
102
RTVSPost2010Prop34
280
     0
102
RTVSPost2010PropOp34
 70
     1
102
RTVSPost2010Prop35
280
     0
102
RTVSPost2010PropOp35
 70
     1
102
RTVSPost2010Prop36
280
     0
102
RTVSPost2010PropOp36
 70
     1
102
RTVSPost2010Prop37
 90
       50
102
RTVSPost2010PropOp37
 70
     1
102
RTVSPost2010Prop38
140
0.0
102
RTVSPost2010PropOp38
 70
     1
102
RTVSPost2010Prop39
140
1.0
102
RTVSPost2010PropOp39
 70
     1
102
RTVSPost2010Prop40
 90
        0
102
RTVSPost2010PropOp40
 70
     1
102
RTVSPost2010Prop41ColorIndex
 90
       18
102
RTVSPost2010Prop41ColorRGB
 90
        0
102
RTVSPost2010PropOp41
 70
     1
102
RTVSPost2010Prop42
 90
       50
102
RTVSPost2010PropOp42
 70
     1
102
RTVSPost2010Prop43
 90
        3
102
RTVSPost2010PropOp43
 70
     1
102
RTVSPost2010Prop44ColorIndex
 90
        5
102
RTVSPost2010Prop44ColorRGB
 90
      255
102
RTVSPost2010PropOp44
 70
     1
102
RTVSPost2010Prop45
280
     0
102
RTVSPost2010PropOp45
 70
     1
102
RTVSPost2010Prop46
 90
       50
102
RTVSPost2010PropOp46
 70
     1
102
RTVSPost2010Prop47
 90
       50
102
RTVSPost2010PropOp47
 70
     1
102
RTVSPost2010Prop48
 90
       50
102
RTVSPost2010PropOp48
 70
     1
102
RTVSPost2010Prop49
280
     0
102
RTVSPost2010PropOp49
 70
     1
102
RTVSPost2010Prop50
 90
       50
102
RTVSPost2010PropOp50
 70
     1
102
RTVSPost2010Prop51ColorIndex
 90
      256
102
RTVSPost2010Prop51ColorRGB
 90
-16777216
102
RTVSPost2010PropOp51
 70
     0
102
RTVSPost2010Prop52
140
1.0
102
RTVSPost2010PropOp52
 70
     0
102
RTVSPost2010Prop53
 90
        2
102
RTVSPost2010PropOp53
 70
     1
102
RTVSPost2010Prop54
  1
strokes_ogs.tif
102
RTVSPost2010PropOp54
 70
     1
102
RTVSPost2010Prop55
280
     0
102
RTVSPost2010PropOp55
 70
     1
102
RTVSPost2010Prop56
140
1.0
102
RTVSPost2010PropOp56
 70
     1
102
RTVSPost2010Prop57
140
1.0
102
RTVSPost2010PropOp57
 70
     1
  0
XRECORD
  5
341
102
{ACAD_REACTORS
330
340
102
}
330
340
100
AcDbXrecord
280
     1
102
RTVSPost2010Prop28
280
     0
102
RTVSPost2010PropOp28
 70
     1
102
RTVSPost2010Prop29
280
     1
102
RTVSPost2010PropOp29
 70
     1
102
RTVSPost2010Prop30
280
     1
102
RTVSPost2010PropOp30
 70
     1
102
RTVSPost2010Prop31
280
     0
102
RTVSPost2010PropOp31
 70
     1
102
RTVSPost2010Prop32
280
     0
102
RTVSPost2010PropOp32
 70
     1
102
RTVSPost2010Prop33
280
     0
102
RTVSPost2010PropOp33
 70
     1
102
RTVSPost2010Prop34
280
     0
102
RTVSPost2010PropOp34
 70
     1
102
RTVSPost2010Prop35
280
     0
102
RTVSPost2010PropOp35
 70
     1
102
RTVSPost2010Prop36
280
     0
102
RTVSPost2010PropOp36
 70
     1
102
RTVSPost2010Prop37
 90
       50
102
RTVSPost2010PropOp37
 70
     1
102
RTVSPost2010Prop38
140
0.0
102
RTVSPost2010PropOp38
 70
     1
102
RTVSPost2010Prop39
140
1.0
102
RTVSPost2010PropOp39
 70
     1
102
RTVSPost2010Prop40
 90
        0
102
RTVSPost2010PropOp40
 70
     1
102
RTVSPost2010Prop41ColorIndex
 90
       18
102
RTVSPost2010Prop41ColorRGB
 90
        0
102
RTVSPost2010PropOp41
 70
     1
102
RTVSPost2010Prop42
 90
       50
102
RTVSPost2010PropOp42
 70
     1
102
RTVSPost2010Prop43
 90
        3
102
RTVSPost2010PropOp43
 70
     1
102
RTVSPost2010Prop44ColorIndex
 90
        5
102
RTVSPost2010Prop44ColorRGB
 90
      255
102
RTVSPost2010PropOp44
 70
     1
102
RTVSPost2010Prop45
280
     0
102
RTVSPost2010PropOp45
 70
     1
102
RTVSPost2010Prop46
 90
       50
102
RTVSPost2010PropOp46
 70
     1
102
RTVSPost2010Prop47
 90
       50
102
RTVSPost2010PropOp47
 70
     1
102
RTVSPost2010Prop48
 90
       50
102
RTVSPost2010PropOp48
 70
     1
102
RTVSPost2010Prop49
280
     0
102
RTVSPost2010PropOp49
 70
     1
102
RTVSPost2010Prop50
 90
       50
102
RTVSPost2010PropOp50
 70
     1
102
RTVSPost2010Prop51ColorIndex
 90
      256
102
RTVSPost2010Prop51ColorRGB
 90
-16777216
102
RTVSPost2010PropOp51
 70
     0
102
RTVSPost2010Prop52
140
1.0
102
RTVSPost2010PropOp52
 70
     0
102
RTVSPost2010Prop53
 90
        2
102
RTVSPost2010PropOp53
 70
     1
102
RTVSPost2010Prop54
  1
strokes_ogs.tif
102
RTVSPost2010PropOp54
 70
     1
102
RTVSPost2010Prop55
280
     0
102
RTVSPost2010PropOp55
 70
     1
102
RTVSPost2010Prop56
140
1.0
102
RTVSPost2010PropOp56
 70
     1
102
RTVSPost2010Prop57
140
1.0
102
RTVSPost2010PropOp57
 70
     1
  0
XRECORD
  5
335
102
{ACAD_REACTORS
330
334
102
}
330
334
100
AcDbXrecord
280
     1
102
RTVSPost2010Prop28
280
     0
102
RTVSPost2010PropOp28
 70
     1
102
RTVSPost2010Prop29
280
     1
102
RTVSPost2010PropOp29
 70
     1
102
RTVSPost2010Prop30
280
     1
102
RTVSPost2010PropOp30
 70
     1
102
RTVSPost2010Prop31
280
     0
102
RTVSPost2010PropOp31
 70
     1
102
RTVSPost2010Prop32
280
     0
102
RTVSPost2010PropOp32
 70
     1
102
RTVSPost2010Prop33
280
     0
102
RTVSPost2010PropOp33
 70
     1
102
RTVSPost2010Prop34
280
     0
102
RTVSPost2010PropOp34
 70
     1
102
RTVSPost2010Prop35
280
     0
102
RTVSPost2010PropOp35
 70
     1
102
RTVSPost2010Prop36
280
     0
102
RTVSPost2010PropOp36
 70
     1
102
RTVSPost2010Prop37
 90
       50
102
RTVSPost2010PropOp37
 70
     1
102
RTVSPost2010Prop38
140
0.0
102
RTVSPost2010PropOp38
 70
     1
102
RTVSPost2010Prop39
140
1.0
102
RTVSPost2010PropOp39
 70
     1
102
RTVSPost2010Prop40
 90
        0
102
RTVSPost2010PropOp40
 70
     1
102
RTVSPost2010Prop41ColorIndex
 90
       18
102
RTVSPost2010Prop41ColorRGB
 90
        0
102
RTVSPost2010PropOp41
 70
     1
102
RTVSPost2010Prop42
 90
       50
102
RTVSPost2010PropOp42
 70
     1
102
RTVSPost2010Prop43
 90
        3
102
RTVSPost2010PropOp43
 70
     1
102
RTVSPost2010Prop44ColorIndex
 90
        5
102
RTVSPost2010Prop44ColorRGB
 90
      255
102
RTVSPost2010PropOp44
 70
     1
102
RTVSPost2010Prop45
280
     0
102
RTVSPost2010PropOp45
 70
     1
102
RTVSPost2010Prop46
 90
       50
102
RTVSPost2010PropOp46
 70
     1
102
RTVSPost2010Prop47
 90
       50
102
RTVSPost2010PropOp47
 70
     1
102
RTVSPost2010Prop48
 90
       50
102
RTVSPost2010PropOp48
 70
     1
102
RTVSPost2010Prop49
280
     0
102
RTVSPost2010PropOp49
 70
     1
102
RTVSPost2010Prop50
 90
       50
102
RTVSPost2010PropOp50
 70
     1
102
RTVSPost2010Prop51ColorIndex
 90
      256
102
RTVSPost2010Prop51ColorRGB
 90
-16777216
102
RTVSPost2010PropOp51
 70
     0
102
RTVSPost2010Prop52
140
1.0
102
RTVSPost2010PropOp52
 70
     0
102
RTVSPost2010Prop53
 90
        2
102
RTVSPost2010PropOp53
 70
     1
102
RTVSPost2010Prop54
  1
strokes_ogs.tif
102
RTVSPost2010PropOp54
 70
     1
102
RTVSPost2010Prop55
280
     0
102
RTVSPost2010PropOp55
 70
     1
102
RTVSPost2010Prop56
140
1.0
102
RTVSPost2010PropOp56
 70
     1
102
RTVSPost2010Prop57
140
1.0
102
RTVSPost2010PropOp57
 70
     1
  0
XRECORD
  5
337
102
{ACAD_REACTORS
330
336
102
}
330
336
100
AcDbXrecord
280
     1
102
RTVSPost2010Prop28
280
     0
102
RTVSPost2010PropOp28
 70
     1
102
RTVSPost2010Prop29
280
     1
102
RTVSPost2010PropOp29
 70
     1
102
RTVSPost2010Prop30
280
     1
102
RTVSPost2010PropOp30
 70
     1
102
RTVSPost2010Prop31
280
     0
102
RTVSPost2010PropOp31
 70
     1
102
RTVSPost2010Prop32
280
     0
102
RTVSPost2010PropOp32
 70
     1
102
RTVSPost2010Prop33
280
     0
102
RTVSPost2010PropOp33
 70
     1
102
RTVSPost2010Prop34
280
     0
102
RTVSPost2010PropOp34
 70
     1
102
RTVSPost2010Prop35
280
     0
102
RTVSPost2010PropOp35
 70
     1
102
RTVSPost2010Prop36
280
     0
102
RTVSPost2010PropOp36
 70
     1
102
RTVSPost2010Prop37
 90
       50
102
RTVSPost2010PropOp37
 70
     1
102
RTVSPost2010Prop38
140
0.0
102
RTVSPost2010PropOp38
 70
     1
102
RTVSPost2010Prop39
140
1.0
102
RTVSPost2010PropOp39
 70
     1
102
RTVSPost2010Prop40
 90
        0
102
RTVSPost2010PropOp40
 70
     1
102
RTVSPost2010Prop41ColorIndex
 90
       18
102
RTVSPost2010Prop41ColorRGB
 90
        0
102
RTVSPost2010PropOp41
 70
     1
102
RTVSPost2010Prop42
 90
       50
102
RTVSPost2010PropOp42
 70
     1
102
RTVSPost2010Prop43
 90
        3
102
RTVSPost2010PropOp43
 70
     1
102
RTVSPost2010Prop44ColorIndex
 90
        5
102
RTVSPost2010Prop44ColorRGB
 90
      255
102
RTVSPost2010PropOp44
 70
     1
102
RTVSPost2010Prop45
280
     0
102
RTVSPost2010PropOp45
 70
     1
102
RTVSPost2010Prop46
 90
       50
102
RTVSPost2010PropOp46
 70
     1
102
RTVSPost2010Prop47
 90
       50
102
RTVSPost2010PropOp47
 70
     1
102
RTVSPost2010Prop48
 90
       50
102
RTVSPost2010PropOp48
 70
     1
102
RTVSPost2010Prop49
280
     0
102
RTVSPost2010PropOp49
 70
     1
102
RTVSPost2010Prop50
 90
       50
102
RTVSPost2010PropOp50
 70
     1
102
RTVSPost2010Prop51ColorIndex
 90
      256
102
RTVSPost2010Prop51ColorRGB
 90
-16777216
102
RTVSPost2010PropOp51
 70
     0
102
RTVSPost2010Prop52
140
1.0
102
RTVSPost2010PropOp52
 70
     0
102
RTVSPost2010Prop53
 90
        2
102
RTVSPost2010PropOp53
 70
     1
102
RTVSPost2010Prop54
  1
strokes_ogs.tif
102
RTVSPost2010PropOp54
 70
     1
102
RTVSPost2010Prop55
280
     0
102
RTVSPost2010PropOp55
 70
     1
102
RTVSPost2010Prop56
140
1.0
102
RTVSPost2010PropOp56
 70
     1
102
RTVSPost2010Prop57
140
1.0
102
RTVSPost2010PropOp57
 70
     1
  0
XRECORD
  5
347
102
{ACAD_REACTORS
330
346
102
}
330
346
100
AcDbXrecord
280
     1
102
RTVSPost2010Prop28
280
     0
102
RTVSPost2010PropOp28
 70
     0
102
RTVSPost2010Prop29
280
     1
102
RTVSPost2010PropOp29
 70
     0
102
RTVSPost2010Prop30
280
     1
102
RTVSPost2010PropOp30
 70
     0
102
RTVSPost2010Prop31
280
     0
102
RTVSPost2010PropOp31
 70
     0
102
RTVSPost2010Prop32
280
     0
102
RTVSPost2010PropOp32
 70
     0
102
RTVSPost2010Prop33
280
     0
102
RTVSPost2010PropOp33
 70
     0
102
RTVSPost2010Prop34
280
     0
102
RTVSPost2010PropOp34
 70
     0
102
RTVSPost2010Prop35
280
     0
102
RTVSPost2010PropOp35
 70
     0
102
RTVSPost2010Prop36
280
     0
102
RTVSPost2010PropOp36
 70
     0
102
RTVSPost2010Prop37
 90
       50
102
RTVSPost2010PropOp37
 70
     0
102
RTVSPost2010Prop38
140
0.0
102
RTVSPost2010PropOp38
 70
     0
102
RTVSPost2010Prop39
140
1.0
102
RTVSPost2010PropOp39
 70
     0
102
RTVSPost2010Prop40
 90
        0
102
RTVSPost2010PropOp40
 70
     0
102
RTVSPost2010Prop41ColorIndex
 90
       18
102
RTVSPost2010Prop41ColorRGB
 90
        0
102
RTVSPost2010PropOp41
 70
     0
102
RTVSPost2010Prop42
 90
       50
102
RTVSPost2010PropOp42
 70
     0
102
RTVSPost2010Prop43
 90
        3
102
RTVSPost2010PropOp43
 70
     0
102
RTVSPost2010Prop44ColorIndex
 90
        5
102
RTVSPost2010Prop44ColorRGB
 90
      255
102
RTVSPost2010PropOp44
 70
     0
102
RTVSPost2010Prop45
280
     0
102
RTVSPost2010PropOp45
 70
     0
102
RTVSPost2010Prop46
 90
       50
102
RTVSPost2010PropOp46
 70
     0
102
RTVSPost2010Prop47
 90
       50
102
RTVSPost2010PropOp47
 70
     0
102
RTVSPost2010Prop48
 90
       50
102
RTVSPost2010PropOp48
 70
     0
102
RTVSPost2010Prop49
280
     0
102
RTVSPost2010PropOp49
 70
     0
102
RTVSPost2010Prop50
 90
       50
102
RTVSPost2010PropOp50
 70
     0
102
RTVSPost2010Prop51ColorIndex
 90
      256
102
RTVSPost2010Prop51ColorRGB
 90
-16777216
102
RTVSPost2010PropOp51
 70
     0
102
RTVSPost2010Prop52
140
1.0
102
RTVSPost2010PropOp52
 70
     0
102
RTVSPost2010Prop53
 90
        2
102
RTVSPost2010PropOp53
 70
     0
102
RTVSPost2010Prop54
  1
strokes_ogs.tif
102
RTVSPost2010PropOp54
 70
     0
102
RTVSPost2010Prop55
280
     0
102
RTVSPost2010PropOp55
 70
     0
102
RTVSPost2010Prop56
140
1.0
102
RTVSPost2010PropOp56
 70
     0
102
RTVSPost2010Prop57
140
1.0
102
RTVSPost2010PropOp57
 70
     0
  0
XRECORD
  5
33F
102
{ACAD_REACTORS
330
33E
102
}
330
33E
100
AcDbXrecord
280
     1
102
RTVSPost2010Prop28
280
     0
102
RTVSPost2010PropOp28
 70
     1
102
RTVSPost2010Prop29
280
     1
102
RTVSPost2010PropOp29
 70
     1
102
RTVSPost2010Prop30
280
     1
102
RTVSPost2010PropOp30
 70
     1
102
RTVSPost2010Prop31
280
     0
102
RTVSPost2010PropOp31
 70
     1
102
RTVSPost2010Prop32
280
     0
102
RTVSPost2010PropOp32
 70
     1
102
RTVSPost2010Prop33
280
     0
102
RTVSPost2010PropOp33
 70
     1
102
RTVSPost2010Prop34
280
     0
102
RTVSPost2010PropOp34
 70
     1
102
RTVSPost2010Prop35
280
     0
102
RTVSPost2010PropOp35
 70
     1
102
RTVSPost2010Prop36
280
     0
102
RTVSPost2010PropOp36
 70
     1
102
RTVSPost2010Prop37
 90
       50
102
RTVSPost2010PropOp37
 70
     1
102
RTVSPost2010Prop38
140
0.0
102
RTVSPost2010PropOp38
 70
     1
102
RTVSPost2010Prop39
140
1.0
102
RTVSPost2010PropOp39
 70
     1
102
RTVSPost2010Prop40
 90
        0
102
RTVSPost2010PropOp40
 70
     1
102
RTVSPost2010Prop41ColorIndex
 90
       18
102
RTVSPost2010Prop41ColorRGB
 90
        0
102
RTVSPost2010PropOp41
 70
     1
102
RTVSPost2010Prop42
 90
       50
102
RTVSPost2010PropOp42
 70
     1
102
RTVSPost2010Prop43
 90
        3
102
RTVSPost2010PropOp43
 70
     1
102
RTVSPost2010Prop44ColorIndex
 90
        5
102
RTVSPost2010Prop44ColorRGB
 90
      255
102
RTVSPost2010PropOp44
 70
     1
102
RTVSPost2010Prop45
280
     0
102
RTVSPost2010PropOp45
 70
     1
102
RTVSPost2010Prop46
 90
       50
102
RTVSPost2010PropOp46
 70
     1
102
RTVSPost2010Prop47
 90
       50
102
RTVSPost2010PropOp47
 70
     1
102
RTVSPost2010Prop48
 90
       50
102
RTVSPost2010PropOp48
 70
     1
102
RTVSPost2010Prop49
280
     0
102
RTVSPost2010PropOp49
 70
     1
102
RTVSPost2010Prop50
 90
       50
102
RTVSPost2010PropOp50
 70
     1
102
RTVSPost2010Prop51ColorIndex
 90
      256
102
RTVSPost2010Prop51ColorRGB
 90
-16777216
102
RTVSPost2010PropOp51
 70
     0
102
RTVSPost2010Prop52
140
1.0
102
RTVSPost2010PropOp52
 70
     0
102
RTVSPost2010Prop53
 90
        2
102
RTVSPost2010PropOp53
 70
     1
102
RTVSPost2010Prop54
  1
strokes_ogs.tif
102
RTVSPost2010PropOp54
 70
     1
102
RTVSPost2010Prop55
280
     0
102
RTVSPost2010PropOp55
 70
     1
102
RTVSPost2010Prop56
140
1.0
102
RTVSPost2010PropOp56
 70
     1
102
RTVSPost2010Prop57
140
1.0
102
RTVSPost2010PropOp57
 70
     1
  0
XRECORD
  5
323
102
{ACAD_REACTORS
330
322
102
}
330
322
100
AcDbXrecord
280
     1
102
RTVSPost2010Prop28
280
     0
102
RTVSPost2010PropOp28
 70
     1
102
RTVSPost2010Prop29
280
     1
102
RTVSPost2010PropOp29
 70
     1
102
RTVSPost2010Prop30
280
     1
102
RTVSPost2010PropOp30
 70
     1
102
RTVSPost2010Prop31
280
     0
102
RTVSPost2010PropOp31
 70
     1
102
RTVSPost2010Prop32
280
     0
102
RTVSPost2010PropOp32
 70
     1
102
RTVSPost2010Prop33
280
     0
102
RTVSPost2010PropOp33
 70
     1
102
RTVSPost2010Prop34
280
     0
102
RTVSPost2010PropOp34
 70
     1
102
RTVSPost2010Prop35
280
     0
102
RTVSPost2010PropOp35
 70
     1
102
RTVSPost2010Prop36
280
     0
102
RTVSPost2010PropOp36
 70
     1
102
RTVSPost2010Prop37
 90
       50
102
RTVSPost2010PropOp37
 70
     1
102
RTVSPost2010Prop38
140
0.0
102
RTVSPost2010PropOp38
 70
     1
102
RTVSPost2010Prop39
140
1.0
102
RTVSPost2010PropOp39
 70
     1
102
RTVSPost2010Prop40
 90
        0
102
RTVSPost2010PropOp40
 70
     1
102
RTVSPost2010Prop41ColorIndex
 90
       18
102
RTVSPost2010Prop41ColorRGB
 90
        0
102
RTVSPost2010PropOp41
 70
     1
102
RTVSPost2010Prop42
 90
       50
102
RTVSPost2010PropOp42
 70
     1
102
RTVSPost2010Prop43
 90
        3
102
RTVSPost2010PropOp43
 70
     1
102
RTVSPost2010Prop44ColorIndex
 90
        5
102
RTVSPost2010Prop44ColorRGB
 90
      255
102
RTVSPost2010PropOp44
 70
     1
102
RTVSPost2010Prop45
280
     0
102
RTVSPost2010PropOp45
 70
     1
102
RTVSPost2010Prop46
 90
       50
102
RTVSPost2010PropOp46
 70
     1
102
RTVSPost2010Prop47
 90
       50
102
RTVSPost2010PropOp47
 70
     1
102
RTVSPost2010Prop48
 90
       50
102
RTVSPost2010PropOp48
 70
     1
102
RTVSPost2010Prop49
280
     0
102
RTVSPost2010PropOp49
 70
     1
102
RTVSPost2010Prop50
 90
       50
102
RTVSPost2010PropOp50
 70
     1
102
RTVSPost2010Prop51ColorIndex
 90
      256
102
RTVSPost2010Prop51ColorRGB
 90
-16777216
102
RTVSPost2010PropOp51
 70
     0
102
RTVSPost2010Prop52
140
1.0
102
RTVSPost2010PropOp52
 70
     0
102
RTVSPost2010Prop53
 90
        2
102
RTVSPost2010PropOp53
 70
     1
102
RTVSPost2010Prop54
  1
strokes_ogs.tif
102
RTVSPost2010PropOp54
 70
     1
102
RTVSPost2010Prop55
280
     0
102
RTVSPost2010PropOp55
 70
     1
102
RTVSPost2010Prop56
140
1.0
102
RTVSPost2010PropOp56
 70
     1
102
RTVSPost2010Prop57
140
1.0
102
RTVSPost2010PropOp57
 70
     1
  0
XRECORD
  5
325
102
{ACAD_REACTORS
330
324
102
}
330
324
100
AcDbXrecord
280
     1
102
RTVSPost2010Prop28
280
     0
102
RTVSPost2010PropOp28
 70
     1
102
RTVSPost2010Prop29
280
     1
102
RTVSPost2010PropOp29
 70
     1
102
RTVSPost2010Prop30
280
     1
102
RTVSPost2010PropOp30
 70
     1
102
RTVSPost2010Prop31
280
     0
102
RTVSPost2010PropOp31
 70
     1
102
RTVSPost2010Prop32
280
     0
102
RTVSPost2010PropOp32
 70
     1
102
RTVSPost2010Prop33
280
     0
102
RTVSPost2010PropOp33
 70
     1
102
RTVSPost2010Prop34
280
     0
102
RTVSPost2010PropOp34
 70
     1
102
RTVSPost2010Prop35
280
     0
102
RTVSPost2010PropOp35
 70
     1
102
RTVSPost2010Prop36
280
     0
102
RTVSPost2010PropOp36
 70
     1
102
RTVSPost2010Prop37
 90
       50
102
RTVSPost2010PropOp37
 70
     1
102
RTVSPost2010Prop38
140
0.0
102
RTVSPost2010PropOp38
 70
     1
102
RTVSPost2010Prop39
140
1.0
102
RTVSPost2010PropOp39
 70
     1
102
RTVSPost2010Prop40
 90
        0
102
RTVSPost2010PropOp40
 70
     1
102
RTVSPost2010Prop41ColorIndex
 90
       18
102
RTVSPost2010Prop41ColorRGB
 90
        0
102
RTVSPost2010PropOp41
 70
     1
102
RTVSPost2010Prop42
 90
       50
102
RTVSPost2010PropOp42
 70
     1
102
RTVSPost2010Prop43
 90
        3
102
RTVSPost2010PropOp43
 70
     1
102
RTVSPost2010Prop44ColorIndex
 90
        5
102
RTVSPost2010Prop44ColorRGB
 90
      255
102
RTVSPost2010PropOp44
 70
     1
102
RTVSPost2010Prop45
280
     0
102
RTVSPost2010PropOp45
 70
     1
102
RTVSPost2010Prop46
 90
       50
102
RTVSPost2010PropOp46
 70
     1
102
RTVSPost2010Prop47
 90
       50
102
RTVSPost2010PropOp47
 70
     1
102
RTVSPost2010Prop48
 90
       50
102
RTVSPost2010PropOp48
 70
     1
102
RTVSPost2010Prop49
280
     0
102
RTVSPost2010PropOp49
 70
     1
102
RTVSPost2010Prop50
 90
       50
102
RTVSPost2010PropOp50
 70
     1
102
RTVSPost2010Prop51ColorIndex
 90
      256
102
RTVSPost2010Prop51ColorRGB
 90
-16777216
102
RTVSPost2010PropOp51
 70
     0
102
RTVSPost2010Prop52
140
1.0
102
RTVSPost2010PropOp52
 70
     0
102
RTVSPost2010Prop53
 90
        2
102
RTVSPost2010PropOp53
 70
     1
102
RTVSPost2010Prop54
  1
strokes_ogs.tif
102
RTVSPost2010PropOp54
 70
     1
102
RTVSPost2010Prop55
280
     0
102
RTVSPost2010PropOp55
 70
     1
102
RTVSPost2010Prop56
140
1.0
102
RTVSPost2010PropOp56
 70
     1
102
RTVSPost2010Prop57
140
1.0
102
RTVSPost2010PropOp57
 70
     1
  0
XRECORD
  5
327
102
{ACAD_REACTORS
330
326
102
}
330
326
100
AcDbXrecord
280
     1
102
RTVSPost2010Prop28
280
     0
102
RTVSPost2010PropOp28
 70
     1
102
RTVSPost2010Prop29
280
     1
102
RTVSPost2010PropOp29
 70
     1
102
RTVSPost2010Prop30
280
     1
102
RTVSPost2010PropOp30
 70
     1
102
RTVSPost2010Prop31
280
     0
102
RTVSPost2010PropOp31
 70
     1
102
RTVSPost2010Prop32
280
     0
102
RTVSPost2010PropOp32
 70
     1
102
RTVSPost2010Prop33
280
     0
102
RTVSPost2010PropOp33
 70
     1
102
RTVSPost2010Prop34
280
     0
102
RTVSPost2010PropOp34
 70
     1
102
RTVSPost2010Prop35
280
     0
102
RTVSPost2010PropOp35
 70
     1
102
RTVSPost2010Prop36
280
     0
102
RTVSPost2010PropOp36
 70
     1
102
RTVSPost2010Prop37
 90
       50
102
RTVSPost2010PropOp37
 70
     1
102
RTVSPost2010Prop38
140
0.0
102
RTVSPost2010PropOp38
 70
     1
102
RTVSPost2010Prop39
140
1.0
102
RTVSPost2010PropOp39
 70
     1
102
RTVSPost2010Prop40
 90
        0
102
RTVSPost2010PropOp40
 70
     1
102
RTVSPost2010Prop41ColorIndex
 90
       18
102
RTVSPost2010Prop41ColorRGB
 90
        0
102
RTVSPost2010PropOp41
 70
     1
102
RTVSPost2010Prop42
 90
       50
102
RTVSPost2010PropOp42
 70
     1
102
RTVSPost2010Prop43
 90
        3
102
RTVSPost2010PropOp43
 70
     1
102
RTVSPost2010Prop44ColorIndex
 90
        5
102
RTVSPost2010Prop44ColorRGB
 90
      255
102
RTVSPost2010PropOp44
 70
     1
102
RTVSPost2010Prop45
280
     0
102
RTVSPost2010PropOp45
 70
     1
102
RTVSPost2010Prop46
 90
       50
102
RTVSPost2010PropOp46
 70
     1
102
RTVSPost2010Prop47
 90
       50
102
RTVSPost2010PropOp47
 70
     1
102
RTVSPost2010Prop48
 90
       50
102
RTVSPost2010PropOp48
 70
     1
102
RTVSPost2010Prop49
280
     0
102
RTVSPost2010PropOp49
 70
     1
102
RTVSPost2010Prop50
 90
       50
102
RTVSPost2010PropOp50
 70
     1
102
RTVSPost2010Prop51ColorIndex
 90
      256
102
RTVSPost2010Prop51ColorRGB
 90
-16777216
102
RTVSPost2010PropOp51
 70
     0
102
RTVSPost2010Prop52
140
1.0
102
RTVSPost2010PropOp52
 70
     0
102
RTVSPost2010Prop53
 90
        2
102
RTVSPost2010PropOp53
 70
     1
102
RTVSPost2010Prop54
  1
strokes_ogs.tif
102
RTVSPost2010PropOp54
 70
     1
102
RTVSPost2010Prop55
280
     0
102
RTVSPost2010PropOp55
 70
     1
102
RTVSPost2010Prop56
140
1.0
102
RTVSPost2010PropOp56
 70
     1
102
RTVSPost2010Prop57
140
1.0
102
RTVSPost2010PropOp57
 70
     1
  0
XRECORD
  5
329
102
{ACAD_REACTORS
330
328
102
}
330
328
100
AcDbXrecord
280
     1
102
RTVSPost2010Prop28
280
     0
102
RTVSPost2010PropOp28
 70
     1
102
RTVSPost2010Prop29
280
     1
102
RTVSPost2010PropOp29
 70
     1
102
RTVSPost2010Prop30
280
     1
102
RTVSPost2010PropOp30
 70
     1
102
RTVSPost2010Prop31
280
     0
102
RTVSPost2010PropOp31
 70
     1
102
RTVSPost2010Prop32
280
     0
102
RTVSPost2010PropOp32
 70
     1
102
RTVSPost2010Prop33
280
     0
102
RTVSPost2010PropOp33
 70
     1
102
RTVSPost2010Prop34
280
     0
102
RTVSPost2010PropOp34
 70
     1
102
RTVSPost2010Prop35
280
     0
102
RTVSPost2010PropOp35
 70
     1
102
RTVSPost2010Prop36
280
     0
102
RTVSPost2010PropOp36
 70
     1
102
RTVSPost2010Prop37
 90
       50
102
RTVSPost2010PropOp37
 70
     1
102
RTVSPost2010Prop38
140
0.0
102
RTVSPost2010PropOp38
 70
     1
102
RTVSPost2010Prop39
140
1.0
102
RTVSPost2010PropOp39
 70
     1
102
RTVSPost2010Prop40
 90
        0
102
RTVSPost2010PropOp40
 70
     1
102
RTVSPost2010Prop41ColorIndex
 90
       18
102
RTVSPost2010Prop41ColorRGB
 90
        0
102
RTVSPost2010PropOp41
 70
     1
102
RTVSPost2010Prop42
 90
       50
102
RTVSPost2010PropOp42
 70
     1
102
RTVSPost2010Prop43
 90
        3
102
RTVSPost2010PropOp43
 70
     1
102
RTVSPost2010Prop44ColorIndex
 90
        5
102
RTVSPost2010Prop44ColorRGB
 90
      255
102
RTVSPost2010PropOp44
 70
     1
102
RTVSPost2010Prop45
280
     0
102
RTVSPost2010PropOp45
 70
     1
102
RTVSPost2010Prop46
 90
       50
102
RTVSPost2010PropOp46
 70
     1
102
RTVSPost2010Prop47
 90
       50
102
RTVSPost2010PropOp47
 70
     1
102
RTVSPost2010Prop48
 90
       50
102
RTVSPost2010PropOp48
 70
     1
102
RTVSPost2010Prop49
280
     0
102
RTVSPost2010PropOp49
 70
     1
102
RTVSPost2010Prop50
 90
       50
102
RTVSPost2010PropOp50
 70
     1
102
RTVSPost2010Prop51ColorIndex
 90
      256
102
RTVSPost2010Prop51ColorRGB
 90
-16777216
102
RTVSPost2010PropOp51
 70
     0
102
RTVSPost2010Prop52
140
1.0
102
RTVSPost2010PropOp52
 70
     0
102
RTVSPost2010Prop53
 90
        2
102
RTVSPost2010PropOp53
 70
     1
102
RTVSPost2010Prop54
  1
strokes_ogs.tif
102
RTVSPost2010PropOp54
 70
     1
102
RTVSPost2010Prop55
280
     0
102
RTVSPost2010PropOp55
 70
     1
102
RTVSPost2010Prop56
140
1.0
102
RTVSPost2010PropOp56
 70
     1
102
RTVSPost2010Prop57
140
1.0
102
RTVSPost2010PropOp57
 70
     1
  0
XRECORD
  5
32F
102
{ACAD_REACTORS
330
32E
102
}
330
32E
100
AcDbXrecord
280
     1
102
RTVSPost2010Prop28
280
     0
102
RTVSPost2010PropOp28
 70
     1
102
RTVSPost2010Prop29
280
     1
102
RTVSPost2010PropOp29
 70
     1
102
RTVSPost2010Prop30
280
     1
102
RTVSPost2010PropOp30
 70
     1
102
RTVSPost2010Prop31
280
     0
102
RTVSPost2010PropOp31
 70
     1
102
RTVSPost2010Prop32
280
     0
102
RTVSPost2010PropOp32
 70
     1
102
RTVSPost2010Prop33
280
     0
102
RTVSPost2010PropOp33
 70
     1
102
RTVSPost2010Prop34
280
     0
102
RTVSPost2010PropOp34
 70
     1
102
RTVSPost2010Prop35
280
     0
102
RTVSPost2010PropOp35
 70
     1
102
RTVSPost2010Prop36
280
     0
102
RTVSPost2010PropOp36
 70
     1
102
RTVSPost2010Prop37
 90
       50
102
RTVSPost2010PropOp37
 70
     1
102
RTVSPost2010Prop38
140
0.0
102
RTVSPost2010PropOp38
 70
     1
102
RTVSPost2010Prop39
140
1.0
102
RTVSPost2010PropOp39
 70
     1
102
RTVSPost2010Prop40
 90
        0
102
RTVSPost2010PropOp40
 70
     1
102
RTVSPost2010Prop41ColorIndex
 90
       18
102
RTVSPost2010Prop41ColorRGB
 90
        0
102
RTVSPost2010PropOp41
 70
     1
102
RTVSPost2010Prop42
 90
       50
102
RTVSPost2010PropOp42
 70
     1
102
RTVSPost2010Prop43
 90
        3
102
RTVSPost2010PropOp43
 70
     1
102
RTVSPost2010Prop44ColorIndex
 90
        5
102
RTVSPost2010Prop44ColorRGB
 90
      255
102
RTVSPost2010PropOp44
 70
     1
102
RTVSPost2010Prop45
280
     0
102
RTVSPost2010PropOp45
 70
     1
102
RTVSPost2010Prop46
 90
       50
102
RTVSPost2010PropOp46
 70
     1
102
RTVSPost2010Prop47
 90
       50
102
RTVSPost2010PropOp47
 70
     1
102
RTVSPost2010Prop48
 90
       50
102
RTVSPost2010PropOp48
 70
     1
102
RTVSPost2010Prop49
280
     0
102
RTVSPost2010PropOp49
 70
     1
102
RTVSPost2010Prop50
 90
       50
102
RTVSPost2010PropOp50
 70
     1
102
RTVSPost2010Prop51ColorIndex
 90
      256
102
RTVSPost2010Prop51ColorRGB
 90
-16777216
102
RTVSPost2010PropOp51
 70
     0
102
RTVSPost2010Prop52
140
1.0
102
RTVSPost2010PropOp52
 70
     0
102
RTVSPost2010Prop53
 90
        2
102
RTVSPost2010PropOp53
 70
     1
102
RTVSPost2010Prop54
  1
strokes_ogs.tif
102
RTVSPost2010PropOp54
 70
     1
102
RTVSPost2010Prop55
280
     0
102
RTVSPost2010PropOp55
 70
     1
102
RTVSPost2010Prop56
140
1.0
102
RTVSPost2010PropOp56
 70
     1
102
RTVSPost2010Prop57
140
1.0
102
RTVSPost2010PropOp57
 70
     1
  0
XRECORD
  5
343
102
{ACAD_REACTORS
330
342
102
}
330
342
100
AcDbXrecord
280
     1
102
RTVSPost2010Prop28
280
     0
102
RTVSPost2010PropOp28
 70
     0
102
RTVSPost2010Prop29
280
     1
102
RTVSPost2010PropOp29
 70
     0
102
RTVSPost2010Prop30
280
     1
102
RTVSPost2010PropOp30
 70
     0
102
RTVSPost2010Prop31
280
     0
102
RTVSPost2010PropOp31
 70
     0
102
RTVSPost2010Prop32
280
     0
102
RTVSPost2010PropOp32
 70
     0
102
RTVSPost2010Prop33
280
     0
102
RTVSPost2010PropOp33
 70
     0
102
RTVSPost2010Prop34
280
     0
102
RTVSPost2010PropOp34
 70
     0
102
RTVSPost2010Prop35
280
     0
102
RTVSPost2010PropOp35
 70
     0
102
RTVSPost2010Prop36
280
     0
102
RTVSPost2010PropOp36
 70
     0
102
RTVSPost2010Prop37
 90
       50
102
RTVSPost2010PropOp37
 70
     0
102
RTVSPost2010Prop38
140
0.0
102
RTVSPost2010PropOp38
 70
     0
102
RTVSPost2010Prop39
140
1.0
102
RTVSPost2010PropOp39
 70
     0
102
RTVSPost2010Prop40
 90
        0
102
RTVSPost2010PropOp40
 70
     0
102
RTVSPost2010Prop41ColorIndex
 90
       18
102
RTVSPost2010Prop41ColorRGB
 90
        0
102
RTVSPost2010PropOp41
 70
     0
102
RTVSPost2010Prop42
 90
       50
102
RTVSPost2010PropOp42
 70
     0
102
RTVSPost2010Prop43
 90
        3
102
RTVSPost2010PropOp43
 70
     0
102
RTVSPost2010Prop44ColorIndex
 90
        5
102
RTVSPost2010Prop44ColorRGB
 90
      255
102
RTVSPost2010PropOp44
 70
     0
102
RTVSPost2010Prop45
280
     0
102
RTVSPost2010PropOp45
 70
     0
102
RTVSPost2010Prop46
 90
       50
102
RTVSPost2010PropOp46
 70
     0
102
RTVSPost2010Prop47
 90
       50
102
RTVSPost2010PropOp47
 70
     0
102
RTVSPost2010Prop48
 90
       50
102
RTVSPost2010PropOp48
 70
     0
102
RTVSPost2010Prop49
280
     0
102
RTVSPost2010PropOp49
 70
     0
102
RTVSPost2010Prop50
 90
       50
102
RTVSPost2010PropOp50
 70
     0
102
RTVSPost2010Prop51ColorIndex
 90
      256
102
RTVSPost2010Prop51ColorRGB
 90
-16777216
102
RTVSPost2010PropOp51
 70
     0
102
RTVSPost2010Prop52
140
1.0
102
RTVSPost2010PropOp52
 70
     0
102
RTVSPost2010Prop53
 90
        2
102
RTVSPost2010PropOp53
 70
     0
102
RTVSPost2010Prop54
  1
strokes_ogs.tif
102
RTVSPost2010PropOp54
 70
     0
102
RTVSPost2010Prop55
280
     0
102
RTVSPost2010PropOp55
 70
     0
102
RTVSPost2010Prop56
140
1.0
102
RTVSPost2010PropOp56
 70
     0
102
RTVSPost2010Prop57
140
1.0
102
RTVSPost2010PropOp57
 70
     0
  0
XRECORD
  5
33D
102
{ACAD_REACTORS
330
33C
102
}
330
33C
100
AcDbXrecord
280
     1
102
RTVSPost2010Prop28
280
     0
102
RTVSPost2010PropOp28
 70
     1
102
RTVSPost2010Prop29
280
     1
102
RTVSPost2010PropOp29
 70
     1
102
RTVSPost2010Prop30
280
     1
102
RTVSPost2010PropOp30
 70
     1
102
RTVSPost2010Prop31
280
     0
102
RTVSPost2010PropOp31
 70
     1
102
RTVSPost2010Prop32
280
     0
102
RTVSPost2010PropOp32
 70
     1
102
RTVSPost2010Prop33
280
     0
102
RTVSPost2010PropOp33
 70
     1
102
RTVSPost2010Prop34
280
     0
102
RTVSPost2010PropOp34
 70
     1
102
RTVSPost2010Prop35
280
     0
102
RTVSPost2010PropOp35
 70
     1
102
RTVSPost2010Prop36
280
     0
102
RTVSPost2010PropOp36
 70
     1
102
RTVSPost2010Prop37
 90
       50
102
RTVSPost2010PropOp37
 70
     1
102
RTVSPost2010Prop38
140
0.0
102
RTVSPost2010PropOp38
 70
     1
102
RTVSPost2010Prop39
140
1.0
102
RTVSPost2010PropOp39
 70
     1
102
RTVSPost2010Prop40
 90
        0
102
RTVSPost2010PropOp40
 70
     1
102
RTVSPost2010Prop41ColorIndex
 90
       18
102
RTVSPost2010Prop41ColorRGB
 90
        0
102
RTVSPost2010PropOp41
 70
     1
102
RTVSPost2010Prop42
 90
       50
102
RTVSPost2010PropOp42
 70
     1
102
RTVSPost2010Prop43
 90
        3
102
RTVSPost2010PropOp43
 70
     1
102
RTVSPost2010Prop44ColorIndex
 90
        5
102
RTVSPost2010Prop44ColorRGB
 90
      255
102
RTVSPost2010PropOp44
 70
     1
102
RTVSPost2010Prop45
280
     0
102
RTVSPost2010PropOp45
 70
     1
102
RTVSPost2010Prop46
 90
       50
102
RTVSPost2010PropOp46
 70
     1
102
RTVSPost2010Prop47
 90
       50
102
RTVSPost2010PropOp47
 70
     1
102
RTVSPost2010Prop48
 90
       50
102
RTVSPost2010PropOp48
 70
     1
102
RTVSPost2010Prop49
280
     0
102
RTVSPost2010PropOp49
 70
     1
102
RTVSPost2010Prop50
 90
       50
102
RTVSPost2010PropOp50
 70
     1
102
RTVSPost2010Prop51ColorIndex
 90
      256
102
RTVSPost2010Prop51ColorRGB
 90
-16777216
102
RTVSPost2010PropOp51
 70
     0
102
RTVSPost2010Prop52
140
1.0
102
RTVSPost2010PropOp52
 70
     0
102
RTVSPost2010Prop53
 90
        2
102
RTVSPost2010PropOp53
 70
     1
102
RTVSPost2010Prop54
  1
strokes_ogs.tif
102
RTVSPost2010PropOp54
 70
     1
102
RTVSPost2010Prop55
280
     0
102
RTVSPost2010PropOp55
 70
     1
102
RTVSPost2010Prop56
140
1.0
102
RTVSPost2010PropOp56
 70
     1
102
RTVSPost2010Prop57
140
1.0
102
RTVSPost2010PropOp57
 70
     1
  0
XRECORD
  5
345
102
{ACAD_REACTORS
330
344
102
}
330
344
100
AcDbXrecord
280
     1
102
RTVSPost2010Prop28
280
     0
102
RTVSPost2010PropOp28
 70
     0
102
RTVSPost2010Prop29
280
     1
102
RTVSPost2010PropOp29
 70
     0
102
RTVSPost2010Prop30
280
     1
102
RTVSPost2010PropOp30
 70
     0
102
RTVSPost2010Prop31
280
     0
102
RTVSPost2010PropOp31
 70
     0
102
RTVSPost2010Prop32
280
     0
102
RTVSPost2010PropOp32
 70
     0
102
RTVSPost2010Prop33
280
     0
102
RTVSPost2010PropOp33
 70
     0
102
RTVSPost2010Prop34
280
     0
102
RTVSPost2010PropOp34
 70
     0
102
RTVSPost2010Prop35
280
     0
102
RTVSPost2010PropOp35
 70
     0
102
RTVSPost2010Prop36
280
     0
102
RTVSPost2010PropOp36
 70
     0
102
RTVSPost2010Prop37
 90
       50
102
RTVSPost2010PropOp37
 70
     0
102
RTVSPost2010Prop38
140
0.0
102
RTVSPost2010PropOp38
 70
     0
102
RTVSPost2010Prop39
140
1.0
102
RTVSPost2010PropOp39
 70
     0
102
RTVSPost2010Prop40
 90
        0
102
RTVSPost2010PropOp40
 70
     0
102
RTVSPost2010Prop41ColorIndex
 90
       18
102
RTVSPost2010Prop41ColorRGB
 90
        0
102
RTVSPost2010PropOp41
 70
     0
102
RTVSPost2010Prop42
 90
       50
102
RTVSPost2010PropOp42
 70
     0
102
RTVSPost2010Prop43
 90
        3
102
RTVSPost2010PropOp43
 70
     0
102
RTVSPost2010Prop44ColorIndex
 90
        5
102
RTVSPost2010Prop44ColorRGB
 90
      255
102
RTVSPost2010PropOp44
 70
     0
102
RTVSPost2010Prop45
280
     0
102
RTVSPost2010PropOp45
 70
     0
102
RTVSPost2010Prop46
 90
       50
102
RTVSPost2010PropOp46
 70
     0
102
RTVSPost2010Prop47
 90
       50
102
RTVSPost2010PropOp47
 70
     0
102
RTVSPost2010Prop48
 90
       50
102
RTVSPost2010PropOp48
 70
     0
102
RTVSPost2010Prop49
280
     0
102
RTVSPost2010PropOp49
 70
     0
102
RTVSPost2010Prop50
 90
       50
102
RTVSPost2010PropOp50
 70
     0
102
RTVSPost2010Prop51ColorIndex
 90
      256
102
RTVSPost2010Prop51ColorRGB
 90
-16777216
102
RTVSPost2010PropOp51
 70
     0
102
RTVSPost2010Prop52
140
1.0
102
RTVSPost2010PropOp52
 70
     0
102
RTVSPost2010Prop53
 90
        2
102
RTVSPost2010PropOp53
 70
     0
102
RTVSPost2010Prop54
  1
strokes_ogs.tif
102
RTVSPost2010PropOp54
 70
     0
102
RTVSPost2010Prop55
280
     0
102
RTVSPost2010PropOp55
 70
     0
102
RTVSPost2010Prop56
140
1.0
102
RTVSPost2010PropOp56
 70
     0
102
RTVSPost2010Prop57
140
1.0
102
RTVSPost2010PropOp57
 70
     0
  0
XRECORD
  5
333
102
{ACAD_REACTORS
330
332
102
}
330
332
100
AcDbXrecord
280
     1
102
RTVSPost2010Prop28
280
     0
102
RTVSPost2010PropOp28
 70
     1
102
RTVSPost2010Prop29
280
     1
102
RTVSPost2010PropOp29
 70
     1
102
RTVSPost2010Prop30
280
     1
102
RTVSPost2010PropOp30
 70
     1
102
RTVSPost2010Prop31
280
     0
102
RTVSPost2010PropOp31
 70
     1
102
RTVSPost2010Prop32
280
     0
102
RTVSPost2010PropOp32
 70
     1
102
RTVSPost2010Prop33
280
     0
102
RTVSPost2010PropOp33
 70
     1
102
RTVSPost2010Prop34
280
     0
102
RTVSPost2010PropOp34
 70
     1
102
RTVSPost2010Prop35
280
     0
102
RTVSPost2010PropOp35
 70
     1
102
RTVSPost2010Prop36
280
     0
102
RTVSPost2010PropOp36
 70
     1
102
RTVSPost2010Prop37
 90
       50
102
RTVSPost2010PropOp37
 70
     1
102
RTVSPost2010Prop38
140
0.0
102
RTVSPost2010PropOp38
 70
     1
102
RTVSPost2010Prop39
140
1.0
102
RTVSPost2010PropOp39
 70
     1
102
RTVSPost2010Prop40
 90
        0
102
RTVSPost2010PropOp40
 70
     1
102
RTVSPost2010Prop41ColorIndex
 90
       18
102
RTVSPost2010Prop41ColorRGB
 90
        0
102
RTVSPost2010PropOp41
 70
     1
102
RTVSPost2010Prop42
 90
       50
102
RTVSPost2010PropOp42
 70
     1
102
RTVSPost2010Prop43
 90
        3
102
RTVSPost2010PropOp43
 70
     1
102
RTVSPost2010Prop44ColorIndex
 90
        5
102
RTVSPost2010Prop44ColorRGB
 90
      255
102
RTVSPost2010PropOp44
 70
     1
102
RTVSPost2010Prop45
280
     0
102
RTVSPost2010PropOp45
 70
     1
102
RTVSPost2010Prop46
 90
       50
102
RTVSPost2010PropOp46
 70
     1
102
RTVSPost2010Prop47
 90
       50
102
RTVSPost2010PropOp47
 70
     1
102
RTVSPost2010Prop48
 90
       50
102
RTVSPost2010PropOp48
 70
     1
102
RTVSPost2010Prop49
280
     0
102
RTVSPost2010PropOp49
 70
     1
102
RTVSPost2010Prop50
 90
       50
102
RTVSPost2010PropOp50
 70
     1
102
RTVSPost2010Prop51ColorIndex
 90
      256
102
RTVSPost2010Prop51ColorRGB
 90
-16777216
102
RTVSPost2010PropOp51
 70
     0
102
RTVSPost2010Prop52
140
1.0
102
RTVSPost2010PropOp52
 70
     0
102
RTVSPost2010Prop53
 90
        2
102
RTVSPost2010PropOp53
 70
     1
102
RTVSPost2010Prop54
  1
strokes_ogs.tif
102
RTVSPost2010PropOp54
 70
     1
102
RTVSPost2010Prop55
280
     0
102
RTVSPost2010PropOp55
 70
     1
102
RTVSPost2010Prop56
140
1.0
102
RTVSPost2010PropOp56
 70
     1
102
RTVSPost2010Prop57
140
1.0
102
RTVSPost2010PropOp57
 70
     1
  0
XRECORD
  5
351
102
{ACAD_REACTORS
330
350
102
}
330
350
100
AcDbXrecord
280
     1
102
RTVSPost2010Prop28
280
     0
102
RTVSPost2010PropOp28
 70
     1
102
RTVSPost2010Prop29
280
     1
102
RTVSPost2010PropOp29
 70
     1
102
RTVSPost2010Prop30
280
     1
102
RTVSPost2010PropOp30
 70
     1
102
RTVSPost2010Prop31
280
     0
102
RTVSPost2010PropOp31
 70
     1
102
RTVSPost2010Prop32
280
     0
102
RTVSPost2010PropOp32
 70
     1
102
RTVSPost2010Prop33
280
     0
102
RTVSPost2010PropOp33
 70
     1
102
RTVSPost2010Prop34
280
     0
102
RTVSPost2010PropOp34
 70
     1
102
RTVSPost2010Prop35
280
     0
102
RTVSPost2010PropOp35
 70
     1
102
RTVSPost2010Prop36
280
     0
102
RTVSPost2010PropOp36
 70
     1
102
RTVSPost2010Prop37
 90
       50
102
RTVSPost2010PropOp37
 70
     1
102
RTVSPost2010Prop38
140
0.0
102
RTVSPost2010PropOp38
 70
     1
102
RTVSPost2010Prop39
140
1.0
102
RTVSPost2010PropOp39
 70
     1
102
RTVSPost2010Prop40
 90
        0
102
RTVSPost2010PropOp40
 70
     1
102
RTVSPost2010Prop41ColorIndex
 90
       18
102
RTVSPost2010Prop41ColorRGB
 90
        0
102
RTVSPost2010PropOp41
 70
     1
102
RTVSPost2010Prop42
 90
       50
102
RTVSPost2010PropOp42
 70
     1
102
RTVSPost2010Prop43
 90
        3
102
RTVSPost2010PropOp43
 70
     1
102
RTVSPost2010Prop44ColorIndex
 90
        5
102
RTVSPost2010Prop44ColorRGB
 90
      255
102
RTVSPost2010PropOp44
 70
     1
102
RTVSPost2010Prop45
280
     0
102
RTVSPost2010PropOp45
 70
     1
102
RTVSPost2010Prop46
 90
       50
102
RTVSPost2010PropOp46
 70
     1
102
RTVSPost2010Prop47
 90
       50
102
RTVSPost2010PropOp47
 70
     1
102
RTVSPost2010Prop48
 90
       50
102
RTVSPost2010PropOp48
 70
     1
102
RTVSPost2010Prop49
280
     0
102
RTVSPost2010PropOp49
 70
     1
102
RTVSPost2010Prop50
 90
       50
102
RTVSPost2010PropOp50
 70
     1
102
RTVSPost2010Prop51ColorIndex
 90
      256
102
RTVSPost2010Prop51ColorRGB
 90
-16777216
102
RTVSPost2010PropOp51
 70
     0
102
RTVSPost2010Prop52
140
1.0
102
RTVSPost2010PropOp52
 70
     0
102
RTVSPost2010Prop53
 90
        2
102
RTVSPost2010PropOp53
 70
     1
102
RTVSPost2010Prop54
  1
strokes_ogs.tif
102
RTVSPost2010PropOp54
 70
     1
102
RTVSPost2010Prop55
280
     0
102
RTVSPost2010PropOp55
 70
     1
102
RTVSPost2010Prop56
140
1.0
102
RTVSPost2010PropOp56
 70
     1
102
RTVSPost2010Prop57
140
1.0
102
RTVSPost2010PropOp57
 70
     1
  0
XRECORD
  5
34F
102
{ACAD_REACTORS
330
34E
102
}
330
34E
100
AcDbXrecord
280
     1
102
RTVSPost2010Prop28
280
     0
102
RTVSPost2010PropOp28
 70
     1
102
RTVSPost2010Prop29
280
     1
102
RTVSPost2010PropOp29
 70
     1
102
RTVSPost2010Prop30
280
     1
102
RTVSPost2010PropOp30
 70
     1
102
RTVSPost2010Prop31
280
     0
102
RTVSPost2010PropOp31
 70
     1
102
RTVSPost2010Prop32
280
     0
102
RTVSPost2010PropOp32
 70
     1
102
RTVSPost2010Prop33
280
     0
102
RTVSPost2010PropOp33
 70
     1
102
RTVSPost2010Prop34
280
     0
102
RTVSPost2010PropOp34
 70
     1
102
RTVSPost2010Prop35
280
     0
102
RTVSPost2010PropOp35
 70
     1
102
RTVSPost2010Prop36
280
     0
102
RTVSPost2010PropOp36
 70
     1
102
RTVSPost2010Prop37
 90
       50
102
RTVSPost2010PropOp37
 70
     1
102
RTVSPost2010Prop38
140
0.0
102
RTVSPost2010PropOp38
 70
     1
102
RTVSPost2010Prop39
140
1.0
102
RTVSPost2010PropOp39
 70
     1
102
RTVSPost2010Prop40
 90
        0
102
RTVSPost2010PropOp40
 70
     1
102
RTVSPost2010Prop41ColorIndex
 90
       18
102
RTVSPost2010Prop41ColorRGB
 90
        0
102
RTVSPost2010PropOp41
 70
     1
102
RTVSPost2010Prop42
 90
       50
102
RTVSPost2010PropOp42
 70
     1
102
RTVSPost2010Prop43
 90
        3
102
RTVSPost2010PropOp43
 70
     1
102
RTVSPost2010Prop44ColorIndex
 90
        5
102
RTVSPost2010Prop44ColorRGB
 90
      255
102
RTVSPost2010PropOp44
 70
     1
102
RTVSPost2010Prop45
280
     0
102
RTVSPost2010PropOp45
 70
     1
102
RTVSPost2010Prop46
 90
       50
102
RTVSPost2010PropOp46
 70
     1
102
RTVSPost2010Prop47
 90
       50
102
RTVSPost2010PropOp47
 70
     1
102
RTVSPost2010Prop48
 90
       50
102
RTVSPost2010PropOp48
 70
     1
102
RTVSPost2010Prop49
280
     0
102
RTVSPost2010PropOp49
 70
     1
102
RTVSPost2010Prop50
 90
       50
102
RTVSPost2010PropOp50
 70
     1
102
RTVSPost2010Prop51ColorIndex
 90
      256
102
RTVSPost2010Prop51ColorRGB
 90
-16777216
102
RTVSPost2010PropOp51
 70
     0
102
RTVSPost2010Prop52
140
1.0
102
RTVSPost2010PropOp52
 70
     0
102
RTVSPost2010Prop53
 90
        2
102
RTVSPost2010PropOp53
 70
     1
102
RTVSPost2010Prop54
  1
strokes_ogs.tif
102
RTVSPost2010PropOp54
 70
     1
102
RTVSPost2010Prop55
280
     0
102
RTVSPost2010PropOp55
 70
     1
102
RTVSPost2010Prop56
140
1.0
102
RTVSPost2010PropOp56
 70
     1
102
RTVSPost2010Prop57
140
1.0
102
RTVSPost2010PropOp57
 70
     1
  0
XRECORD
  5
349
102
{ACAD_REACTORS
330
348
102
}
330
348
100
AcDbXrecord
280
     1
102
RTVSPost2010Prop28
280
     0
102
RTVSPost2010PropOp28
 70
     1
102
RTVSPost2010Prop29
280
     1
102
RTVSPost2010PropOp29
 70
     1
102
RTVSPost2010Prop30
280
     1
102
RTVSPost2010PropOp30
 70
     1
102
RTVSPost2010Prop31
280
     0
102
RTVSPost2010PropOp31
 70
     1
102
RTVSPost2010Prop32
280
     0
102
RTVSPost2010PropOp32
 70
     1
102
RTVSPost2010Prop33
280
     0
102
RTVSPost2010PropOp33
 70
     1
102
RTVSPost2010Prop34
280
     0
102
RTVSPost2010PropOp34
 70
     1
102
RTVSPost2010Prop35
280
     0
102
RTVSPost2010PropOp35
 70
     1
102
RTVSPost2010Prop36
280
     0
102
RTVSPost2010PropOp36
 70
     1
102
RTVSPost2010Prop37
 90
       50
102
RTVSPost2010PropOp37
 70
     1
102
RTVSPost2010Prop38
140
0.0
102
RTVSPost2010PropOp38
 70
     1
102
RTVSPost2010Prop39
140
1.0
102
RTVSPost2010PropOp39
 70
     1
102
RTVSPost2010Prop40
 90
        0
102
RTVSPost2010PropOp40
 70
     1
102
RTVSPost2010Prop41ColorIndex
 90
       18
102
RTVSPost2010Prop41ColorRGB
 90
        0
102
RTVSPost2010PropOp41
 70
     1
102
RTVSPost2010Prop42
 90
       50
102
RTVSPost2010PropOp42
 70
     1
102
RTVSPost2010Prop43
 90
        3
102
RTVSPost2010PropOp43
 70
     1
102
RTVSPost2010Prop44ColorIndex
 90
        5
102
RTVSPost2010Prop44ColorRGB
 90
      255
102
RTVSPost2010PropOp44
 70
     1
102
RTVSPost2010Prop45
280
     0
102
RTVSPost2010PropOp45
 70
     1
102
RTVSPost2010Prop46
 90
       50
102
RTVSPost2010PropOp46
 70
     1
102
RTVSPost2010Prop47
 90
       50
102
RTVSPost2010PropOp47
 70
     1
102
RTVSPost2010Prop48
 90
       50
102
RTVSPost2010PropOp48
 70
     1
102
RTVSPost2010Prop49
280
     0
102
RTVSPost2010PropOp49
 70
     1
102
RTVSPost2010Prop50
 90
       50
102
RTVSPost2010PropOp50
 70
     1
102
RTVSPost2010Prop51ColorIndex
 90
      256
102
RTVSPost2010Prop51ColorRGB
 90
-16777216
102
RTVSPost2010PropOp51
 70
     0
102
RTVSPost2010Prop52
140
1.0
102
RTVSPost2010PropOp52
 70
     0
102
RTVSPost2010Prop53
 90
        2
102
RTVSPost2010PropOp53
 70
     1
102
RTVSPost2010Prop54
  1
strokes_ogs.tif
102
RTVSPost2010PropOp54
 70
     1
102
RTVSPost2010Prop55
280
     0
102
RTVSPost2010PropOp55
 70
     1
102
RTVSPost2010Prop56
140
1.0
102
RTVSPost2010PropOp56
 70
     1
102
RTVSPost2010Prop57
140
1.0
102
RTVSPost2010PropOp57
 70
     1
  0
XRECORD
  5
34B
102
{ACAD_REACTORS
330
34A
102
}
330
34A
100
AcDbXrecord
280
     1
102
RTVSPost2010Prop28
280
     0
102
RTVSPost2010PropOp28
 70
     1
102
RTVSPost2010Prop29
280
     1
102
RTVSPost2010PropOp29
 70
     1
102
RTVSPost2010Prop30
280
     1
102
RTVSPost2010PropOp30
 70
     1
102
RTVSPost2010Prop31
280
     0
102
RTVSPost2010PropOp31
 70
     1
102
RTVSPost2010Prop32
280
     0
102
RTVSPost2010PropOp32
 70
     1
102
RTVSPost2010Prop33
280
     0
102
RTVSPost2010PropOp33
 70
     1
102
RTVSPost2010Prop34
280
     0
102
RTVSPost2010PropOp34
 70
     1
102
RTVSPost2010Prop35
280
     0
102
RTVSPost2010PropOp35
 70
     1
102
RTVSPost2010Prop36
280
     0
102
RTVSPost2010PropOp36
 70
     1
102
RTVSPost2010Prop37
 90
       50
102
RTVSPost2010PropOp37
 70
     1
102
RTVSPost2010Prop38
140
0.0
102
RTVSPost2010PropOp38
 70
     1
102
RTVSPost2010Prop39
140
1.0
102
RTVSPost2010PropOp39
 70
     1
102
RTVSPost2010Prop40
 90
        0
102
RTVSPost2010PropOp40
 70
     1
102
RTVSPost2010Prop41ColorIndex
 90
       18
102
RTVSPost2010Prop41ColorRGB
 90
        0
102
RTVSPost2010PropOp41
 70
     1
102
RTVSPost2010Prop42
 90
       50
102
RTVSPost2010PropOp42
 70
     1
102
RTVSPost2010Prop43
 90
        3
102
RTVSPost2010PropOp43
 70
     1
102
RTVSPost2010Prop44ColorIndex
 90
        5
102
RTVSPost2010Prop44ColorRGB
 90
      255
102
RTVSPost2010PropOp44
 70
     1
102
RTVSPost2010Prop45
280
     0
102
RTVSPost2010PropOp45
 70
     1
102
RTVSPost2010Prop46
 90
       50
102
RTVSPost2010PropOp46
 70
     1
102
RTVSPost2010Prop47
 90
       50
102
RTVSPost2010PropOp47
 70
     1
102
RTVSPost2010Prop48
 90
       50
102
RTVSPost2010PropOp48
 70
     1
102
RTVSPost2010Prop49
280
     0
102
RTVSPost2010PropOp49
 70
     1
102
RTVSPost2010Prop50
 90
       50
102
RTVSPost2010PropOp50
 70
     1
102
RTVSPost2010Prop51ColorIndex
 90
      256
102
RTVSPost2010Prop51ColorRGB
 90
-16777216
102
RTVSPost2010PropOp51
 70
     0
102
RTVSPost2010Prop52
140
1.0
102
RTVSPost2010PropOp52
 70
     0
102
RTVSPost2010Prop53
 90
        2
102
RTVSPost2010PropOp53
 70
     1
102
RTVSPost2010Prop54
  1
strokes_ogs.tif
102
RTVSPost2010PropOp54
 70
     1
102
RTVSPost2010Prop55
280
     0
102
RTVSPost2010PropOp55
 70
     1
102
RTVSPost2010Prop56
140
1.0
102
RTVSPost2010PropOp56
 70
     1
102
RTVSPost2010Prop57
140
1.0
102
RTVSPost2010PropOp57
 70
     1
  0
XRECORD
  5
33B
102
{ACAD_REACTORS
330
33A
102
}
330
33A
100
AcDbXrecord
280
     1
102
RTVSPost2010Prop28
280
     0
102
RTVSPost2010PropOp28
 70
     1
102
RTVSPost2010Prop29
280
     1
102
RTVSPost2010PropOp29
 70
     1
102
RTVSPost2010Prop30
280
     1
102
RTVSPost2010PropOp30
 70
     1
102
RTVSPost2010Prop31
280
     0
102
RTVSPost2010PropOp31
 70
     1
102
RTVSPost2010Prop32
280
     0
102
RTVSPost2010PropOp32
 70
     1
102
RTVSPost2010Prop33
280
     0
102
RTVSPost2010PropOp33
 70
     1
102
RTVSPost2010Prop34
280
     0
102
RTVSPost2010PropOp34
 70
     1
102
RTVSPost2010Prop35
280
     0
102
RTVSPost2010PropOp35
 70
     1
102
RTVSPost2010Prop36
280
     0
102
RTVSPost2010PropOp36
 70
     1
102
RTVSPost2010Prop37
 90
       50
102
RTVSPost2010PropOp37
 70
     1
102
RTVSPost2010Prop38
140
0.0
102
RTVSPost2010PropOp38
 70
     1
102
RTVSPost2010Prop39
140
1.0
102
RTVSPost2010PropOp39
 70
     1
102
RTVSPost2010Prop40
 90
        0
102
RTVSPost2010PropOp40
 70
     1
102
RTVSPost2010Prop41ColorIndex
 90
       18
102
RTVSPost2010Prop41ColorRGB
 90
        0
102
RTVSPost2010PropOp41
 70
     1
102
RTVSPost2010Prop42
 90
       50
102
RTVSPost2010PropOp42
 70
     1
102
RTVSPost2010Prop43
 90
        3
102
RTVSPost2010PropOp43
 70
     1
102
RTVSPost2010Prop44ColorIndex
 90
        5
102
RTVSPost2010Prop44ColorRGB
 90
      255
102
RTVSPost2010PropOp44
 70
     1
102
RTVSPost2010Prop45
280
     0
102
RTVSPost2010PropOp45
 70
     1
102
RTVSPost2010Prop46
 90
       50
102
RTVSPost2010PropOp46
 70
     1
102
RTVSPost2010Prop47
 90
       50
102
RTVSPost2010PropOp47
 70
     1
102
RTVSPost2010Prop48
 90
       50
102
RTVSPost2010PropOp48
 70
     1
102
RTVSPost2010Prop49
280
     0
102
RTVSPost2010PropOp49
 70
     1
102
RTVSPost2010Prop50
 90
       50
102
RTVSPost2010PropOp50
 70
     1
102
RTVSPost2010Prop51ColorIndex
 90
      256
102
RTVSPost2010Prop51ColorRGB
 90
-16777216
102
RTVSPost2010PropOp51
 70
     0
102
RTVSPost2010Prop52
140
1.0
102
RTVSPost2010PropOp52
 70
     0
102
RTVSPost2010Prop53
 90
        2
102
RTVSPost2010PropOp53
 70
     1
102
RTVSPost2010Prop54
  1
strokes_ogs.tif
102
RTVSPost2010PropOp54
 70
     1
102
RTVSPost2010Prop55
280
     0
102
RTVSPost2010PropOp55
 70
     1
102
RTVSPost2010Prop56
140
1.0
102
RTVSPost2010PropOp56
 70
     1
102
RTVSPost2010Prop57
140
1.0
102
RTVSPost2010PropOp57
 70
     1
  0
XRECORD
  5
32D
102
{ACAD_REACTORS
330
32C
102
}
330
32C
100
AcDbXrecord
280
     1
102
RTVSPost2010Prop28
280
     0
102
RTVSPost2010PropOp28
 70
     1
102
RTVSPost2010Prop29
280
     1
102
RTVSPost2010PropOp29
 70
     1
102
RTVSPost2010Prop30
280
     1
102
RTVSPost2010PropOp30
 70
     1
102
RTVSPost2010Prop31
280
     0
102
RTVSPost2010PropOp31
 70
     1
102
RTVSPost2010Prop32
280
     0
102
RTVSPost2010PropOp32
 70
     1
102
RTVSPost2010Prop33
280
     0
102
RTVSPost2010PropOp33
 70
     1
102
RTVSPost2010Prop34
280
     0
102
RTVSPost2010PropOp34
 70
     1
102
RTVSPost2010Prop35
280
     0
102
RTVSPost2010PropOp35
 70
     1
102
RTVSPost2010Prop36
280
     0
102
RTVSPost2010PropOp36
 70
     1
102
RTVSPost2010Prop37
 90
       50
102
RTVSPost2010PropOp37
 70
     1
102
RTVSPost2010Prop38
140
0.0
102
RTVSPost2010PropOp38
 70
     1
102
RTVSPost2010Prop39
140
1.0
102
RTVSPost2010PropOp39
 70
     1
102
RTVSPost2010Prop40
 90
        0
102
RTVSPost2010PropOp40
 70
     1
102
RTVSPost2010Prop41ColorIndex
 90
       18
102
RTVSPost2010Prop41ColorRGB
 90
        0
102
RTVSPost2010PropOp41
 70
     1
102
RTVSPost2010Prop42
 90
       50
102
RTVSPost2010PropOp42
 70
     1
102
RTVSPost2010Prop43
 90
        3
102
RTVSPost2010PropOp43
 70
     1
102
RTVSPost2010Prop44ColorIndex
 90
        5
102
RTVSPost2010Prop44ColorRGB
 90
      255
102
RTVSPost2010PropOp44
 70
     1
102
RTVSPost2010Prop45
280
     0
102
RTVSPost2010PropOp45
 70
     1
102
RTVSPost2010Prop46
 90
       50
102
RTVSPost2010PropOp46
 70
     1
102
RTVSPost2010Prop47
 90
       50
102
RTVSPost2010PropOp47
 70
     1
102
RTVSPost2010Prop48
 90
       50
102
RTVSPost2010PropOp48
 70
     1
102
RTVSPost2010Prop49
280
     0
102
RTVSPost2010PropOp49
 70
     1
102
RTVSPost2010Prop50
 90
       50
102
RTVSPost2010PropOp50
 70
     1
102
RTVSPost2010Prop51ColorIndex
 90
      256
102
RTVSPost2010Prop51ColorRGB
 90
-16777216
102
RTVSPost2010PropOp51
 70
     0
102
RTVSPost2010Prop52
140
1.0
102
RTVSPost2010PropOp52
 70
     0
102
RTVSPost2010Prop53
 90
        2
102
RTVSPost2010PropOp53
 70
     1
102
RTVSPost2010Prop54
  1
strokes_ogs.tif
102
RTVSPost2010PropOp54
 70
     1
102
RTVSPost2010Prop55
280
     0
102
RTVSPost2010PropOp55
 70
     1
102
RTVSPost2010Prop56
140
1.0
102
RTVSPost2010PropOp56
 70
     1
102
RTVSPost2010Prop57
140
1.0
102
RTVSPost2010PropOp57
 70
     1
  0
XRECORD
  5
34D
102
{ACAD_REACTORS
330
34C
102
}
330
34C
100
AcDbXrecord
280
     1
102
RTVSPost2010Prop28
280
     0
102
RTVSPost2010PropOp28
 70
     1
102
RTVSPost2010Prop29
280
     1
102
RTVSPost2010PropOp29
 70
     1
102
RTVSPost2010Prop30
280
     1
102
RTVSPost2010PropOp30
 70
     1
102
RTVSPost2010Prop31
280
     0
102
RTVSPost2010PropOp31
 70
     1
102
RTVSPost2010Prop32
280
     0
102
RTVSPost2010PropOp32
 70
     1
102
RTVSPost2010Prop33
280
     0
102
RTVSPost2010PropOp33
 70
     1
102
RTVSPost2010Prop34
280
     0
102
RTVSPost2010PropOp34
 70
     1
102
RTVSPost2010Prop35
280
     0
102
RTVSPost2010PropOp35
 70
     1
102
RTVSPost2010Prop36
280
     0
102
RTVSPost2010PropOp36
 70
     1
102
RTVSPost2010Prop37
 90
       50
102
RTVSPost2010PropOp37
 70
     1
102
RTVSPost2010Prop38
140
0.0
102
RTVSPost2010PropOp38
 70
     1
102
RTVSPost2010Prop39
140
1.0
102
RTVSPost2010PropOp39
 70
     1
102
RTVSPost2010Prop40
 90
        0
102
RTVSPost2010PropOp40
 70
     1
102
RTVSPost2010Prop41ColorIndex
 90
       18
102
RTVSPost2010Prop41ColorRGB
 90
        0
102
RTVSPost2010PropOp41
 70
     1
102
RTVSPost2010Prop42
 90
       50
102
RTVSPost2010PropOp42
 70
     1
102
RTVSPost2010Prop43
 90
        3
102
RTVSPost2010PropOp43
 70
     1
102
RTVSPost2010Prop44ColorIndex
 90
        5
102
RTVSPost2010Prop44ColorRGB
 90
      255
102
RTVSPost2010PropOp44
 70
     1
102
RTVSPost2010Prop45
280
     0
102
RTVSPost2010PropOp45
 70
     1
102
RTVSPost2010Prop46
 90
       50
102
RTVSPost2010PropOp46
 70
     1
102
RTVSPost2010Prop47
 90
       50
102
RTVSPost2010PropOp47
 70
     1
102
RTVSPost2010Prop48
 90
       50
102
RTVSPost2010PropOp48
 70
     1
102
RTVSPost2010Prop49
280
     0
102
RTVSPost2010PropOp49
 70
     1
102
RTVSPost2010Prop50
 90
       50
102
RTVSPost2010PropOp50
 70
     1
102
RTVSPost2010Prop51ColorIndex
 90
      256
102
RTVSPost2010Prop51ColorRGB
 90
-16777216
102
RTVSPost2010PropOp51
 70
     0
102
RTVSPost2010Prop52
140
1.0
102
RTVSPost2010PropOp52
 70
     0
102
RTVSPost2010Prop53
 90
        2
102
RTVSPost2010PropOp53
 70
     1
102
RTVSPost2010Prop54
  1
strokes_ogs.tif
102
RTVSPost2010PropOp54
 70
     1
102
RTVSPost2010Prop55
280
     0
102
RTVSPost2010PropOp55
 70
     1
102
RTVSPost2010Prop56
140
1.0
102
RTVSPost2010PropOp56
 70
     1
102
RTVSPost2010Prop57
140
1.0
102
RTVSPost2010PropOp57
 70
     1
  0
ENDSEC
  0
EOF
