  0
SECTION
  2
HEADER
  9
$ACADVER
  1
AC1024
  9
$ACADMAINTVER
 70
     6
  9
$DWGCODEPAGE
  3
ANSI_932
  9
$INSBASE
 10
0.0
 20
0.0
 30
0.0
  9
$EXTMIN
 10
-6300.0
 20
-4455.0
 30
0.0
  9
$EXTMAX
 10
6300.0
 20
4455.0
 30
0.0
  9
$LIMMIN
 10
-6300.0
 20
-4455.0
  9
$LIMMAX
 10
6300.0
 20
4455.0
  9
$ORTHOMODE
 70
     0
  9
$REGENMODE
 70
     1
  9
$FILLMODE
 70
     1
  9
$QTEXTMODE
 70
     0
  9
$MIRRTEXT
 70
     1
  9
$LTSCALE
 40
30.0
  9
$ATTMODE
 70
     1
  9
$TEXTSIZE
 40
2.5
  9
$TRACEWID
 40
1.0
  9
$TEXTSTYLE
  7
Standard
  9
$CLAYER
  8
0
  9
$CELTYPE
  6
ByLayer
  9
$CECOLOR
 62
   256
  9
$CELTSCALE
 40
1.0
  9
$DISPSILH
 70
     0
  9
$DIMSCALE
 40
1.0
  9
$DIMASZ
 40
2.5
  9
$DIMEXO
 40
0.625
  9
$DIMDLI
 40
3.75
  9
$DIMRND
 40
0.0
  9
$DIMDLE
 40
0.0
  9
$DIMEXE
 40
1.25
  9
$DIMTP
 40
0.0
  9
$DIMTM
 40
0.0
  9
$DIMTXT
 40
2.5
  9
$DIMCEN
 40
2.5
  9
$DIMTSZ
 40
0.0
  9
$DIMTOL
 70
     0
  9
$DIMLIM
 70
     0
  9
$DIMTIH
 70
     0
  9
$DIMTOH
 70
     0
  9
$DIMSE1
 70
     0
  9
$DIMSE2
 70
     0
  9
$DIMTAD
 70
     1
  9
$DIMZIN
 70
     8
  9
$DIMBLK
  1

  9
$DIMASO
 70
     1
  9
$DIMSHO
 70
     1
  9
$DIMPOST
  1

  9
$DIMAPOST
  1

  9
$DIMALT
 70
     0
  9
$DIMALTD
 70
     3
  9
$DIMALTF
 40
0.03937007874016
  9
$DIMLFAC
 40
1.0
  9
$DIMTOFL
 70
     1
  9
$DIMTVP
 40
0.0
  9
$DIMTIX
 70
     0
  9
$DIMSOXD
 70
     0
  9
$DIMSAH
 70
     0
  9
$DIMBLK1
  1

  9
$DIMBLK2
  1

  9
$DIMSTYLE
  2
ISO-25
  9
$DIMCLRD
 70
     0
  9
$DIMCLRE
 70
     0
  9
$DIMCLRT
 70
     0
  9
$DIMTFAC
 40
1.0
  9
$DIMGAP
 40
0.625
  9
$DIMJUST
 70
     0
  9
$DIMSD1
 70
     0
  9
$DIMSD2
 70
     0
  9
$DIMTOLJ
 70
     0
  9
$DIMTZIN
 70
     8
  9
$DIMALTZ
 70
     0
  9
$DIMALTTZ
 70
     0
  9
$DIMUPT
 70
     0
  9
$DIMDEC
 70
     2
  9
$DIMTDEC
 70
     2
  9
$DIMALTU
 70
     2
  9
$DIMALTTD
 70
     3
  9
$DIMTXSTY
  7
Standard
  9
$DIMAUNIT
 70
     0
  9
$DIMADEC
 70
     0
  9
$DIMALTRND
 40
0.0
  9
$DIMAZIN
 70
     0
  9
$DIMDSEP
 70
    44
  9
$DIMATFIT
 70
     3
  9
$DIMFRAC
 70
     0
  9
$DIMLDRBLK
  1

  9
$DIMLUNIT
 70
     2
  9
$DIMLWD
 70
    -2
  9
$DIMLWE
 70
    -2
  9
$DIMTMOVE
 70
     0
  9
$DIMFXL
 40
1.0
  9
$DIMFXLON
 70
     0
  9
$DIMJOGANG
 40
0.7853981633974483
  9
$DIMTFILL
 70
     0
  9
$DIMTFILLCLR
 70
     0
  9
$DIMARCSYM
 70
     0
  9
$DIMLTYPE
  6

  9
$DIMLTEX1
  6

  9
$DIMLTEX2
  6

  9
$DIMTXTDIRECTION
 70
     0
  9
$LUNITS
 70
     2
  9
$LUPREC
 70
     4
  9
$SKETCHINC
 40
1.0
  9
$FILLETRAD
 40
10.0
  9
$AUNITS
 70
     0
  9
$AUPREC
 70
     0
  9
$MENU
  1
.
  9
$ELEVATION
 40
0.0
  9
$PELEVATION
 40
0.0
  9
$THICKNESS
 40
0.0
  9
$LIMCHECK
 70
     0
  9
$CHAMFERA
 40
0.0
  9
$CHAMFERB
 40
0.0
  9
$CHAMFERC
 40
0.0
  9
$CHAMFERD
 40
0.0
  9
$SKPOLY
 70
     0
  9
$TDCREATE
 40
2458494.396546945
  9
$TDUCREATE
 40
2458494.021546945
  9
$TDUPDATE
 40
2458494.396547303
  9
$TDUUPDATE
 40
2458494.021547303
  9
$TDINDWG
 40
0.0000000116
  9
$TDUSRTIMER
 40
0.0000000116
  9
$USRTIMER
 70
     1
  9
$ANGBASE
 50
0.0
  9
$ANGDIR
 70
     0
  9
$PDMODE
 70
     0
  9
$PDSIZE
 40
0.0
  9
$PLINEWID
 40
0.0
  9
$SPLFRAME
 70
     0
  9
$SPLINETYPE
 70
     6
  9
$SPLINESEGS
 70
     8
  9
$HANDSEED
  5
47F
  9
$SURFTAB1
 70
     6
  9
$SURFTAB2
 70
     6
  9
$SURFTYPE
 70
     6
  9
$SURFU
 70
     6
  9
$SURFV
 70
     6
  9
$UCSBASE
  2

  9
$UCSNAME
  2

  9
$UCSORG
 10
0.0
 20
0.0
 30
0.0
  9
$UCSXDIR
 10
1.0
 20
0.0
 30
0.0
  9
$UCSYDIR
 10
0.0
 20
1.0
 30
0.0
  9
$UCSORTHOREF
  2

  9
$UCSORTHOVIEW
 70
     0
  9
$UCSORGTOP
 10
0.0
 20
0.0
 30
0.0
  9
$UCSORGBOTTOM
 10
0.0
 20
0.0
 30
0.0
  9
$UCSORGLEFT
 10
0.0
 20
0.0
 30
0.0
  9
$UCSORGRIGHT
 10
0.0
 20
0.0
 30
0.0
  9
$UCSORGFRONT
 10
0.0
 20
0.0
 30
0.0
  9
$UCSORGBACK
 10
0.0
 20
0.0
 30
0.0
  9
$PUCSBASE
  2

  9
$PUCSNAME
  2

  9
$PUCSORG
 10
0.0
 20
0.0
 30
0.0
  9
$PUCSXDIR
 10
1.0
 20
0.0
 30
0.0
  9
$PUCSYDIR
 10
0.0
 20
1.0
 30
0.0
  9
$PUCSORTHOREF
  2

  9
$PUCSORTHOVIEW
 70
     0
  9
$PUCSORGTOP
 10
0.0
 20
0.0
 30
0.0
  9
$PUCSORGBOTTOM
 10
0.0
 20
0.0
 30
0.0
  9
$PUCSORGLEFT
 10
0.0
 20
0.0
 30
0.0
  9
$PUCSORGRIGHT
 10
0.0
 20
0.0
 30
0.0
  9
$PUCSORGFRONT
 10
0.0
 20
0.0
 30
0.0
  9
$PUCSORGBACK
 10
0.0
 20
0.0
 30
0.0
  9
$USERI1
 70
     0
  9
$USERI2
 70
     0
  9
$USERI3
 70
     0
  9
$USERI4
 70
     0
  9
$USERI5
 70
     0
  9
$USERR1
 40
0.0
  9
$USERR2
 40
0.0
  9
$USERR3
 40
0.0
  9
$USERR4
 40
0.0
  9
$USERR5
 40
0.0
  9
$WORLDVIEW
 70
     1
  9
$SHADEDGE
 70
     3
  9
$SHADEDIF
 70
    70
  9
$TILEMODE
 70
     1
  9
$MAXACTVP
 70
    64
  9
$PINSBASE
 10
0.0
 20
0.0
 30
0.0
  9
$PLIMCHECK
 70
     0
  9
$PEXTMIN
 10
1.000000000000000E+20
 20
1.000000000000000E+20
 30
1.000000000000000E+20
  9
$PEXTMAX
 10
-1.000000000000000E+20
 20
-1.000000000000000E+20
 30
-1.000000000000000E+20
  9
$PLIMMIN
 10
0.0
 20
0.0
  9
$PLIMMAX
 10
420.0
 20
297.0
  9
$UNITMODE
 70
     0
  9
$VISRETAIN
 70
     1
  9
$PLINEGEN
 70
     0
  9
$PSLTSCALE
 70
     1
  9
$TREEDEPTH
 70
  3020
  9
$CMLSTYLE
  2
Standard
  9
$CMLJUST
 70
     0
  9
$CMLSCALE
 40
20.0
  9
$PROXYGRAPHICS
 70
     1
  9
$MEASUREMENT
 70
     1
  9
$CELWEIGHT
370
    -1
  9
$ENDCAPS
280
     0
  9
$JOINSTYLE
280
     0
  9
$LWDISPLAY
290
     0
  9
$INSUNITS
 70
     4
  9
$HYPERLINKBASE
  1

  9
$STYLESHEET
  1

  9
$XEDIT
290
     1
  9
$CEPSNTYPE
380
     0
  9
$PSTYLEMODE
290
     1
  9
$FINGERPRINTGUID
  2
{D084D774-84E1-4DF3-BC37-A7941FC41C0A}
  9
$VERSIONGUID
  2
{FAEB1C32-E019-11D5-929B-00C0DF256EC4}
  9
$EXTNAMES
290
     1
  9
$PSVPSCALE
 40
0.0
  9
$OLESTARTUP
290
     0
  9
$SORTENTS
280
   127
  9
$INDEXCTL
280
     0
  9
$HIDETEXT
280
     1
  9
$XCLIPFRAME
280
     2
  9
$HALOGAP
280
     0
  9
$OBSCOLOR
 70
   257
  9
$OBSLTYPE
280
     0
  9
$INTERSECTIONDISPLAY
280
     0
  9
$INTERSECTIONCOLOR
 70
   257
  9
$DIMASSOC
280
     2
  9
$PROJECTNAME
  1

  9
$CAMERADISPLAY
290
     0
  9
$LENSLENGTH
 40
50.0
  9
$CAMERAHEIGHT
 40
0.0
  9
$STEPSPERSEC
 40
2.0
  9
$STEPSIZE
 40
6.0
  9
$3DDWFPREC
 40
2.0
  9
$PSOLWIDTH
 40
5.0
  9
$PSOLHEIGHT
 40
80.0
  9
$LOFTANG1
 40
1.570796326794897
  9
$LOFTANG2
 40
1.570796326794897
  9
$LOFTMAG1
 40
0.0
  9
$LOFTMAG2
 40
0.0
  9
$LOFTPARAM
 70
     7
  9
$LOFTNORMALS
280
     1
  9
$LATITUDE
 40
37.795
  9
$LONGITUDE
 40
-122.394
  9
$NORTHDIRECTION
 40
0.0
  9
$TIMEZONE
 70
 -8000
  9
$LIGHTGLYPHDISPLAY
280
     1
  9
$TILEMODELIGHTSYNCH
280
     1
  9
$CMATERIAL
347
44
  9
$SOLIDHIST
280
     0
  9
$SHOWHIST
280
     1
  9
$DWFFRAME
280
     2
  9
$DGNFRAME
280
     2
  9
$REALWORLDSCALE
290
     1
  9
$INTERFERECOLOR
 62
   256
  9
$CSHADOW
280
     0
  9
$SHADOWPLANELOCATION
 40
0.0
  0
ENDSEC
  0
SECTION
  2
CLASSES
  0
CLASS
  1
ACDBDICTIONARYWDFLT
  2
AcDbDictionaryWithDefault
  3
ObjectDBX Classes
 90
        0
 91
        4
280
     0
281
     0
  0
CLASS
  1
VISUALSTYLE
  2
AcDbVisualStyle
  3
ObjectDBX Classes
 90
     4095
 91
        4
280
     0
281
     0
  0
CLASS
  1
MATERIAL
  2
AcDbMaterial
  3
ObjectDBX Classes
 90
     1153
 91
        4
280
     0
281
     0
  0
CLASS
  1
SCALE
  2
AcDbScale
  3
ObjectDBX Classes
 90
     1153
 91
        4
280
     0
281
     0
  0
CLASS
  1
TABLESTYLE
  2
AcDbTableStyle
  3
ObjectDBX Classes
 90
     4095
 91
        4
280
     0
281
     0
  0
CLASS
  1
MLEADERSTYLE
  2
AcDbMLeaderStyle
  3
ACDB_MLEADERSTYLE_CLASS
 90
     4095
 91
        4
280
     0
281
     0
  0
CLASS
  1
SUN
  2
AcDbSun
  3
SCENEOE
 90
     1153
 91
        4
280
     0
281
     0
  0
CLASS
  1
DICTIONARYVAR
  2
AcDbDictionaryVar
  3
ObjectDBX Classes
 90
        0
 91
        4
280
     0
281
     0
  0
CLASS
  1
CELLSTYLEMAP
  2
AcDbCellStyleMap
  3
ObjectDBX Classes
 90
     1152
 91
        4
280
     0
281
     0
  0
ENDSEC
  0
SECTION
  2
TABLES
  0
TABLE
  2
VPORT
  5
8
330
0
100
AcDbSymbolTable
 70
     1
  0
VPORT
  5
29
330
8
100
AcDbSymbolTableRecord
100
AcDbViewportTableRecord
  2
*Active
 70
     0
 10
0.0
 20
0.0
 11
1.0
 21
1.0
 12
0.0
 22
0.0
 13
0.0
 23
0.0
 14
10.0
 24
10.0
 15
10.0
 25
10.0
 16
0.0
 26
0.0
 36
1.0
 17
0.0
 27
0.0
 37
0.0
 40
9801.0
 41
1.414141414141414
 42
50.0
 43
0.0
 44
0.0
 50
0.0
 51
0.0
 71
     0
 72
 10000
 73
     1
 74
     3
 75
     0
 76
     0
 77
     0
 78
     0
281
     0
 65
     1
110
0.0
120
0.0
130
0.0
111
1.0
121
0.0
131
0.0
112
0.0
122
1.0
132
0.0
 79
     0
146
0.0
348
2F
 60
     3
 61
     5
292
     1
282
     1
141
0.0
142
0.0
 63
   250
361
6D
  0
ENDTAB
  0
TABLE
  2
LTYPE
  5
5
330
0
100
AcDbSymbolTable
 70
     5
  0
LTYPE
  5
14
330
5
100
AcDbSymbolTableRecord
100
AcDbLinetypeTableRecord
  2
ByBlock
 70
     0
  3

 72
    65
 73
     0
 40
0.0
  0
LTYPE
  5
15
330
5
100
AcDbSymbolTableRecord
100
AcDbLinetypeTableRecord
  2
ByLayer
 70
     0
  3

 72
    65
 73
     0
 40
0.0
  0
LTYPE
  5
16
330
5
100
AcDbSymbolTableRecord
100
AcDbLinetypeTableRecord
  2
Continuous
 70
     0
  3
Solid line
 72
    65
 73
     0
 40
0.0
  0
LTYPE
  5
70
330
5
100
AcDbSymbolTableRecord
100
AcDbLinetypeTableRecord
  2
JWW_HOJO
 70
     0
  3
  -   -   -   -   -   -   -   - 
 72
    65
 73
     2
 40
1.693333333333333
 49
-1.27
 74
     0
 49
0.4233333333333333
 74
     0
  0
LTYPE
  5
71
330
5
100
AcDbSymbolTableRecord
100
AcDbLinetypeTableRecord
  2
JWW_CENTER1
 70
     0
  3
-----  --  ----------  --  -----
 72
    65
 73
     4
 40
6.773333333333333
 49
4.233333333333333
 74
     0
 49
-0.8466666666666667
 74
     0
 49
0.8466666666666667
 74
     0
 49
-0.8466666666666667
 74
     0
  0
LTYPE
  5
72
330
5
100
AcDbSymbolTableRecord
100
AcDbLinetypeTableRecord
  2
JWW_DASHED1
 70
     0
  3
-  --  --  --  --  --  --  --  -
 72
    65
 73
     2
 40
1.693333333333333
 49
0.8466666666666667
 74
     0
 49
-0.8466666666666667
 74
     0
  0
LTYPE
  5
73
330
5
100
AcDbSymbolTableRecord
100
AcDbLinetypeTableRecord
  2
JWW_DASHED2
 70
     0
  3
--    ----    ----    ----    --
 72
    65
 73
     2
 40
3.386666666666667
 49
1.693333333333333
 74
     0
 49
-1.693333333333333
 74
     0
  0
ENDTAB
  0
TABLE
  2
LAYER
  5
2
330
0
100
AcDbSymbolTable
 70
    15
  0
LAYER
  5
10
330
2
100
AcDbSymbolTableRecord
100
AcDbLayerTableRecord
  2
0
 70
     0
 62
     7
  6
Continuous
370
    -3
390
F
347
46
  0
LAYER
  5
74
330
2
100
AcDbSymbolTableRecord
100
AcDbLayerTableRecord
  2
F-0_補助線
 70
     0
 62
     7
  6
Continuous
370
    -3
390
F
347
46
  0
LAYER
  5
75
330
2
100
AcDbSymbolTableRecord
100
AcDbLayerTableRecord
  2
F-1_通り芯
 70
     0
 62
     7
  6
Continuous
370
    -3
390
F
347
46
  0
LAYER
  5
76
330
2
100
AcDbSymbolTableRecord
100
AcDbLayerTableRecord
  2
F-A_文字
 70
     0
 62
     7
  6
Continuous
370
    -3
390
F
347
46
  0
LAYER
  5
77
330
2
100
AcDbSymbolTableRecord
100
AcDbLayerTableRecord
  2
0-A_文字
 70
     0
 62
     7
  6
Continuous
370
    -3
390
F
347
46
  0
LAYER
  5
78
330
2
100
AcDbSymbolTableRecord
100
AcDbLayerTableRecord
  2
0-3_仕上
 70
     0
 62
     7
  6
Continuous
370
    -3
390
F
347
46
  0
LAYER
  5
79
330
2
100
AcDbSymbolTableRecord
100
AcDbLayerTableRecord
  2
0-1_通り芯
 70
     0
 62
     7
  6
Continuous
370
    -3
390
F
347
46
  0
LAYER
  5
7A
330
2
100
AcDbSymbolTableRecord
100
AcDbLayerTableRecord
  2
0-0_補助線
 70
     0
 62
     7
  6
Continuous
370
    -3
390
F
347
46
  0
LAYER
  5
7B
330
2
100
AcDbSymbolTableRecord
100
AcDbLayerTableRecord
  2
0-4_枠
 70
     0
 62
     7
  6
Continuous
370
    -3
390
F
347
46
  0
LAYER
  5
7C
330
2
100
AcDbSymbolTableRecord
100
AcDbLayerTableRecord
  2
0-B_寸法
 70
     0
 62
     7
  6
Continuous
370
    -3
390
F
347
46
  0
LAYER
  5
7D
330
2
100
AcDbSymbolTableRecord
100
AcDbLayerTableRecord
  2
0-C_ﾊｯﾁ
 70
     0
 62
     7
  6
Continuous
370
    -3
390
F
347
46
  0
LAYER
  5
7E
330
2
100
AcDbSymbolTableRecord
100
AcDbLayerTableRecord
  2
0-6_扉
 70
     0
 62
     7
  6
Continuous
370
    -3
390
F
347
46
  0
LAYER
  5
7F
330
2
100
AcDbSymbolTableRecord
100
AcDbLayerTableRecord
  2
1-B_寸法
 70
     0
 62
     7
  6
Continuous
370
    -3
390
F
347
46
  0
LAYER
  5
80
330
2
100
AcDbSymbolTableRecord
100
AcDbLayerTableRecord
  2
1-4_枠
 70
     0
 62
     7
  6
Continuous
370
    -3
390
F
347
46
  0
LAYER
  5
81
330
2
100
AcDbSymbolTableRecord
100
AcDbLayerTableRecord
  2
0-8_戸当
 70
     0
 62
     7
  6
Continuous
370
    -3
390
F
347
46
  0
ENDTAB
  0
TABLE
  2
STYLE
  5
3
330
0
100
AcDbSymbolTable
 70
     3
  0
STYLE
  5
11
330
3
100
AcDbSymbolTableRecord
100
AcDbTextStyleTableRecord
  2
Standard
 70
     0
 40
0.0
 41
1.0
 50
0.0
 71
     0
 42
2.5
  3
txt
  4

  0
STYLE
  5
6E
330
3
100
AcDbSymbolTableRecord
100
AcDbTextStyleTableRecord
  2
HGP明朝B
 70
     0
 40
1.0
 41
1.0
 50
0.0
 71
     0
 42
2.5
  3

  4

1001
ACAD
1000
HGPMinchoB
1071
    32786
  0
STYLE
  5
6F
330
3
100
AcDbSymbolTableRecord
100
AcDbTextStyleTableRecord
  2
ＭＳ ゴシック
 70
     0
 40
1.0
 41
1.0
 50
0.0
 71
     0
 42
2.5
  3

  4

1001
ACAD
1000
MS Gothic
1071
    32817
  0
ENDTAB
  0
TABLE
  2
VIEW
  5
6
330
0
100
AcDbSymbolTable
 70
     0
  0
ENDTAB
  0
TABLE
  2
UCS
  5
7
330
0
100
AcDbSymbolTable
 70
     0
  0
ENDTAB
  0
TABLE
  2
APPID
  5
9
330
0
100
AcDbSymbolTable
 70
     1
  0
APPID
  5
12
330
9
100
AcDbSymbolTableRecord
100
AcDbRegAppTableRecord
  2
ACAD
 70
     0
  0
ENDTAB
  0
TABLE
  2
DIMSTYLE
  5
A
330
0
100
AcDbSymbolTable
 70
     1
100
AcDbDimStyleTable
  0
DIMSTYLE
105
27
330
A
100
AcDbSymbolTableRecord
100
AcDbDimStyleTableRecord
  2
ISO-25
 70
     0
 41
2.5
 42
0.625
 43
3.75
 44
1.25
 73
     0
 74
     0
 77
     1
 78
     8
140
2.5
141
2.5
143
0.03937007874016
147
0.625
171
     3
172
     1
178
     0
271
     2
272
     2
274
     3
278
    44
283
     0
284
     8
340
11
  0
ENDTAB
  0
TABLE
  2
BLOCK_RECORD
  5
1
330
0
100
AcDbSymbolTable
 70
     3
  0
BLOCK_RECORD
  5
1F
330
1
100
AcDbSymbolTableRecord
100
AcDbBlockTableRecord
  2
*Model_Space
340
22
 70
     0
280
     1
281
     0
  0
BLOCK_RECORD
  5
1B
330
1
100
AcDbSymbolTableRecord
100
AcDbBlockTableRecord
  2
*Paper_Space
340
1E
 70
     0
280
     1
281
     0
  0
BLOCK_RECORD
  5
23
330
1
100
AcDbSymbolTableRecord
100
AcDbBlockTableRecord
  2
*Paper_Space0
340
26
 70
     0
280
     1
281
     0
  0
BLOCK_RECORD
  5
82
330
1
100
AcDbSymbolTableRecord
100
AcDbBlockTableRecord
  2
2@@SfigorgFlag@@4_0-0_
340
0
102
{BLKREFS
331
198
102
}
 70
     0
280
     1
281
     0
  0
BLOCK_RECORD
  5
85
330
1
100
AcDbSymbolTableRecord
100
AcDbBlockTableRecord
  2
01@@SfigorgFlag@@4_0-0_
340
0
102
{BLKREFS
331
325
331
3AB
102
}
 70
     0
280
     1
281
     0
  0
ENDTAB
  0
ENDSEC
  0
SECTION
  2
BLOCKS
  0
BLOCK
  5
20
330
1F
100
AcDbEntity
  8
0
100
AcDbBlockBegin
  2
*Model_Space
 70
     0
 10
0.0
 20
0.0
 30
0.0
  3
*Model_Space
  1

  0
ENDBLK
  5
21
330
1F
100
AcDbEntity
  8
0
100
AcDbBlockEnd
  0
BLOCK
  5
1C
330
1B
100
AcDbEntity
 67
     1
  8
0
100
AcDbBlockBegin
  2
*Paper_Space
 70
     0
 10
0.0
 20
0.0
 30
0.0
  3
*Paper_Space
  1

  0
ENDBLK
  5
1D
330
1B
100
AcDbEntity
 67
     1
  8
0
100
AcDbBlockEnd
  0
BLOCK
  5
24
330
23
100
AcDbEntity
  8
0
100
AcDbBlockBegin
  2
*Paper_Space0
 70
     0
 10
0.0
 20
0.0
 30
0.0
  3
*Paper_Space0
  1

  0
ENDBLK
  5
25
330
23
100
AcDbEntity
  8
0
100
AcDbBlockEnd
  0
BLOCK
  5
83
330
82
100
AcDbEntity
  8
0
100
AcDbBlockBegin
  2
2@@SfigorgFlag@@4_0-0_
 70
     0
 10
0.0
 20
0.0
 30
0.0
  3
2@@SfigorgFlag@@4_0-0_
  1

  0
ARC
  5
3BE
330
82
100
AcDbEntity
  8
0-0_補助線
  6
Continuous
 62
     7
370
     9
100
AcDbCircle
 10
-1.629130730832998
 20
-1.784377180280984
 30
0.0
 40
0.06
100
AcDbArc
 50
180.0
 51
270.0
  0
LINE
  5
3BF
330
82
100
AcDbEntity
  8
0-0_補助線
  6
Continuous
 62
     7
370
     9
100
AcDbLine
 10
-0.3091307308329974
 20
-1.844377180280972
 30
0.0
 11
-1.629130730832998
 21
-1.844377180280972
 31
0.0
  0
ARC
  5
3C0
330
82
100
AcDbEntity
  8
0-0_補助線
  6
Continuous
 62
     7
370
     9
100
AcDbCircle
 10
-0.3091307308329974
 20
-1.784377180280984
 30
0.0
 40
0.06
100
AcDbArc
 50
270.0
 51
0.0
  0
ARC
  5
3C1
330
82
100
AcDbEntity
  8
0-0_補助線
  6
Continuous
 62
     7
370
     9
100
AcDbCircle
 10
-1.769130730832991
 20
3.015622819719027
 30
0.0
 40
0.2
100
AcDbArc
 50
90.0
 51
180.0
  0
ARC
  5
3C2
330
82
100
AcDbEntity
  8
0-0_補助線
  6
Continuous
 62
     7
370
     9
100
AcDbCircle
 10
-0.3091307308329974
 20
2.875622819719027
 30
0.0
 40
0.06
100
AcDbArc
 50
0.0
 51
90.0
  0
LINE
  5
3C3
330
82
100
AcDbEntity
  8
0-0_補助線
  6
Continuous
 62
     7
370
     9
100
AcDbLine
 10
-1.629130730832998
 20
2.935622819719029
 30
0.0
 11
-0.3091307308329974
 21
2.935622819719029
 31
0.0
  0
ARC
  5
3C4
330
82
100
AcDbEntity
  8
0-0_補助線
  6
Continuous
 62
     7
370
     9
100
AcDbCircle
 10
-1.629130730832998
 20
2.875622819719027
 30
0.0
 40
0.06
100
AcDbArc
 50
90.0
 51
180.0
  0
ARC
  5
3C5
330
82
100
AcDbEntity
  8
0-0_補助線
  6
Continuous
 62
     7
370
     9
100
AcDbCircle
 10
-1.769130730832991
 20
3.015622819719027
 30
0.0
 40
0.16
100
AcDbArc
 50
90.0
 51
180.0
  0
LINE
  5
3C6
330
82
100
AcDbEntity
  8
0-0_補助線
  6
Continuous
 62
     7
370
     9
100
AcDbLine
 10
-1.969130730832994
 20
-1.924377180280985
 30
0.0
 11
-1.969130730832994
 21
3.015622819719027
 31
0.0
  0
ARC
  5
3C7
330
82
100
AcDbEntity
  8
0-0_補助線
  6
Continuous
 62
     7
370
     9
100
AcDbCircle
 10
-1.769130730832991
 20
-1.924377180280985
 30
0.0
 40
0.2
100
AcDbArc
 50
180.0
 51
270.0
  0
ARC
  5
3C8
330
82
100
AcDbEntity
  8
0-0_補助線
  6
Continuous
 62
     7
370
     9
100
AcDbCircle
 10
-0.5692916963789258
 20
-2.144031477529182
 30
0.0
 40
1.2
100
AcDbArc
 50
179.0615344703278
 51
259.2981547751684
  0
LWPOLYLINE
  5
3C9
330
82
100
AcDbEntity
  8
0-0_補助線
  6
Continuous
 62
     7
370
     9
100
AcDbPolyline
 90
        4
 70
     1
 43
0.2
 10
-0.6791307308329962
 20
-3.324377180280976
 42
0.4142135623731
 10
-0.7791307308329962
 20
-3.224377180280976
 42
0.4142135623731
 10
-0.8791307308329962
 20
-3.324377180280976
 42
0.4142135623731
 10
-0.7791307308329962
 20
-3.424377180280976
 42
0.4142135623731
  0
ARC
  5
3CA
330
82
100
AcDbEntity
  8
0-0_補助線
  6
Continuous
 62
     7
370
     9
100
AcDbCircle
 10
-0.7791307308329962
 20
-3.254377180280983
 30
0.0
 40
0.07
100
AcDbArc
 50
259.2981547751684
 51
79.29815477516837
  0
ARC
  5
3CB
330
82
100
AcDbEntity
  8
0-0_補助線
  6
Continuous
 62
     7
370
     9
100
AcDbCircle
 10
-0.5692916963789258
 20
-2.144031477529182
 30
0.0
 40
1.06
100
AcDbArc
 50
178.9375728139377
 51
259.2981547751684
  0
LINE
  5
3CC
330
82
100
AcDbEntity
  8
0-0_補助線
  6
Continuous
 62
     7
370
     9
100
AcDbLine
 10
-1.929130730832995
 20
3.015622819719027
 30
0.0
 11
-1.929130730832995
 21
-1.924377180280985
 31
0.0
  0
LINE
  5
3CD
330
82
100
AcDbEntity
  8
0-0_補助線
  6
Continuous
 62
     7
370
     9
100
AcDbLine
 10
-1.929130730832995
 20
-1.924377180280985
 30
0.0
 11
-1.969130730832994
 21
-1.924377180280985
 31
0.0
  0
LINE
  5
3CE
330
82
100
AcDbEntity
  8
0-0_補助線
  6
Continuous
 62
     7
370
     9
100
AcDbLine
 10
-1.689130730832993
 20
2.875622819719027
 30
0.0
 11
-1.689130730832993
 21
-1.784377180280984
 31
0.0
  0
LINE
  5
3CF
330
82
100
AcDbEntity
  8
0-0_補助線
  6
Continuous
 62
     7
370
     9
100
AcDbLine
 10
0.0708692691670052
 20
-2.584377180280981
 30
0.0
 11
-0.0881142420878476
 21
-2.584377180280981
 31
0.0
  0
ARC
  5
3D0
330
82
100
AcDbEntity
  8
0-0_補助線
  6
Continuous
 62
     7
370
     9
100
AcDbCircle
 10
-0.0881142420878476
 20
-2.524377180280979
 30
0.0
 40
0.06
100
AcDbArc
 50
193.9281985493309
 51
270.0
  0
ARC
  5
3D1
330
82
100
AcDbEntity
  8
0-0_補助線
  6
Continuous
 62
     7
370
     9
100
AcDbCircle
 10
0.0708692691670052
 20
-2.524377180280979
 30
0.0
 40
0.06
100
AcDbArc
 50
270.0
 51
14.29438185742981
  0
LINE
  5
3D2
330
82
100
AcDbEntity
  8
0-0_補助線
  6
Continuous
 62
     7
370
     9
100
AcDbLine
 10
0.0308692691670061
 20
-2.124377180280973
 30
0.0
 11
0.1290116659424712
 21
-2.509562940604084
 31
0.0
  0
LINE
  5
3D3
330
82
100
AcDbEntity
  8
0-0_補助線
  6
Continuous
 62
     7
370
     9
100
AcDbLine
 10
-0.2378325535497154
 20
-2.169934834753576
 30
0.0
 11
-0.1463501301266419
 21
-2.538819525808378
 31
0.0
  0
LINE
  5
3D4
330
82
100
AcDbEntity
  8
0-0_補助線
  6
Continuous
 62
     7
370
     9
100
AcDbLine
 10
-0.2960684415885098
 20
-2.124377180280973
 30
0.0
 11
-1.769130730832991
 21
-2.124377180280973
 31
0.0
  0
ARC
  5
3D5
330
82
100
AcDbEntity
  8
0-0_補助線
  6
Continuous
 62
     7
370
     9
100
AcDbCircle
 10
-0.2960684415885098
 20
-2.184377180280975
 30
0.0
 40
0.06
100
AcDbArc
 50
13.92819854933141
 51
90.00000000000001
  0
LINE
  5
3D6
330
82
100
AcDbEntity
  8
0-0_補助線
  6
Continuous
 62
     7
370
     9
100
AcDbLine
 10
-0.2491307308329951
 20
2.875622819719027
 30
0.0
 11
-0.2491307308329951
 21
-1.784377180280984
 31
0.0
  0
LINE
  5
3D7
330
82
100
AcDbEntity
  8
0-0_補助線
  6
Continuous
 62
     7
370
     9
100
AcDbLine
 10
0.4308692691670046
 20
-1.559377180280975
 30
0.0
 11
0.4308692691670046
 21
-1.699377180280976
 31
0.0
  0
LINE
  5
3D8
330
82
100
AcDbEntity
  8
0-0_補助線
  6
Continuous
 62
     7
370
     9
100
AcDbLine
 10
0.8308692691670032
 20
-2.119377180280978
 30
0.0
 11
0.8308692691670032
 21
-1.979377180280977
 31
0.0
  0
LINE
  5
3D9
330
82
100
AcDbEntity
  8
0-0_補助線
  6
Continuous
 62
     7
370
     9
100
AcDbLine
 10
0.6308692691670075
 20
-1.699377180280976
 30
0.0
 11
0.5024027720209432
 21
-1.534767462733626
 31
0.0
  0
LINE
  5
3DA
330
82
100
AcDbEntity
  8
0-0_補助線
  6
Continuous
 62
     7
370
     9
100
AcDbLine
 10
1.030869269167006
 20
-1.979377180280977
 30
0.0
 11
0.9024027720209418
 21
-2.143986897828341
 31
0.0
  0
LINE
  5
3DB
330
82
100
AcDbEntity
  8
0-0_補助線
  6
Continuous
 62
     7
370
     9
100
AcDbLine
 10
1.230869269167009
 20
-1.559377180280975
 30
0.0
 11
1.230869269167009
 21
-1.699377180280976
 31
0.0
  0
ARC
  5
3DC
330
82
100
AcDbEntity
  8
0-0_補助線
  6
Continuous
 62
     7
370
     9
100
AcDbCircle
 10
0.8708692691670095
 20
-2.119377180280978
 30
0.0
 40
0.04
100
AcDbArc
 50
180.0
 51
322.0304252330487
  0
ARC
  5
3DD
330
82
100
AcDbEntity
  8
0-0_補助線
  6
Continuous
 62
     7
370
     9
100
AcDbCircle
 10
0.4708692691670038
 20
-1.559377180280975
 30
0.0
 40
0.04
100
AcDbArc
 50
37.96957476694966
 51
180.0
  0
LINE
  5
3DE
330
82
100
AcDbEntity
  8
0-0_補助線
  6
Continuous
 62
     7
370
     9
100
AcDbLine
 10
1.511545229617482
 20
-1.820289200070164
 30
0.0
 11
1.303139653347195
 21
-1.535741988196648
 31
0.0
  0
ARC
  5
3DF
330
82
100
AcDbEntity
  8
0-0_補助線
  6
Continuous
 62
     7
370
     9
100
AcDbCircle
 10
1.270869269167008
 20
-1.559377180280975
 30
0.0
 40
0.04
100
AcDbArc
 50
36.21946651197781
 51
180.0
  0
ARC
  5
3E0
330
82
100
AcDbEntity
  8
0-0_補助線
  6
Continuous
 62
     7
370
     9
100
AcDbCircle
 10
1.430869269167005
 20
-1.879377180280983
 30
0.0
 40
0.1
100
AcDbArc
 50
270.0
 51
36.21946651947422
  0
LINE
  5
3E1
330
82
100
AcDbEntity
  8
0-0_補助線
  6
Continuous
 62
     7
370
     9
100
AcDbLine
 10
0.4308692691670046
 20
2.190622819719025
 30
0.0
 11
0.4308692691670046
 21
2.330622819719025
 31
0.0
  0
LINE
  5
3E2
330
82
100
AcDbEntity
  8
0-0_補助線
  6
Continuous
 62
     7
370
     9
100
AcDbLine
 10
0.8308692691670032
 20
2.750622819719027
 30
0.0
 11
0.8308692691670032
 21
2.610622819719026
 31
0.0
  0
LINE
  5
3E3
330
82
100
AcDbEntity
  8
0-0_補助線
  6
Continuous
 62
     7
370
     9
100
AcDbLine
 10
0.6308692691670075
 20
2.330622819719025
 30
0.0
 11
0.5024027720209432
 21
2.166013102171661
 31
0.0
  0
LINE
  5
3E4
330
82
100
AcDbEntity
  8
0-0_補助線
  6
Continuous
 62
     7
370
     9
100
AcDbLine
 10
1.030869269167006
 20
2.610622819719026
 30
0.0
 11
0.9024027720209418
 21
2.775232537266376
 31
0.0
  0
LINE
  5
3E5
330
82
100
AcDbEntity
  8
0-0_補助線
  6
Continuous
 62
     7
370
     9
100
AcDbLine
 10
1.230869269167009
 20
2.190622819719025
 30
0.0
 11
1.230869269167009
 21
2.330622819719025
 31
0.0
  0
ARC
  5
3E6
330
82
100
AcDbEntity
  8
0-0_補助線
  6
Continuous
 62
     7
370
     9
100
AcDbCircle
 10
0.8708692691670095
 20
2.750622819719027
 30
0.0
 40
0.04
100
AcDbArc
 50
37.96957476695127
 51
180.0
  0
ARC
  5
3E7
330
82
100
AcDbEntity
  8
0-0_補助線
  6
Continuous
 62
     7
370
     9
100
AcDbCircle
 10
0.4708692691670038
 20
2.190622819719025
 30
0.0
 40
0.04
100
AcDbArc
 50
180.0
 51
322.0304252330503
  0
LINE
  5
3E8
330
82
100
AcDbEntity
  8
0-0_補助線
  6
Continuous
 62
     7
370
     9
100
AcDbLine
 10
1.511545229617482
 20
2.451534839508213
 30
0.0
 11
1.303139653347195
 21
2.166987627634697
 31
0.0
  0
ARC
  5
3E9
330
82
100
AcDbEntity
  8
0-0_補助線
  6
Continuous
 62
     7
370
     9
100
AcDbCircle
 10
1.270869269167008
 20
2.190622819719025
 30
0.0
 40
0.04
100
AcDbArc
 50
180.0
 51
323.7805334880222
  0
ARC
  5
3EA
330
82
100
AcDbEntity
  8
0-0_補助線
  6
Continuous
 62
     7
370
     9
100
AcDbCircle
 10
1.430869269167005
 20
2.510622819719018
 30
0.0
 40
0.1
100
AcDbArc
 50
323.7805334805258
 51
90.0
  0
LINE
  5
3EB
330
82
100
AcDbEntity
  8
0-0_補助線
  6
Continuous
 62
     7
370
     9
100
AcDbLine
 10
-1.769130730832991
 20
3.175622819719024
 30
0.0
 11
0.1274378116619275
 21
3.175622819719024
 31
0.0
  0
LINE
  5
3EC
330
82
100
AcDbEntity
  8
0-0_補助線
  6
Continuous
 62
     7
370
     9
100
AcDbLine
 10
-1.769130730832991
 20
3.21562281971903
 30
0.0
 11
0.0708692691670052
 21
3.21562281971903
 31
0.0
  0
LINE
  5
3ED
330
82
100
AcDbEntity
  8
0-0_補助線
  6
Continuous
 62
     7
370
     9
100
AcDbLine
 10
1.430869269167005
 20
-1.979377180280977
 30
0.0
 11
1.030869269167006
 21
-1.979377180280977
 31
0.0
  0
LINE
  5
3EE
330
82
100
AcDbEntity
  8
0-0_補助線
  6
Continuous
 62
     7
370
     9
100
AcDbLine
 10
0.8308692691670032
 20
-1.979377180280977
 30
0.0
 11
0.0308692691670061
 21
-1.979377180280977
 31
0.0
  0
LINE
  5
3EF
330
82
100
AcDbEntity
  8
0-0_補助線
  6
Continuous
 62
     7
370
     9
100
AcDbLine
 10
0.0308692691670061
 20
-1.699377180280976
 30
0.0
 11
0.4308692691670046
 21
-1.699377180280976
 31
0.0
  0
LINE
  5
3F0
330
82
100
AcDbEntity
  8
0-0_補助線
  6
Continuous
 62
     7
370
     9
100
AcDbLine
 10
0.6308692691670075
 20
-1.699377180280976
 30
0.0
 11
1.230869269167009
 21
-1.699377180280976
 31
0.0
  0
LINE
  5
3F1
330
82
100
AcDbEntity
  8
0-0_補助線
  6
Continuous
 62
     7
370
     9
100
AcDbLine
 10
0.0308692691670061
 20
2.330622819719025
 30
0.0
 11
0.4308692691670046
 21
2.330622819719025
 31
0.0
  0
LINE
  5
3F2
330
82
100
AcDbEntity
  8
0-0_補助線
  6
Continuous
 62
     7
370
     9
100
AcDbLine
 10
0.6308692691670075
 20
2.330622819719025
 30
0.0
 11
1.230869269167009
 21
2.330622819719025
 31
0.0
  0
LINE
  5
3F3
330
82
100
AcDbEntity
  8
0-0_補助線
  6
Continuous
 62
     7
370
     9
100
AcDbLine
 10
1.430869269167005
 20
2.610622819719026
 30
0.0
 11
1.030869269167006
 21
2.610622819719026
 31
0.0
  0
LINE
  5
3F4
330
82
100
AcDbEntity
  8
0-0_補助線
  6
Continuous
 62
     7
370
     9
100
AcDbLine
 10
0.8308692691670032
 20
2.610622819719026
 30
0.0
 11
0.0308692691670061
 21
2.610622819719026
 31
0.0
  0
LINE
  5
3F5
330
82
100
AcDbEntity
  8
0-0_補助線
  6
Continuous
 62
     7
370
     9
100
AcDbLine
 10
0.0308692691670061
 20
2.610622819719026
 30
0.0
 11
0.1298643253643306
 21
3.144687402750549
 31
0.0
  0
ARC
  5
3F6
330
82
100
AcDbEntity
  8
0-0_補助線
  6
Continuous
 62
     7
370
     9
100
AcDbCircle
 10
0.0708692691670052
 20
3.155622819719028
 30
0.0
 40
0.06
100
AcDbArc
 50
349.4987515888594
 51
90.0
  0
LINE
  5
3F7
330
82
100
AcDbEntity
  8
0-0_補助線
  6
Continuous
 62
     7
370
     9
100
AcDbLine
 10
0.0308692691670061
 20
2.330622819719025
 30
0.0
 11
0.0308692691670061
 21
-1.699377180280976
 31
0.0
  0
LINE
  5
3F8
330
82
100
AcDbEntity
  8
0-0_補助線
  6
Continuous
 62
     7
370
     9
100
AcDbLine
 10
0.0308692691670061
 20
-1.979377180280977
 30
0.0
 11
0.0308692691670061
 21
-2.124377180280973
 31
0.0
  0
ENDBLK
  5
84
330
82
100
AcDbEntity
  8
0
100
AcDbBlockEnd
  0
BLOCK
  5
86
330
85
100
AcDbEntity
  8
0
100
AcDbBlockBegin
  2
01@@SfigorgFlag@@4_0-0_
 70
     0
 10
0.0
 20
0.0
 30
0.0
  3
01@@SfigorgFlag@@4_0-0_
  1

  0
LINE
  5
3F9
330
85
100
AcDbEntity
  8
0-0_補助線
  6
Continuous
 62
     7
370
     9
100
AcDbLine
 10
2.295000000000044
 20
0.0292483078921251
 30
0.0
 11
2.400000000000063
 21
0.0292483078921251
 31
0.0
  0
LINE
  5
3FA
330
85
100
AcDbEntity
  8
0-0_補助線
  6
Continuous
 62
     7
370
     9
100
AcDbLine
 10
1.875000000000057
 20
0.4292483078921272
 30
0.0
 11
2.015000000000072
 21
0.4292483078921272
 31
0.0
  0
LINE
  5
3FB
330
85
100
AcDbEntity
  8
0-0_補助線
  6
Continuous
 62
     7
370
     9
100
AcDbLine
 10
2.435000000000059
 20
0.8292483078921258
 30
0.0
 11
2.295000000000044
 21
0.8292483078921258
 31
0.0
  0
LINE
  5
3FC
330
85
100
AcDbEntity
  8
0-0_補助線
  6
Continuous
 62
     7
370
     9
100
AcDbLine
 10
2.015000000000072
 20
0.6292483078921265
 30
0.0
 11
1.850390282452707
 21
0.5007818107460622
 31
0.0
  0
LINE
  5
3FD
330
85
100
AcDbEntity
  8
0-0_補助線
  6
Continuous
 62
     7
370
     9
100
AcDbLine
 10
2.295000000000044
 20
1.029248307892125
 30
0.0
 11
2.459609717547409
 21
0.9007818107460608
 31
0.0
  0
LINE
  5
3FE
330
85
100
AcDbEntity
  8
0-0_補助線
  6
Continuous
 62
     7
370
     9
100
AcDbLine
 10
1.875000000000057
 20
1.229248307892128
 30
0.0
 11
2.015000000000072
 21
1.229248307892128
 31
0.0
  0
ARC
  5
3FF
330
85
100
AcDbEntity
  8
0-0_補助線
  6
Continuous
 62
     7
370
     9
100
AcDbCircle
 10
2.435000000000059
 20
0.8692483078921249
 30
0.0
 40
0.04
100
AcDbArc
 50
270.0
 51
52.0304252330488
  0
ARC
  5
400
330
85
100
AcDbEntity
  8
0-0_補助線
  6
Continuous
 62
     7
370
     9
100
AcDbCircle
 10
1.875000000000057
 20
0.4692483078921228
 30
0.0
 40
0.04
100
AcDbArc
 50
127.9695747669497
 51
270.0
  0
LINE
  5
401
330
85
100
AcDbEntity
  8
0-0_補助線
  6
Continuous
 62
     7
370
     9
100
AcDbLine
 10
2.135912019789231
 20
1.509924268342598
 30
0.0
 11
1.851364807915729
 21
1.301518692072314
 31
0.0
  0
ARC
  5
402
330
85
100
AcDbEntity
  8
0-0_補助線
  6
Continuous
 62
     7
370
     9
100
AcDbCircle
 10
1.875000000000057
 20
1.269248307892124
 30
0.0
 40
0.04
100
AcDbArc
 50
126.2194665119778
 51
270.0
  0
ARC
  5
403
330
85
100
AcDbEntity
  8
0-0_補助線
  6
Continuous
 62
     7
370
     9
100
AcDbCircle
 10
2.19500000000005
 20
1.429248307892124
 30
0.0
 40
0.1
100
AcDbArc
 50
0.0
 51
126.2194665194743
  0
LINE
  5
404
330
85
100
AcDbEntity
  8
0-0_補助線
  6
Continuous
 62
     7
370
     9
100
AcDbLine
 10
-1.874999999999943
 20
0.4292483078921272
 30
0.0
 11
-2.01499999999993
 21
0.4292483078921272
 31
0.0
  0
LINE
  5
405
330
85
100
AcDbEntity
  8
0-0_補助線
  6
Continuous
 62
     7
370
     9
100
AcDbLine
 10
-2.434999999999945
 20
0.8292483078921258
 30
0.0
 11
-2.294999999999931
 21
0.8292483078921258
 31
0.0
  0
LINE
  5
406
330
85
100
AcDbEntity
  8
0-0_補助線
  6
Continuous
 62
     7
370
     9
100
AcDbLine
 10
-2.01499999999993
 20
0.6292483078921265
 30
0.0
 11
-1.850390282452594
 21
0.5007818107460622
 31
0.0
  0
LINE
  5
407
330
85
100
AcDbEntity
  8
0-0_補助線
  6
Continuous
 62
     7
370
     9
100
AcDbLine
 10
-2.294999999999931
 20
1.029248307892125
 30
0.0
 11
-2.459609717547295
 21
0.9007818107460643
 31
0.0
  0
LINE
  5
408
330
85
100
AcDbEntity
  8
0-0_補助線
  6
Continuous
 62
     7
370
     9
100
AcDbLine
 10
-1.874999999999943
 20
1.229248307892128
 30
0.0
 11
-2.01499999999993
 21
1.229248307892128
 31
0.0
  0
ARC
  5
409
330
85
100
AcDbEntity
  8
0-0_補助線
  6
Continuous
 62
     7
370
     9
100
AcDbCircle
 10
-2.434999999999945
 20
0.8692483078921249
 30
0.0
 40
0.04
100
AcDbArc
 50
127.9695747669513
 51
270.0
  0
ARC
  5
40A
330
85
100
AcDbEntity
  8
0-0_補助線
  6
Continuous
 62
     7
370
     9
100
AcDbCircle
 10
-1.874999999999943
 20
0.4692483078921263
 30
0.0
 40
0.04
100
AcDbArc
 50
270.0
 51
52.03042523305033
  0
LINE
  5
40B
330
85
100
AcDbEntity
  8
0-0_補助線
  6
Continuous
 62
     7
370
     9
100
AcDbLine
 10
-2.135912019789117
 20
1.509924268342598
 30
0.0
 11
-1.851364807915616
 21
1.301518692072317
 31
0.0
  0
ARC
  5
40C
330
85
100
AcDbEntity
  8
0-0_補助線
  6
Continuous
 62
     7
370
     9
100
AcDbCircle
 10
-1.874999999999943
 20
1.269248307892124
 30
0.0
 40
0.04
100
AcDbArc
 50
270.0
 51
53.78053348802219
  0
ARC
  5
40D
330
85
100
AcDbEntity
  8
0-0_補助線
  6
Continuous
 62
     7
370
     9
100
AcDbCircle
 10
-2.194999999999936
 20
1.429248307892124
 30
0.0
 40
0.1
100
AcDbArc
 50
53.78053348052574
 51
180.0
  0
LINE
  5
40E
330
85
100
AcDbEntity
  8
0-0_補助線
  6
Continuous
 62
     7
370
     9
100
AcDbLine
 10
2.295000000000044
 20
1.429248307892124
 30
0.0
 11
2.295000000000044
 21
1.029248307892125
 31
0.0
  0
LINE
  5
40F
330
85
100
AcDbEntity
  8
0-0_補助線
  6
Continuous
 62
     7
370
     9
100
AcDbLine
 10
2.295000000000044
 20
0.8292483078921258
 30
0.0
 11
2.295000000000044
 21
0.0292483078921251
 31
0.0
  0
LINE
  5
410
330
85
100
AcDbEntity
  8
0-0_補助線
  6
Continuous
 62
     7
370
     9
100
AcDbLine
 10
2.015000000000072
 20
0.0292483078921251
 30
0.0
 11
2.015000000000072
 21
0.4292483078921272
 31
0.0
  0
LINE
  5
411
330
85
100
AcDbEntity
  8
0-0_補助線
  6
Continuous
 62
     7
370
     9
100
AcDbLine
 10
2.015000000000072
 20
0.6292483078921265
 30
0.0
 11
2.015000000000072
 21
1.229248307892128
 31
0.0
  0
LINE
  5
412
330
85
100
AcDbEntity
  8
0-0_補助線
  6
Continuous
 62
     7
370
     9
100
AcDbLine
 10
-2.01499999999993
 20
0.0292483078921286
 30
0.0
 11
-2.01499999999993
 21
0.4292483078921272
 31
0.0
  0
LINE
  5
413
330
85
100
AcDbEntity
  8
0-0_補助線
  6
Continuous
 62
     7
370
     9
100
AcDbLine
 10
-2.01499999999993
 20
0.6292483078921265
 30
0.0
 11
-2.01499999999993
 21
1.229248307892128
 31
0.0
  0
LINE
  5
414
330
85
100
AcDbEntity
  8
0-0_補助線
  6
Continuous
 62
     7
370
     9
100
AcDbLine
 10
-2.294999999999931
 20
1.429248307892124
 30
0.0
 11
-2.294999999999931
 21
1.029248307892125
 31
0.0
  0
LINE
  5
415
330
85
100
AcDbEntity
  8
0-0_補助線
  6
Continuous
 62
     7
370
     9
100
AcDbLine
 10
-2.294999999999931
 20
0.8292483078921258
 30
0.0
 11
-2.294999999999931
 21
0.0292483078921286
 31
0.0
  0
LINE
  5
416
330
85
100
AcDbEntity
  8
0-0_補助線
  6
Continuous
 62
     7
370
     9
100
AcDbLine
 10
-2.01499999999993
 20
0.0292483078921286
 30
0.0
 11
2.015000000000072
 21
0.0292483078921251
 31
0.0
  0
ARC
  5
417
330
85
100
AcDbEntity
  8
0-0_補助線
  6
Continuous
 62
     7
370
     9
100
AcDbCircle
 10
2.060000000000059
 20
-1.630751692107875
 30
0.0
 40
0.06
100
AcDbArc
 50
270.0
 51
0.0
  0
LINE
  5
418
330
85
100
AcDbEntity
  8
0-0_補助線
  6
Continuous
 62
     7
370
     9
100
AcDbLine
 10
2.120000000000061
 20
-0.3107516921078783
 30
0.0
 11
2.120000000000061
 21
-1.630751692107875
 31
0.0
  0
ARC
  5
419
330
85
100
AcDbEntity
  8
0-0_補助線
  6
Continuous
 62
     7
370
     9
100
AcDbCircle
 10
2.060000000000059
 20
-0.3107516921078783
 30
0.0
 40
0.06
100
AcDbArc
 50
0.0
 51
90.0
  0
ARC
  5
41A
330
85
100
AcDbEntity
  8
0-0_補助線
  6
Continuous
 62
     7
370
     9
100
AcDbCircle
 10
2.200000000000045
 20
-1.770751692107872
 30
0.0
 40
0.2
100
AcDbArc
 50
270.0
 51
0.0
  0
LINE
  5
41B
330
85
100
AcDbEntity
  8
0-0_補助線
  6
Continuous
 62
     7
370
     9
100
AcDbLine
 10
2.400000000000063
 20
-0.2976894028633943
 30
0.0
 11
2.400000000000063
 21
-1.770751692107872
 31
0.0
  0
ARC
  5
41C
330
85
100
AcDbEntity
  8
0-0_補助線
  6
Continuous
 62
     7
370
     9
100
AcDbCircle
 10
2.460000000000065
 20
-0.2976894028633943
 30
0.0
 40
0.06
100
AcDbArc
 50
103.9281985493314
 51
180.0
  0
LINE
  5
41D
330
85
100
AcDbEntity
  8
0-0_補助線
  6
Continuous
 62
     7
370
     9
100
AcDbLine
 10
2.900000000000063
 20
0.0692483078921242
 30
0.0
 11
2.900000000000063
 21
-0.0897352033627286
 31
0.0
  0
LINE
  5
41E
330
85
100
AcDbEntity
  8
0-0_補助線
  6
Continuous
 62
     7
370
     9
100
AcDbLine
 10
2.853095847616288
 20
-0.1482885873401969
 30
0.0
 11
2.446904152383837
 21
-0.2391360188859224
 31
0.0
  0
LINE
  5
41F
330
85
100
AcDbEntity
  8
0-0_補助線
  6
Continuous
 62
     7
370
     9
100
AcDbLine
 10
2.400000000000063
 20
0.0292483078921251
 30
0.0
 11
2.826503425747205
 21
0.1277106246734299
 31
0.0
  0
ARC
  5
420
330
85
100
AcDbEntity
  8
0-0_補助線
  6
Continuous
 62
     7
370
     9
100
AcDbCircle
 10
2.84000000000006
 20
-0.0897352033627286
 30
0.0
 40
0.06
100
AcDbArc
 50
282.6070972495236
 51
0.0
  0
ARC
  5
421
330
85
100
AcDbEntity
  8
0-0_補助線
  6
Continuous
 62
     7
370
     9
100
AcDbCircle
 10
2.84000000000006
 20
0.0692483078921242
 30
0.0
 40
0.06
100
AcDbArc
 50
0.0
 51
102.9995207492461
  0
ARC
  5
422
330
85
100
AcDbEntity
  8
0-0_補助線
  6
Continuous
 62
     7
370
     9
100
AcDbCircle
 10
2.200000000000045
 20
-1.770751692107872
 30
0.0
 40
0.16
100
AcDbArc
 50
270.0
 51
0.0
  0
LINE
  5
423
330
85
100
AcDbEntity
  8
0-0_補助線
  6
Continuous
 62
     7
370
     9
100
AcDbLine
 10
2.36000000000007
 20
-0.2976894028633943
 30
0.0
 11
2.36000000000007
 21
-1.770751692107872
 31
0.0
  0
ARC
  5
424
330
85
100
AcDbEntity
  8
0-0_補助線
  6
Continuous
 62
     7
370
     9
100
AcDbCircle
 10
2.460000000000065
 20
-0.2976894028633943
 30
0.0
 40
0.1
100
AcDbArc
 50
103.9281985493314
 51
180.0
  0
LINE
  5
425
330
85
100
AcDbEntity
  8
0-0_補助線
  6
Continuous
 62
     7
370
     9
100
AcDbLine
 10
2.84436528254048
 20
-0.1092529980215105
 30
0.0
 11
2.438173587308029
 21
-0.2001004295672359
 31
0.0
  0
ARC
  5
426
330
85
100
AcDbEntity
  8
0-0_補助線
  6
Continuous
 62
     7
370
     9
100
AcDbCircle
 10
2.84000000000006
 20
-0.0897352033627286
 30
0.0
 40
0.02
100
AcDbArc
 50
282.6070972495236
 51
0.0
  0
LINE
  5
427
330
85
100
AcDbEntity
  8
0-0_補助線
  6
Continuous
 62
     7
370
     9
100
AcDbLine
 10
2.86000000000007
 20
0.0692483078921242
 30
0.0
 11
2.86000000000007
 21
-0.0897352033627286
 31
0.0
  0
ARC
  5
428
330
85
100
AcDbEntity
  8
0-0_補助線
  6
Continuous
 62
     7
370
     9
100
AcDbCircle
 10
2.84000000000006
 20
0.0692483078921242
 30
0.0
 40
0.02
100
AcDbArc
 50
0.0
 51
102.9995207492461
  0
LINE
  5
429
330
85
100
AcDbEntity
  8
0-0_補助線
  6
Continuous
 62
     7
370
     9
100
AcDbLine
 10
2.408997716168614
 20
-0.0097265699620763
 30
0.0
 11
2.835501141915785
 21
0.0887357468192285
 31
0.0
  0
LINE
  5
42A
330
85
100
AcDbEntity
  8
0-0_補助線
  6
Continuous
 62
     7
370
     9
100
AcDbLine
 10
2.408997716168614
 20
-0.0097265699620763
 30
0.0
 11
2.398644954364528
 21
0.0289104630894848
 31
0.0
  0
LINE
  5
42B
330
85
100
AcDbEntity
  8
0-0_補助線
  6
Continuous
 62
     7
370
     9
100
AcDbLine
 10
-2.294999999999931
 20
0.0292483078921286
 30
0.0
 11
-2.399999999999949
 21
0.0292483078921286
 31
0.0
  0
ARC
  5
42C
330
85
100
AcDbEntity
  8
0-0_補助線
  6
Continuous
 62
     7
370
     9
100
AcDbCircle
 10
-2.059999999999945
 20
-1.630751692107875
 30
0.0
 40
0.06
100
AcDbArc
 50
180.0
 51
270.0
  0
LINE
  5
42D
330
85
100
AcDbEntity
  8
0-0_補助線
  6
Continuous
 62
     7
370
     9
100
AcDbLine
 10
-2.119999999999948
 20
-0.3107516921078748
 30
0.0
 11
-2.119999999999948
 21
-1.630751692107875
 31
0.0
  0
ARC
  5
42E
330
85
100
AcDbEntity
  8
0-0_補助線
  6
Continuous
 62
     7
370
     9
100
AcDbCircle
 10
-2.059999999999945
 20
-0.3107516921078748
 30
0.0
 40
0.06
100
AcDbArc
 50
90.0
 51
180.0
  0
ARC
  5
42F
330
85
100
AcDbEntity
  8
0-0_補助線
  6
Continuous
 62
     7
370
     9
100
AcDbCircle
 10
-2.199999999999932
 20
-1.770751692107872
 30
0.0
 40
0.2
100
AcDbArc
 50
180.0
 51
270.0
  0
LINE
  5
430
330
85
100
AcDbEntity
  8
0-0_補助線
  6
Continuous
 62
     7
370
     9
100
AcDbLine
 10
-2.399999999999949
 20
-0.2976894028633943
 30
0.0
 11
-2.399999999999949
 21
-1.770751692107872
 31
0.0
  0
ARC
  5
431
330
85
100
AcDbEntity
  8
0-0_補助線
  6
Continuous
 62
     7
370
     9
100
AcDbCircle
 10
-2.459999999999951
 20
-0.2976894028633943
 30
0.0
 40
0.06
100
AcDbArc
 50
0.0
 51
76.0718014506686
  0
LINE
  5
432
330
85
100
AcDbEntity
  8
0-0_補助線
  6
Continuous
 62
     7
370
     9
100
AcDbLine
 10
-2.899999999999949
 20
0.0692483078921242
 30
0.0
 11
-2.899999999999949
 21
-0.0897352033627286
 31
0.0
  0
LINE
  5
433
330
85
100
AcDbEntity
  8
0-0_補助線
  6
Continuous
 62
     7
370
     9
100
AcDbLine
 10
-2.853095847616174
 20
-0.1482885873401933
 30
0.0
 11
-2.446904152383723
 21
-0.2391360188859224
 31
0.0
  0
LINE
  5
434
330
85
100
AcDbEntity
  8
0-0_補助線
  6
Continuous
 62
     7
370
     9
100
AcDbLine
 10
-2.399999999999949
 20
0.0292483078921286
 30
0.0
 11
-2.826503425747092
 21
0.1277106246734299
 31
0.0
  0
ARC
  5
435
330
85
100
AcDbEntity
  8
0-0_補助線
  6
Continuous
 62
     7
370
     9
100
AcDbCircle
 10
-2.839999999999947
 20
-0.0897352033627286
 30
0.0
 40
0.06
100
AcDbArc
 50
180.0
 51
257.3929027504764
  0
ARC
  5
436
330
85
100
AcDbEntity
  8
0-0_補助線
  6
Continuous
 62
     7
370
     9
100
AcDbCircle
 10
-2.839999999999947
 20
0.0692483078921242
 30
0.0
 40
0.06
100
AcDbArc
 50
77.00047925075384
 51
180.0
  0
ARC
  5
437
330
85
100
AcDbEntity
  8
0-0_補助線
  6
Continuous
 62
     7
370
     9
100
AcDbCircle
 10
-2.199999999999932
 20
-1.770751692107872
 30
0.0
 40
0.16
100
AcDbArc
 50
180.0
 51
270.0
  0
LINE
  5
438
330
85
100
AcDbEntity
  8
0-0_補助線
  6
Continuous
 62
     7
370
     9
100
AcDbLine
 10
-2.359999999999928
 20
-0.2976894028633943
 30
0.0
 11
-2.359999999999928
 21
-1.770751692107872
 31
0.0
  0
ARC
  5
439
330
85
100
AcDbEntity
  8
0-0_補助線
  6
Continuous
 62
     7
370
     9
100
AcDbCircle
 10
-2.459999999999951
 20
-0.2976894028633943
 30
0.0
 40
0.1
100
AcDbArc
 50
0.0
 51
76.0718014506686
  0
LINE
  5
43A
330
85
100
AcDbEntity
  8
0-0_補助線
  6
Continuous
 62
     7
370
     9
100
AcDbLine
 10
-2.844365282540366
 20
-0.1092529980215069
 30
0.0
 11
-2.438173587307915
 21
-0.2001004295672359
 31
0.0
  0
ARC
  5
43B
330
85
100
AcDbEntity
  8
0-0_補助線
  6
Continuous
 62
     7
370
     9
100
AcDbCircle
 10
-2.839999999999947
 20
-0.0897352033627286
 30
0.0
 40
0.02
100
AcDbArc
 50
180.0
 51
257.3929027504764
  0
LINE
  5
43C
330
85
100
AcDbEntity
  8
0-0_補助線
  6
Continuous
 62
     7
370
     9
100
AcDbLine
 10
-2.859999999999957
 20
0.0692483078921242
 30
0.0
 11
-2.859999999999957
 21
-0.0897352033627286
 31
0.0
  0
ARC
  5
43D
330
85
100
AcDbEntity
  8
0-0_補助線
  6
Continuous
 62
     7
370
     9
100
AcDbCircle
 10
-2.839999999999947
 20
0.0692483078921242
 30
0.0
 40
0.02
100
AcDbArc
 50
77.00047925075384
 51
180.0
  0
LINE
  5
43E
330
85
100
AcDbEntity
  8
0-0_補助線
  6
Continuous
 62
     7
370
     9
100
AcDbLine
 10
-2.4089977161685
 20
-0.0097265699620763
 30
0.0
 11
-2.835501141915671
 21
0.0887357468192285
 31
0.0
  0
LINE
  5
43F
330
85
100
AcDbEntity
  8
0-0_補助線
  6
Continuous
 62
     7
370
     9
100
AcDbLine
 10
-2.4089977161685
 20
-0.0097265699620763
 30
0.0
 11
-2.398644954364414
 21
0.0289104630894848
 31
0.0
  0
LINE
  5
440
330
85
100
AcDbEntity
  8
0-0_補助線
  6
Continuous
 62
     7
370
     9
100
AcDbLine
 10
-2.059999999999945
 20
-0.2507516921078725
 30
0.0
 11
2.060000000000059
 21
-0.2507516921078761
 31
0.0
  0
LINE
  5
441
330
85
100
AcDbEntity
  8
0-0_補助線
  6
Continuous
 62
     7
370
     9
100
AcDbLine
 10
-2.059999999999945
 20
-1.690751692107877
 30
0.0
 11
2.060000000000059
 21
-1.690751692107877
 31
0.0
  0
LINE
  5
442
330
85
100
AcDbEntity
  8
0-0_補助線
  6
Continuous
 62
     7
370
     9
100
AcDbLine
 10
-2.199999999999932
 20
-1.930751692107876
 30
0.0
 11
2.200000000000045
 21
-1.930751692107876
 31
0.0
  0
LINE
  5
443
330
85
100
AcDbEntity
  8
0-0_補助線
  6
Continuous
 62
     7
370
     9
100
AcDbLine
 10
2.200000000000045
 20
-1.970751692107875
 30
0.0
 11
-2.199999999999932
 21
-1.970751692107875
 31
0.0
  0
ENDBLK
  5
87
330
85
100
AcDbEntity
  8
0
100
AcDbBlockEnd
  0
ENDSEC
  0
SECTION
  2
ENTITIES
  0
LINE
  5
88
330
1F
100
AcDbEntity
  8
F-0_補助線
  6
JWW_HOJO
 62
   120
370
     5
100
AcDbLine
 10
-6140.081333436773
 20
-4455.0
 30
0.0
 11
-6140.081333436773
 21
4424.999604096284
 31
0.0
  0
LINE
  5
89
330
1F
100
AcDbEntity
  8
F-0_補助線
  6
JWW_HOJO
 62
   120
370
     5
100
AcDbLine
 10
-6140.081333436773
 20
4424.999604096284
 30
0.0
 11
6159.917676803936
 21
4424.999604096284
 31
0.0
  0
LINE
  5
8A
330
1F
100
AcDbEntity
  8
F-0_補助線
  6
JWW_HOJO
 62
   120
370
     5
100
AcDbLine
 10
6159.917676803936
 20
4424.999604096284
 30
0.0
 11
6159.917676803936
 21
-4455.0
 31
0.0
  0
LINE
  5
8B
330
1F
100
AcDbEntity
  8
F-0_補助線
  6
JWW_HOJO
 62
   120
370
     5
100
AcDbLine
 10
6159.917676803936
 20
-4455.0
 30
0.0
 11
-6140.081333436773
 21
-4455.0
 31
0.0
  0
LINE
  5
8C
330
1F
100
AcDbEntity
  8
F-0_補助線
  6
JWW_HOJO
 62
     7
370
     9
100
AcDbLine
 10
1009.918254163523
 20
-3795.000003092998
 30
0.0
 11
1009.918254163523
 21
-4195.000008247994
 31
0.0
  0
LINE
  5
8D
330
1F
100
AcDbEntity
  8
F-0_補助線
  6
JWW_HOJO
 62
     7
370
     9
100
AcDbLine
 10
509.9185840832865
 20
-3795.000003092998
 30
0.0
 11
509.9185840832865
 21
-4195.000008247994
 31
0.0
  0
LINE
  5
8E
330
1F
100
AcDbEntity
  8
F-1_通り芯
  6
Continuous
 62
   200
370
    20
100
AcDbLine
 10
5859.917429364114
 20
4174.999769056166
 30
0.0
 11
5859.917429364114
 21
-4205.000164959882
 31
0.0
  0
LINE
  5
8F
330
1F
100
AcDbEntity
  8
F-1_通り芯
  6
Continuous
 62
   200
370
    20
100
AcDbLine
 10
-5840.081317971782
 20
4174.999769056166
 30
0.0
 11
-5840.081317971782
 21
-4205.000164959882
 31
0.0
  0
LINE
  5
90
330
1F
100
AcDbEntity
  8
F-1_通り芯
  6
Continuous
 62
   200
370
    20
100
AcDbLine
 10
5859.917429364114
 20
-4205.000002577498
 30
0.0
 11
-5840.081085996952
 21
-4205.000002577498
 31
0.0
  0
LINE
  5
91
330
1F
100
AcDbEntity
  8
F-1_通り芯
  6
Continuous
 62
   200
370
    20
100
AcDbLine
 10
-5830.081323642279
 20
4174.999769056166
 30
0.0
 11
-5830.081323642279
 21
-4205.000164959882
 31
0.0
  0
LINE
  5
92
330
1F
100
AcDbEntity
  8
F-1_通り芯
  6
Continuous
 62
   200
370
    20
100
AcDbLine
 10
-5835.081309208291
 20
4174.999769056166
 30
0.0
 11
-5835.081309208291
 21
-4205.000164959882
 31
0.0
  0
LINE
  5
93
330
1F
100
AcDbEntity
  8
F-1_通り芯
  6
Continuous
 62
   200
370
    20
100
AcDbLine
 10
5854.917165428304
 20
4174.999769056166
 30
0.0
 11
5854.917165428304
 21
-4205.000164959882
 31
0.0
  0
LINE
  5
94
330
1F
100
AcDbEntity
  8
F-1_通り芯
  6
Continuous
 62
   200
370
    20
100
AcDbLine
 10
5849.917643811961
 20
4174.999769056166
 30
0.0
 11
5849.917643811961
 21
-4205.000164959882
 31
0.0
  0
LINE
  5
95
330
1F
100
AcDbEntity
  8
F-1_通り芯
  6
Continuous
 62
   200
370
    20
100
AcDbLine
 10
5859.917429364114
 20
-4199.999993814004
 30
0.0
 11
-5840.081085996952
 21
-4199.999993814004
 31
0.0
  0
LINE
  5
96
330
1F
100
AcDbEntity
  8
F-1_通り芯
  6
Continuous
 62
   200
370
    20
100
AcDbLine
 10
5859.917429364114
 20
-4195.000008247994
 30
0.0
 11
-5840.081085996952
 21
-4195.000008247994
 31
0.0
  0
LINE
  5
97
330
1F
100
AcDbEntity
  8
F-1_通り芯
  6
Continuous
 62
   200
370
    20
100
AcDbLine
 10
4349.917891251784
 20
-3795.000003092998
 30
0.0
 11
4349.917891251784
 21
-4195.000008247994
 31
0.0
  0
LINE
  5
98
330
1F
100
AcDbEntity
  8
F-1_通り芯
  6
Continuous
 62
   200
370
    20
100
AcDbLine
 10
2849.917396372139
 20
-3795.000003092998
 30
0.0
 11
2849.917396372139
 21
-4195.000008247994
 31
0.0
  0
LINE
  5
99
330
1F
100
AcDbEntity
  8
F-1_通り芯
  6
Continuous
 62
   200
370
    20
100
AcDbLine
 10
9.918542843316231
 20
-3795.000003092998
 30
0.0
 11
9.918542843316231
 21
-4195.000008247994
 31
0.0
  0
LINE
  5
9A
330
1F
100
AcDbEntity
  8
F-1_通り芯
  6
Continuous
 62
   200
370
    20
100
AcDbLine
 10
9.918542843316231
 20
-3994.999936078046
 30
0.0
 11
5849.917643811961
 21
-3995.005364289155
 31
0.0
  0
LINE
  5
9B
330
1F
100
AcDbEntity
  8
F-1_通り芯
  6
Continuous
 62
   200
370
    20
100
AcDbLine
 10
-5840.081085996952
 20
4174.999769056166
 30
0.0
 11
5859.917429364114
 21
4174.999769056166
 31
0.0
  0
LINE
  5
9C
330
1F
100
AcDbEntity
  8
F-1_通り芯
  6
Continuous
 62
   200
370
    20
100
AcDbLine
 10
-5840.081085996952
 20
4164.999983504013
 30
0.0
 11
5859.917429364114
 21
4164.999983504013
 31
0.0
  0
LINE
  5
9D
330
1F
100
AcDbEntity
  8
F-1_通り芯
  6
Continuous
 62
   200
370
    20
100
AcDbLine
 10
-5840.081085996952
 20
4169.999505120355
 30
0.0
 11
5859.917429364114
 21
4169.999505120355
 31
0.0
  0
LINE
  5
9E
330
1F
100
AcDbEntity
  8
F-0_補助線
  6
JWW_HOJO
 62
     7
370
     9
100
AcDbLine
 10
-5830.081323642279
 20
-3994.99993607839
 30
0.0
 11
9.918542843316231
 21
-3994.99993607839
 31
0.0
  0
LINE
  5
9F
330
1F
100
AcDbEntity
  8
F-0_補助線
  6
JWW_HOJO
 62
     7
370
     9
100
AcDbLine
 10
-5830.081323642279
 20
-3904.99993607839
 30
0.0
 11
9.918542843316231
 21
-3904.99993607839
 31
0.0
  0
LINE
  5
A0
330
1F
100
AcDbEntity
  8
F-0_補助線
  6
JWW_HOJO
 62
     7
370
     9
100
AcDbLine
 10
-5830.081323642279
 20
-4084.99993607839
 30
0.0
 11
9.918542843316231
 21
-4084.99993607839
 31
0.0
  0
LINE
  5
A1
330
1F
100
AcDbEntity
  8
F-0_補助線
  6
JWW_HOJO
 62
     7
370
     9
100
AcDbLine
 10
9.918408067688347
 20
-4139.999739777983
 30
0.0
 11
5849.917509036332
 21
-4140.005167989091
 31
0.0
  0
LINE
  5
A2
330
1F
100
AcDbEntity
  8
F-0_補助線
  6
JWW_HOJO
 62
     7
370
     9
100
AcDbLine
 10
9.918491721639953
 20
-4049.999739778022
 30
0.0
 11
5849.917592690284
 21
-4050.005167989131
 31
0.0
  0
LINE
  5
A3
330
1F
100
AcDbEntity
  8
F-0_補助線
  6
JWW_HOJO
 62
     7
370
     9
100
AcDbLine
 10
9.918593965360003
 20
-3939.99973721807
 30
0.0
 11
5849.917694934004
 21
-3940.005165429179
 31
0.0
  0
LINE
  5
A4
330
1F
100
AcDbEntity
  8
F-0_補助線
  6
JWW_HOJO
 62
     7
370
     9
100
AcDbLine
 10
9.918677619311609
 20
-3849.999737218109
 30
0.0
 11
5849.917778587956
 21
-3850.005165429218
 31
0.0
  0
LINE
  5
A5
330
1F
100
AcDbEntity
  8
F-0_補助線
  6
JWW_HOJO
 62
     7
370
     9
100
AcDbLine
 10
2939.917396372139
 20
-3795.000003092998
 30
0.0
 11
2939.917396372139
 21
-4195.000008247994
 31
0.0
  0
LINE
  5
A6
330
1F
100
AcDbEntity
  8
F-0_補助線
  6
JWW_HOJO
 62
     7
370
     9
100
AcDbLine
 10
99.91854284331623
 20
-3795.000003092998
 30
0.0
 11
99.91854284331623
 21
-4195.000008247994
 31
0.0
  0
LINE
  5
A7
330
1F
100
AcDbEntity
  8
F-0_補助線
  6
JWW_HOJO
 62
     7
370
     9
100
AcDbLine
 10
4439.917891251784
 20
-3795.000003092998
 30
0.0
 11
4439.917891251784
 21
-4195.000008247994
 31
0.0
  0
LINE
  5
A8
330
1F
100
AcDbEntity
  8
F-1_通り芯
  6
Continuous
 62
   200
370
    20
100
AcDbLine
 10
5859.917429364114
 20
-3795.000003092998
 30
0.0
 11
-5840.081085996952
 21
-3795.000003092998
 31
0.0
  0
LINE
  5
A9
330
1F
100
AcDbEntity
  8
F-1_通り芯
  6
Continuous
 62
   200
370
    20
100
AcDbLine
 10
5859.917429364114
 20
-3790.000017526987
 30
0.0
 11
-5840.081085996952
 21
-3790.000017526987
 31
0.0
  0
LINE
  5
AA
330
1F
100
AcDbEntity
  8
F-0_補助線
  6
JWW_HOJO
 62
     7
370
     9
100
AcDbLine
 10
-5087.628710189611
 20
-3795.000003092999
 30
0.0
 11
-5087.628710189611
 21
-4205.000164959882
 31
0.0
  0
LINE
  5
AB
330
1F
100
AcDbEntity
  8
F-0_補助線
  6
JWW_HOJO
 62
     7
370
     9
100
AcDbLine
 10
-50.08145715668377
 20
-3795.000003092998
 30
0.0
 11
-50.08145715668377
 21
-4195.000008247994
 31
0.0
  0
TEXT
  5
AC
330
1F
100
AcDbEntity
  8
F-0_補助線
  6
Continuous
 62
     7
370
     0
100
AcDbText
 10
509.9185840832865
 20
-3928.097291872503
 30
0.0
 40
66.06
  1
ＳＯＦＴＡＲＴ
 41
1.077453515576899
  7
HGP明朝B
100
AcDbText
  0
TEXT
  5
AD
330
1F
100
AcDbEntity
  8
F-0_補助線
  6
Continuous
 62
     7
370
     0
100
AcDbText
 10
1110.209427605311
 20
-3928.097291872503
 30
0.0
 40
68.58
  1
建具納まり図
 41
1.138888888888889
  7
ＭＳ ゴシック
100
AcDbText
  0
TEXT
  5
AE
330
1F
100
AcDbEntity
  8
F-A_文字
  6
Continuous
 62
     7
370
     0
100
AcDbText
 10
99.91854284331623
 20
-3871.539820871936
 30
0.0
 40
45.72
  1
図面名
  7
ＭＳ ゴシック
100
AcDbText
  0
TEXT
  5
AF
330
1F
100
AcDbEntity
  8
F-A_文字
  6
Continuous
 62
     7
370
     0
100
AcDbText
 10
2939.917396372139
 20
-3871.542460617774
 30
0.0
 40
45.72
  1
ＳＣＡＬＥ
  7
ＭＳ ゴシック
100
AcDbText
  0
TEXT
  5
B0
330
1F
100
AcDbEntity
  8
F-A_文字
  6
Continuous
 62
     7
370
     0
100
AcDbText
 10
4439.917891251784
 20
-3871.543854850754
 30
0.0
 40
45.72
  1
ＤＡＴＥ
  7
ＭＳ ゴシック
100
AcDbText
  0
TEXT
  5
B1
330
1F
100
AcDbEntity
  8
F-A_文字
  6
Continuous
 62
     7
370
     0
100
AcDbText
 10
2939.917396372139
 20
-4071.54246317786
 30
0.0
 40
45.72
  1
ＦＩＬＥ
  7
ＭＳ ゴシック
100
AcDbText
  0
TEXT
  5
B2
330
1F
100
AcDbEntity
  8
F-A_文字
  6
Continuous
 62
     7
370
     0
100
AcDbText
 10
4439.917891251784
 20
-4071.543857410839
 30
0.0
 40
45.72
  1
ＮＯ．
  7
ＭＳ ゴシック
100
AcDbText
  0
TEXT
  5
B3
330
1F
100
AcDbEntity
  8
F-A_文字
  6
Continuous
 62
     7
370
     0
100
AcDbText
 10
1394.917396372138
 20
-4080.540669266148
 30
0.0
 40
45.72
  1
株式
  7
ＭＳ ゴシック
100
AcDbText
  0
TEXT
  5
B4
330
1F
100
AcDbEntity
  8
F-A_文字
  6
Continuous
 62
     7
370
     0
100
AcDbText
 10
1604.917396372138
 20
-4138.082379523928
 30
0.0
 40
91.44
  1
ウッドワン・・・
 41
1.109375
  7
ＭＳ ゴシック
100
AcDbText
  0
TEXT
  5
B5
330
1F
100
AcDbEntity
  8
F-A_文字
  6
Continuous
 62
     7
370
     0
100
AcDbText
 10
1394.917396372138
 20
-4152.540669266186
 30
0.0
 40
45.72
  1
会社
  7
ＭＳ ゴシック
100
AcDbText
  0
TEXT
  5
B6
330
1F
100
AcDbEntity
  8
F-A_文字
  6
Continuous
 62
     7
370
     0
100
AcDbText
 10
5768.321977672939
 20
-4291.441419020919
 30
0.0
 40
68.58
  1
）
  7
ＭＳ ゴシック
100
AcDbText
  0
TEXT
  5
B7
330
1F
100
AcDbEntity
  8
F-A_文字
  6
Continuous
 62
     7
370
     0
100
AcDbText
 10
5350.114617405298
 20
-4292.835443869856
 30
0.0
 40
68.58
  1
,
  7
ＭＳ ゴシック
100
AcDbText
  0
TEXT
  5
B8
330
1F
100
AcDbEntity
  8
F-A_文字
  6
Continuous
 62
     7
370
     0
100
AcDbText
 10
5083.855928478601
 20
-4294.229467288283
 30
0.0
 40
68.58
  1
$y
 41
1.083333333333333
  7
ＭＳ ゴシック
100
AcDbText
  0
TEXT
  5
B9
330
1F
100
AcDbEntity
  8
F-A_文字
  6
Continuous
 62
     7
370
     0
100
AcDbText
 10
5238.592649517422
 20
-4294.229467288283
 30
0.0
 40
68.58
  1
$m
 41
1.083333333333333
  7
ＭＳ ゴシック
100
AcDbText
  0
TEXT
  5
BA
330
1F
100
AcDbEntity
  8
F-A_文字
  6
Continuous
 62
     7
370
     0
100
AcDbText
 10
5393.32938200033
 20
-4294.229467288283
 30
0.0
 40
68.58
  1
$d
 41
1.083333333333333
  7
ＭＳ ゴシック
100
AcDbText
  0
TEXT
  5
BB
330
1F
100
AcDbEntity
  8
F-A_文字
  6
Continuous
 62
     7
370
     0
100
AcDbText
 10
5548.066114483239
 20
-4294.229467288283
 30
0.0
 40
68.58
  1
印刷
 41
1.083333333333333
  7
ＭＳ ゴシック
100
AcDbText
  0
TEXT
  5
BC
330
1F
100
AcDbEntity
  8
F-A_文字
  6
Continuous
 62
     7
370
     0
100
AcDbText
 10
4943.952040816226
 20
-4295.623493567732
 30
0.0
 40
68.58
  1
（
  7
ＭＳ ゴシック
100
AcDbText
  0
TEXT
  5
BD
330
1F
100
AcDbEntity
  8
F-A_文字
  6
Continuous
 62
     7
370
     0
100
AcDbText
 10
5191.195810375571
 20
-4295.623493567732
 30
0.0
 40
68.58
  1
,
  7
ＭＳ ゴシック
100
AcDbText
  0
TEXT
  5
BE
330
1F
100
AcDbEntity
  8
F-A_文字
  6
Continuous
 62
     7
370
     9
100
AcDbText
 10
5096.167700144057
 20
-4127.314512699985
 30
0.0
 40
68.58
  1
01
 41
1.083333333333333
  7
ＭＳ ゴシック
100
AcDbText
  0
TEXT
  5
BF
330
1F
100
AcDbEntity
  8
F-A_文字
  6
Continuous
 62
     7
370
     0
100
AcDbText
 10
3569.917643811961
 20
-3927.313115907308
 30
0.0
 40
68.58
  1
1/5
 41
1.111111111111111
  7
ＭＳ ゴシック
100
AcDbText
  0
TEXT
  5
C0
330
1F
100
AcDbEntity
  8
F-A_文字
  6
Continuous
 62
     7
370
     0
100
AcDbText
 10
4938.667793092892
 20
-3919.814510139967
 30
0.0
 40
68.58
  1
18.08.31
 41
1.145833333333333
  7
ＭＳ ゴシック
100
AcDbText
  0
LINE
  5
C1
330
1F
100
AcDbEntity
  8
0-A_文字
  6
Continuous
 62
    92
370
    13
100
AcDbLine
 10
-5659.999495325861
 20
3730.000181455871
 30
0.0
 11
-5659.999495325861
 21
4000.000181455871
 31
0.0
  0
LINE
  5
C2
330
1F
100
AcDbEntity
  8
0-A_文字
  6
Continuous
 62
    92
370
    13
100
AcDbLine
 10
-5659.999495325861
 20
4000.000181455871
 30
0.0
 11
-2242.520838941434
 21
4000.000181455871
 31
0.0
  0
LINE
  5
C3
330
1F
100
AcDbEntity
  8
0-A_文字
  6
Continuous
 62
    92
370
    13
100
AcDbLine
 10
-2242.520838941434
 20
3730.000181455871
 30
0.0
 11
-2242.520838941434
 21
4000.000181455871
 31
0.0
  0
LINE
  5
C4
330
1F
100
AcDbEntity
  8
0-A_文字
  6
Continuous
 62
    92
370
    13
100
AcDbLine
 10
-5659.999495325861
 20
3730.000181455871
 30
0.0
 11
-2242.520838941434
 21
3730.000181455871
 31
0.0
  0
LINE
  5
C5
330
1F
100
AcDbEntity
  8
0-A_文字
  6
Continuous
 62
    92
370
    13
100
AcDbLine
 10
-2242.520838941434
 20
4000.000181455871
 30
0.0
 11
-2242.520838941434
 21
3730.000181455871
 31
0.0
  0
LINE
  5
C6
330
1F
100
AcDbEntity
  8
0-A_文字
  6
Continuous
 62
    92
370
    13
100
AcDbLine
 10
-2242.520838941434
 20
3730.000181455871
 30
0.0
 11
-2242.520838941434
 21
4000.000181455871
 31
0.0
  0
LINE
  5
C7
330
1F
100
AcDbEntity
  8
0-A_文字
  6
Continuous
 62
    92
370
    13
100
AcDbLine
 10
-2242.520838941434
 20
4000.000181455871
 30
0.0
 11
-654.8943594885884
 21
4000.000181455871
 31
0.0
  0
LINE
  5
C8
330
1F
100
AcDbEntity
  8
0-A_文字
  6
Continuous
 62
    92
370
    13
100
AcDbLine
 10
-654.8943594885884
 20
4000.000181455871
 30
0.0
 11
-654.8943594885884
 21
3730.000181455871
 31
0.0
  0
LINE
  5
C9
330
1F
100
AcDbEntity
  8
0-A_文字
  6
Continuous
 62
    92
370
    13
100
AcDbLine
 10
-2242.520838941434
 20
3730.000181455871
 30
0.0
 11
-654.8943594885884
 21
3730.000181455871
 31
0.0
  0
TEXT
  5
CA
330
1F
100
AcDbEntity
  8
0-A_文字
  6
Continuous
 62
    92
370
    13
100
AcDbText
 10
-2133.770838941434
 20
3800.380181455871
 30
0.0
 40
137.16
  1
ドア気密タイプ
 41
1.071428571428571
  7
ＭＳ ゴシック
100
AcDbText
  0
LINE
  5
CB
330
1F
100
AcDbEntity
  8
0-A_文字
  6
Continuous
 62
    92
370
    13
100
AcDbLine
 10
-2242.520838941434
 20
4000.000181455871
 30
0.0
 11
-2242.520838941434
 21
3730.000181455871
 31
0.0
  0
LINE
  5
CC
330
1F
100
AcDbEntity
  8
0-A_文字
  6
Continuous
 62
    92
370
    13
100
AcDbLine
 10
-669.8943594885884
 20
3985.000181455871
 30
0.0
 11
-669.8943594885884
 21
3745.000181455871
 31
0.0
  0
LINE
  5
CD
330
1F
100
AcDbEntity
  8
0-A_文字
  6
Continuous
 62
    92
370
    13
100
AcDbLine
 10
-2227.520838941434
 20
3745.000181455871
 30
0.0
 11
-669.8943594885884
 21
3745.000181455871
 31
0.0
  0
LINE
  5
CE
330
1F
100
AcDbEntity
  8
0-A_文字
  6
Continuous
 62
    92
370
    13
100
AcDbLine
 10
-2227.520838941434
 20
3985.000181455871
 30
0.0
 11
-669.8943594885884
 21
3985.000181455871
 31
0.0
  0
LINE
  5
CF
330
1F
100
AcDbEntity
  8
0-A_文字
  6
Continuous
 62
    92
370
    13
100
AcDbLine
 10
-2227.520838941434
 20
3985.000181455871
 30
0.0
 11
-2227.520838941434
 21
3745.000181455871
 31
0.0
  0
LINE
  5
D0
330
1F
100
AcDbEntity
  8
0-3_仕上
  6
Continuous
 62
    40
370
    15
100
AcDbLine
 10
-2216.08145715668
 20
-3159.000609939163
 30
0.0
 11
-2216.08145715668
 21
-3087.000609939163
 31
0.0
  0
LINE
  5
D1
330
1F
100
AcDbEntity
  8
0-3_仕上
  6
Continuous
 62
    40
370
    15
100
AcDbLine
 10
-1802.081457156679
 20
-3159.000609939163
 30
0.0
 11
-1802.081457156679
 21
-3087.000609939163
 31
0.0
  0
LINE
  5
D2
330
1F
100
AcDbEntity
  8
0-3_仕上
  6
Continuous
 62
    40
370
    15
100
AcDbLine
 10
-2885.081457156685
 20
-3087.000609939163
 30
0.0
 11
-2216.08145715668
 21
-3087.000609939163
 31
0.0
  0
LINE
  5
D3
330
1F
100
AcDbEntity
  8
0-3_仕上
  6
Continuous
 62
    40
370
    15
100
AcDbLine
 10
-2885.081457156685
 20
-3159.000609939163
 30
0.0
 11
-2216.08145715668
 21
-3159.000609939163
 31
0.0
  0
LINE
  5
D4
330
1F
100
AcDbEntity
  8
0-3_仕上
  6
Continuous
 62
     7
370
     9
100
AcDbLine
 10
-2885.081457156685
 20
-3096.000609939162
 30
0.0
 11
-2216.08145715668
 21
-3096.000609939162
 31
0.0
  0
LINE
  5
D5
330
1F
100
AcDbEntity
  8
0-3_仕上
  6
Continuous
 62
     7
370
     9
100
AcDbLine
 10
-2885.081457156685
 20
-3150.000609939161
 30
0.0
 11
-2216.08145715668
 21
-3150.000609939161
 31
0.0
  0
LINE
  5
D6
330
1F
100
AcDbEntity
  8
0-3_仕上
  6
Continuous
 62
     7
370
     9
100
AcDbLine
 10
-2885.081457156685
 20
-3105.000609939161
 30
0.0
 11
-2216.08145715668
 21
-3105.000609939161
 31
0.0
  0
LINE
  5
D7
330
1F
100
AcDbEntity
  8
0-3_仕上
  6
Continuous
 62
     7
370
     9
100
AcDbLine
 10
-2885.081457156685
 20
-3114.000609939163
 30
0.0
 11
-2216.08145715668
 21
-3114.000609939163
 31
0.0
  0
LINE
  5
D8
330
1F
100
AcDbEntity
  8
0-3_仕上
  6
Continuous
 62
     7
370
     9
100
AcDbLine
 10
-2885.081457156685
 20
-3123.000609939162
 30
0.0
 11
-2216.08145715668
 21
-3123.000609939162
 31
0.0
  0
LINE
  5
D9
330
1F
100
AcDbEntity
  8
0-3_仕上
  6
Continuous
 62
     7
370
     9
100
AcDbLine
 10
-2885.081457156685
 20
-3132.000609939162
 30
0.0
 11
-2216.08145715668
 21
-3132.000609939162
 31
0.0
  0
LINE
  5
DA
330
1F
100
AcDbEntity
  8
0-3_仕上
  6
Continuous
 62
     7
370
     9
100
AcDbLine
 10
-2885.081457156685
 20
-3141.000609939162
 30
0.0
 11
-2216.08145715668
 21
-3141.000609939162
 31
0.0
  0
LINE
  5
DB
330
1F
100
AcDbEntity
  8
0-3_仕上
  6
Continuous
 62
    40
370
    15
100
AcDbLine
 10
-1535.08145715668
 20
-3087.000609939163
 30
0.0
 11
-1802.081457156679
 21
-3087.000609939163
 31
0.0
  0
LINE
  5
DC
330
1F
100
AcDbEntity
  8
0-3_仕上
  6
Continuous
 62
    40
370
    15
100
AcDbLine
 10
-1535.08145715668
 20
-3159.000609939163
 30
0.0
 11
-1802.081457156679
 21
-3159.000609939163
 31
0.0
  0
LINE
  5
DD
330
1F
100
AcDbEntity
  8
0-3_仕上
  6
Continuous
 62
     7
370
     9
100
AcDbLine
 10
-1535.08145715668
 20
-3096.000609939162
 30
0.0
 11
-1802.081457156679
 21
-3096.000609939162
 31
0.0
  0
LINE
  5
DE
330
1F
100
AcDbEntity
  8
0-3_仕上
  6
Continuous
 62
     7
370
     9
100
AcDbLine
 10
-1535.08145715668
 20
-3150.000609939161
 30
0.0
 11
-1802.081457156679
 21
-3150.000609939161
 31
0.0
  0
LINE
  5
DF
330
1F
100
AcDbEntity
  8
0-3_仕上
  6
Continuous
 62
     7
370
     9
100
AcDbLine
 10
-1535.08145715668
 20
-3105.000609939161
 30
0.0
 11
-1802.081457156679
 21
-3105.000609939161
 31
0.0
  0
LINE
  5
E0
330
1F
100
AcDbEntity
  8
0-3_仕上
  6
Continuous
 62
     7
370
     9
100
AcDbLine
 10
-1535.08145715668
 20
-3114.000609939163
 30
0.0
 11
-1802.081457156679
 21
-3114.000609939163
 31
0.0
  0
LINE
  5
E1
330
1F
100
AcDbEntity
  8
0-3_仕上
  6
Continuous
 62
     7
370
     9
100
AcDbLine
 10
-1535.08145715668
 20
-3123.000609939162
 30
0.0
 11
-1802.081457156679
 21
-3123.000609939162
 31
0.0
  0
LINE
  5
E2
330
1F
100
AcDbEntity
  8
0-3_仕上
  6
Continuous
 62
     7
370
     9
100
AcDbLine
 10
-1535.08145715668
 20
-3132.000609939162
 30
0.0
 11
-1802.081457156679
 21
-3132.000609939162
 31
0.0
  0
LINE
  5
E3
330
1F
100
AcDbEntity
  8
0-3_仕上
  6
Continuous
 62
     7
370
     9
100
AcDbLine
 10
-1535.08145715668
 20
-3141.000609939162
 30
0.0
 11
-1802.081457156679
 21
-3141.000609939162
 31
0.0
  0
LINE
  5
E4
330
1F
100
AcDbEntity
  8
0-1_通り芯
  6
JWW_CENTER1
 62
   120
370
     5
100
AcDbLine
 10
-2885.081457156685
 20
-3159.000403945509
 30
0.0
 11
-1520.938324331378
 21
-3159.000403945509
 31
0.0
  0
LINE
  5
E5
330
1F
100
AcDbEntity
  8
0-0_補助線
  6
JWW_HOJO
 62
   120
370
     5
100
AcDbLine
 10
-905.0814571566804
 20
-3159.000403945509
 30
0.0
 11
-3095.081457156685
 21
-3159.000403945509
 31
0.0
  0
LINE
  5
E6
330
1F
100
AcDbEntity
  8
0-4_枠
  6
Continuous
 62
   120
370
     5
100
AcDbLine
 10
-1745.08145715668
 20
-3087.000609939163
 30
0.0
 11
-1745.08145715668
 21
-1836.000252311294
 31
0.0
  0
LWPOLYLINE
  5
E7
330
1F
100
AcDbEntity
  8
0-B_寸法
  6
Continuous
 62
     7
370
     9
100
AcDbPolyline
 90
        4
 70
     1
 43
6.0
 10
-1322.08145715668
 20
-3069.000100677076
 42
0.4142135623731
 10
-1325.08145715668
 20
-3066.000100677076
 42
0.4142135623731
 10
-1328.08145715668
 20
-3069.000100677076
 42
0.4142135623731
 10
-1325.08145715668
 20
-3072.000100677076
 42
0.4142135623731
  0
LINE
  5
E8
330
1F
100
AcDbEntity
  8
0-B_寸法
  6
Continuous
 62
   120
370
     5
100
AcDbLine
 10
-1115.08145715668
 20
-3069.000100677076
 30
0.0
 11
-1535.08145715668
 21
-3069.000100677076
 31
0.0
  0
LWPOLYLINE
  5
E9
330
1F
100
AcDbEntity
  8
0-B_寸法
  6
Continuous
 62
     7
370
     9
100
AcDbPolyline
 90
        4
 70
     1
 43
6.0
 10
-1112.08145715668
 20
-3069.000100677076
 42
0.4142135623731
 10
-1115.08145715668
 20
-3066.000100677076
 42
0.4142135623731
 10
-1118.08145715668
 20
-3069.000100677076
 42
0.4142135623731
 10
-1115.08145715668
 20
-3072.000100677076
 42
0.4142135623731
  0
LINE
  5
EA
330
1F
100
AcDbEntity
  8
0-B_寸法
  6
Continuous
 62
   120
370
     5
100
AcDbLine
 10
-905.0814571566804
 20
-3159.000403945509
 30
0.0
 11
-1535.08145715668
 21
-3159.000403945509
 31
0.0
  0
LWPOLYLINE
  5
EB
330
1F
100
AcDbEntity
  8
0-B_寸法
  6
Continuous
 62
     7
370
     9
100
AcDbPolyline
 90
        4
 70
     1
 43
6.0
 10
-902.0814571566804
 20
-3159.000403945509
 42
0.4142135623731
 10
-905.0814571566804
 20
-3156.000403945509
 42
0.4142135623731
 10
-908.0814571566804
 20
-3159.000403945509
 42
0.4142135623731
 10
-905.0814571566804
 20
-3162.000403945509
 42
0.4142135623731
  0
LINE
  5
EC
330
1F
100
AcDbEntity
  8
0-C_ﾊｯﾁ
  6
JWW_DASHED1
 62
   120
370
     5
100
AcDbLine
 10
-1895.081457156687
 20
-332.7522939114293
 30
0.0
 11
-1820.08145715669
 21
-257.7522939114348
 31
0.0
  0
LINE
  5
ED
330
1F
100
AcDbEntity
  8
0-C_ﾊｯﾁ
  6
JWW_DASHED1
 62
   120
370
     5
100
AcDbLine
 10
-1895.08145715669
 20
-290.3258870402348
 30
0.0
 11
-1820.081457156692
 21
-215.3258870402361
 31
0.0
  0
LINE
  5
EE
330
1F
100
AcDbEntity
  8
0-C_ﾊｯﾁ
  6
JWW_DASHED1
 62
   120
370
     5
100
AcDbLine
 10
-1895.081457156692
 20
-247.8994801690357
 30
0.0
 11
-1820.081457156692
 21
-172.8994801690391
 31
0.0
  0
LINE
  5
EF
330
1F
100
AcDbEntity
  8
0-C_ﾊｯﾁ
  6
JWW_DASHED1
 62
   120
370
     5
100
AcDbLine
 10
-1895.081457156685
 20
-205.473073297828
 30
0.0
 11
-1820.081457156672
 21
-130.473073297816
 31
0.0
  0
LINE
  5
F0
330
1F
100
AcDbEntity
  8
0-C_ﾊｯﾁ
  6
JWW_DASHED1
 62
   120
370
     5
100
AcDbLine
 10
-1895.081457156685
 20
-163.0466664266254
 30
0.0
 11
-1820.081457156671
 21
-88.04666642661431
 31
0.0
  0
LINE
  5
F1
330
1F
100
AcDbEntity
  8
0-C_ﾊｯﾁ
  6
JWW_DASHED1
 62
   120
370
     5
100
AcDbLine
 10
-1895.081457156671
 20
-120.6202595554117
 30
0.0
 11
-1820.081457156672
 21
-45.62025955541515
 31
0.0
  0
LINE
  5
F2
330
1F
100
AcDbEntity
  8
0-C_ﾊｯﾁ
  6
JWW_DASHED1
 62
   120
370
     5
100
AcDbLine
 10
-1895.081457156672
 20
-78.19385268421428
 30
0.0
 11
-1820.081457156672
 21
-3.193852684215983
 31
0.0
  0
LINE
  5
F3
330
1F
100
AcDbEntity
  8
0-C_ﾊｯﾁ
  6
JWW_DASHED1
 62
   120
370
     5
100
AcDbLine
 10
-1895.081457156673
 20
-35.76744581301853
 30
0.0
 11
-1820.081457156676
 21
39.23255418697892
 31
0.0
  0
LINE
  5
F4
330
1F
100
AcDbEntity
  8
0-C_ﾊｯﾁ
  6
JWW_DASHED1
 62
   120
370
     5
100
AcDbLine
 10
-1895.08145715668
 20
6.658961058120951
 30
0.0
 11
-1820.081457156685
 21
81.65896105811925
 31
0.0
  0
LINE
  5
F5
330
1F
100
AcDbEntity
  8
0-C_ﾊｯﾁ
  6
JWW_DASHED1
 62
   120
370
     5
100
AcDbLine
 10
-1895.081457156685
 20
49.08536792931756
 30
0.0
 11
-1820.081457156685
 21
124.0853679293159
 31
0.0
  0
LINE
  5
F6
330
1F
100
AcDbEntity
  8
0-C_ﾊｯﾁ
  6
JWW_DASHED1
 62
   120
370
     5
100
AcDbLine
 10
-1895.081457156679
 20
-375.1787007825675
 30
0.0
 11
-1820.081457156685
 21
-300.1787007825735
 31
0.0
  0
LINE
  5
F7
330
1F
100
AcDbEntity
  8
0-C_ﾊｯﾁ
  6
JWW_DASHED1
 62
   120
370
     5
100
AcDbLine
 10
-1882.476547454774
 20
-405.0001979518578
 30
0.0
 11
-1820.081457156679
 21
-342.605107653768
 31
0.0
  0
LINE
  5
F8
330
1F
100
AcDbEntity
  8
0-C_ﾊｯﾁ
  6
JWW_DASHED1
 62
   120
370
     5
100
AcDbLine
 10
-1840.050140583579
 20
-405.0001979518578
 30
0.0
 11
-1820.081457156676
 21
-385.0315145249573
 31
0.0
  0
LINE
  5
F9
330
1F
100
AcDbEntity
  8
0-4_枠
  6
Continuous
 62
   120
370
     5
100
AcDbLine
 10
-1769.081457156682
 20
-405.0001979518578
 30
0.0
 11
-1745.08145715668
 21
-405.0001979518578
 31
0.0
  0
LINE
  5
FA
330
1F
100
AcDbEntity
  8
0-4_枠
  6
Continuous
 62
   120
370
     5
100
AcDbLine
 10
-1745.08145715668
 20
-1716.000252311294
 30
0.0
 11
-1745.08145715668
 21
-405.0001979518578
 31
0.0
  0
LINE
  5
FB
330
1F
100
AcDbEntity
  8
0-B_寸法
  6
Continuous
 62
   120
370
     5
100
AcDbLine
 10
-1769.081457156682
 20
-857.530187637933
 30
0.0
 11
-1769.081457156682
 21
-650.3980488143321
 31
0.0
  0
LWPOLYLINE
  5
FC
330
1F
100
AcDbEntity
  8
0-B_寸法
  6
Continuous
 62
     7
370
     9
100
AcDbPolyline
 90
        4
 70
     1
 43
6.0
 10
-1766.081457156682
 20
-857.530187637933
 42
0.4142135623731
 10
-1769.081457156682
 20
-854.5301876379328
 42
0.4142135623731
 10
-1772.081457156682
 20
-857.530187637933
 42
0.4142135623731
 10
-1769.081457156682
 20
-860.530187637933
 42
0.4142135623731
  0
LINE
  5
FD
330
1F
100
AcDbEntity
  8
0-B_寸法
  6
Continuous
 62
   120
370
     5
100
AcDbLine
 10
-1325.08145715668
 20
-567.0001979518571
 30
0.0
 11
-1535.08145715668
 21
-567.0001979518571
 31
0.0
  0
LWPOLYLINE
  5
FE
330
1F
100
AcDbEntity
  8
0-B_寸法
  6
Continuous
 62
     7
370
     9
100
AcDbPolyline
 90
        4
 70
     1
 43
6.0
 10
-1322.08145715668
 20
-549.000197951859
 42
0.4142135623731
 10
-1325.08145715668
 20
-546.0001979518589
 42
0.4142135623731
 10
-1328.08145715668
 20
-549.000197951859
 42
0.4142135623731
 10
-1325.08145715668
 20
-552.000197951859
 42
0.4142135623731
  0
LWPOLYLINE
  5
FF
330
1F
100
AcDbEntity
  8
0-B_寸法
  6
Continuous
 62
     7
370
     9
100
AcDbPolyline
 90
        4
 70
     1
 43
6.0
 10
-1322.08145715668
 20
-567.0001979518571
 42
0.4142135623731
 10
-1325.08145715668
 20
-564.0001979518571
 42
0.4142135623731
 10
-1328.08145715668
 20
-567.0001979518571
 42
0.4142135623731
 10
-1325.08145715668
 20
-570.0001979518571
 42
0.4142135623731
  0
LWPOLYLINE
  5
100
330
1F
100
AcDbEntity
  8
0-B_寸法
  6
Continuous
 62
     7
370
     9
100
AcDbPolyline
 90
        4
 70
     1
 43
6.0
 10
-1322.08145715668
 20
-405.0001979518578
 42
0.4142135623731
 10
-1325.08145715668
 20
-402.0001979518578
 42
0.4142135623731
 10
-1328.08145715668
 20
-405.0001979518578
 42
0.4142135623731
 10
-1325.08145715668
 20
-408.0001979518578
 42
0.4142135623731
  0
LINE
  5
101
330
1F
100
AcDbEntity
  8
0-B_寸法
  6
Continuous
 62
   120
370
     5
100
AcDbLine
 10
-1115.08145715668
 20
-549.000197951859
 30
0.0
 11
-1535.08145715668
 21
-549.000197951859
 31
0.0
  0
LWPOLYLINE
  5
102
330
1F
100
AcDbEntity
  8
0-B_寸法
  6
Continuous
 62
     7
370
     9
100
AcDbPolyline
 90
        4
 70
     1
 43
6.0
 10
-1112.08145715668
 20
-549.000197951859
 42
0.4142135623731
 10
-1115.08145715668
 20
-546.0001979518589
 42
0.4142135623731
 10
-1118.08145715668
 20
-549.000197951859
 42
0.4142135623731
 10
-1115.08145715668
 20
-552.000197951859
 42
0.4142135623731
  0
LINE
  5
103
330
1F
100
AcDbEntity
  8
0-B_寸法
  6
Continuous
 62
   120
370
     5
100
AcDbLine
 10
-905.0814571566804
 20
-405.0001979518578
 30
0.0
 11
-1535.08145715668
 21
-405.0001979518578
 31
0.0
  0
LINE
  5
104
330
1F
100
AcDbEntity
  8
0-B_寸法
  6
Continuous
 62
   120
370
     5
100
AcDbLine
 10
-905.0814571566804
 20
-405.0001979518578
 30
0.0
 11
-905.0814571566804
 21
-3159.000403945509
 31
0.0
  0
LWPOLYLINE
  5
105
330
1F
100
AcDbEntity
  8
0-B_寸法
  6
Continuous
 62
     7
370
     9
100
AcDbPolyline
 90
        4
 70
     1
 43
6.0
 10
-902.0814571566804
 20
-405.0001979518578
 42
0.4142135623731
 10
-905.0814571566804
 20
-402.0001979518578
 42
0.4142135623731
 10
-908.0814571566804
 20
-405.0001979518578
 42
0.4142135623731
 10
-905.0814571566804
 20
-408.0001979518578
 42
0.4142135623731
  0
LINE
  5
106
330
1F
100
AcDbEntity
  8
0-C_ﾊｯﾁ
  6
JWW_DASHED1
 62
   120
370
     5
100
AcDbLine
 10
-1895.081457156685
 20
91.51177480051928
 30
0.0
 11
-1820.081457156672
 21
166.5117748005295
 31
0.0
  0
LINE
  5
107
330
1F
100
AcDbEntity
  8
0-C_ﾊｯﾁ
  6
JWW_DASHED1
 62
   120
370
     5
100
AcDbLine
 10
-1895.081457156687
 20
133.9381816717142
 30
0.0
 11
-1834.019836780258
 21
194.9998020481422
 31
0.0
  0
LINE
  5
108
330
1F
100
AcDbEntity
  8
0-C_ﾊｯﾁ
  6
JWW_DASHED1
 62
   120
370
     5
100
AcDbLine
 10
-1895.081457156676
 20
176.3645885429261
 30
0.0
 11
-1876.446243651463
 21
194.9998020481422
 31
0.0
  0
LINE
  5
109
330
1F
100
AcDbEntity
  8
0-3_仕上
  6
Continuous
 62
    40
370
    15
100
AcDbLine
 10
-1895.081457156679
 20
-405.0001979518578
 30
0.0
 11
-1895.081457156679
 21
194.9998020481422
 31
0.0
  0
LINE
  5
10A
330
1F
100
AcDbEntity
  8
0-3_仕上
  6
Continuous
 62
    40
370
    15
100
AcDbLine
 10
-1820.081457156676
 20
-405.0001979518578
 30
0.0
 11
-1820.081457156676
 21
194.9998020481422
 31
0.0
  0
LINE
  5
10B
330
1F
100
AcDbEntity
  8
0-0_補助線
  6
JWW_HOJO
 62
   120
370
     5
100
AcDbLine
 10
-2885.081457156685
 20
-3159.000403945509
 30
0.0
 11
-2885.081457156685
 21
194.9998020481422
 31
0.0
  0
LINE
  5
10C
330
1F
100
AcDbEntity
  8
0-0_補助線
  6
JWW_HOJO
 62
   120
370
     5
100
AcDbLine
 10
-3095.081457156685
 20
-3159.000403945509
 30
0.0
 11
-3095.081457156685
 21
194.9998020481422
 31
0.0
  0
LINE
  5
10D
330
1F
100
AcDbEntity
  8
0-0_補助線
  6
JWW_HOJO
 62
   120
370
     5
100
AcDbLine
 10
-1535.08145715668
 20
-3159.000403945509
 30
0.0
 11
-1535.08145715668
 21
194.9998020481422
 31
0.0
  0
LINE
  5
10E
330
1F
100
AcDbEntity
  8
0-0_補助線
  6
JWW_HOJO
 62
   120
370
     5
100
AcDbLine
 10
-1115.08145715668
 20
-3159.000403945509
 30
0.0
 11
-1115.08145715668
 21
194.9998020481422
 31
0.0
  0
LINE
  5
10F
330
1F
100
AcDbEntity
  8
0-0_補助線
  6
JWW_HOJO
 62
   120
370
     5
100
AcDbLine
 10
-905.0814571566804
 20
-3159.000403945509
 30
0.0
 11
-905.0814571566804
 21
194.9998020481422
 31
0.0
  0
LINE
  5
110
330
1F
100
AcDbEntity
  8
0-0_補助線
  6
JWW_HOJO
 62
   120
370
     5
100
AcDbLine
 10
-3095.081457156685
 20
194.9998020481422
 30
0.0
 11
-905.0814571566804
 21
194.9998020481422
 31
0.0
  0
LINE
  5
111
330
1F
100
AcDbEntity
  8
0-0_補助線
  6
JWW_HOJO
 62
   120
370
     5
100
AcDbLine
 10
-1631.472600877705
 20
-1716.000252311294
 30
0.0
 11
-2878.690313435654
 21
-1716.000252311294
 31
0.0
  0
LINE
  5
112
330
1F
100
AcDbEntity
  8
0-0_補助線
  6
JWW_HOJO
 62
   120
370
     5
100
AcDbLine
 10
-1631.472600877705
 20
-1836.000252311294
 30
0.0
 11
-2878.690313435654
 21
-1836.000252311294
 31
0.0
  0
LINE
  5
113
330
1F
100
AcDbEntity
  8
0-4_枠
  6
Continuous
 62
   120
370
     5
100
AcDbLine
 10
-2765.081457156685
 20
-3087.000609939163
 30
0.0
 11
-2765.081457156685
 21
-1836.000252311294
 31
0.0
  0
LINE
  5
114
330
1F
100
AcDbEntity
  8
0-3_仕上
  6
Continuous
 62
     7
370
     9
100
AcDbLine
 10
-2615.081457156679
 20
-357.0001979518576
 30
0.0
 11
-1895.081457156679
 21
-87.00019795185796
 31
0.0
  0
LINE
  5
115
330
1F
100
AcDbEntity
  8
0-3_仕上
  6
Continuous
 62
    92
370
    13
100
AcDbLine
 10
-2615.081457156679
 20
-87.00019795185796
 30
0.0
 11
-1895.081457156679
 21
-87.00019795185796
 31
0.0
  0
LINE
  5
116
330
1F
100
AcDbEntity
  8
0-3_仕上
  6
Continuous
 62
    92
370
    13
100
AcDbLine
 10
-2615.081457156679
 20
-357.0001979518576
 30
0.0
 11
-1895.081457156679
 21
-357.0001979518576
 31
0.0
  0
LINE
  5
117
330
1F
100
AcDbEntity
  8
0-C_ﾊｯﾁ
  6
JWW_DASHED1
 62
   120
370
     5
100
AcDbLine
 10
-2690.081457156693
 20
-316.5033771011437
 30
0.0
 11
-2615.081457156694
 21
-241.503377101145
 31
0.0
  0
LINE
  5
118
330
1F
100
AcDbEntity
  8
0-C_ﾊｯﾁ
  6
JWW_DASHED1
 62
   120
370
     5
100
AcDbLine
 10
-2690.08145715668
 20
-274.0769702299314
 30
0.0
 11
-2615.081457156685
 21
-199.0769702299377
 31
0.0
  0
LINE
  5
119
330
1F
100
AcDbEntity
  8
0-C_ﾊｯﾁ
  6
JWW_DASHED1
 62
   120
370
     5
100
AcDbLine
 10
-2690.081457156685
 20
-231.6505633587369
 30
0.0
 11
-2615.081457156673
 21
-156.6505633587245
 31
0.0
  0
LINE
  5
11A
330
1F
100
AcDbEntity
  8
0-C_ﾊｯﾁ
  6
JWW_DASHED1
 62
   120
370
     5
100
AcDbLine
 10
-2690.081457156685
 20
-189.2241564875368
 30
0.0
 11
-2615.081457156672
 21
-114.2241564875232
 31
0.0
  0
LINE
  5
11B
330
1F
100
AcDbEntity
  8
0-C_ﾊｯﾁ
  6
JWW_DASHED1
 62
   120
370
     5
100
AcDbLine
 10
-2690.081457156672
 20
-146.7977496163232
 30
0.0
 11
-2615.081457156673
 21
-71.7977496163249
 31
0.0
  0
LINE
  5
11C
330
1F
100
AcDbEntity
  8
0-C_ﾊｯﾁ
  6
JWW_DASHED1
 62
   120
370
     5
100
AcDbLine
 10
-2690.081457156673
 20
-104.3713427451249
 30
0.0
 11
-2615.081457156679
 21
-29.37134274512999
 31
0.0
  0
LINE
  5
11D
330
1F
100
AcDbEntity
  8
0-C_ﾊｯﾁ
  6
JWW_DASHED1
 62
   120
370
     5
100
AcDbLine
 10
-2690.08145715668
 20
-61.94493587398625
 30
0.0
 11
-2615.081457156685
 21
13.05506412600863
 31
0.0
  0
LINE
  5
11E
330
1F
100
AcDbEntity
  8
0-C_ﾊｯﾁ
  6
JWW_DASHED1
 62
   120
370
     5
100
AcDbLine
 10
-2690.081457156685
 20
-19.5185290027888
 30
0.0
 11
-2615.081457156685
 21
55.48147099720779
 31
0.0
  0
LINE
  5
11F
330
1F
100
AcDbEntity
  8
0-C_ﾊｯﾁ
  6
JWW_DASHED1
 62
   120
370
     5
100
AcDbLine
 10
-2690.081457156685
 20
22.90787786840781
 30
0.0
 11
-2615.081457156687
 21
97.9078778684044
 31
0.0
  0
LINE
  5
120
330
1F
100
AcDbEntity
  8
0-C_ﾊｯﾁ
  6
JWW_DASHED1
 62
   120
370
     5
100
AcDbLine
 10
-2690.081457156679
 20
-358.9297839723301
 30
0.0
 11
-2615.081457156693
 21
-283.9297839723437
 31
0.0
  0
LINE
  5
121
330
1F
100
AcDbEntity
  8
0-C_ﾊｯﾁ
  6
JWW_DASHED1
 62
   120
370
     5
100
AcDbLine
 10
-2690.081457156679
 20
-401.3561908435275
 30
0.0
 11
-2615.081457156687
 21
-326.3561908435412
 31
0.0
  0
LINE
  5
122
330
1F
100
AcDbEntity
  8
0-C_ﾊｯﾁ
  6
JWW_DASHED1
 62
   120
370
     5
100
AcDbLine
 10
-2651.299057393816
 20
-405.0001979518578
 30
0.0
 11
-2615.081457156679
 21
-368.7825977147233
 31
0.0
  0
LINE
  5
123
330
1F
100
AcDbEntity
  8
0-4_枠
  6
Continuous
 62
   120
370
     5
100
AcDbLine
 10
-2741.081457156682
 20
-405.0001979518578
 30
0.0
 11
-2765.081457156685
 21
-405.0001979518578
 31
0.0
  0
LINE
  5
124
330
1F
100
AcDbEntity
  8
0-4_枠
  6
Continuous
 62
   120
370
     5
100
AcDbLine
 10
-2765.081457156685
 20
-1716.000252311294
 30
0.0
 11
-2765.081457156685
 21
-405.0001979518578
 31
0.0
  0
LINE
  5
125
330
1F
100
AcDbEntity
  8
0-B_寸法
  6
Continuous
 62
   120
370
     5
100
AcDbLine
 10
-2741.081457156682
 20
-857.530187637933
 30
0.0
 11
-1769.081457156682
 21
-857.530187637933
 31
0.0
  0
LINE
  5
126
330
1F
100
AcDbEntity
  8
0-B_寸法
  6
Continuous
 62
   120
370
     5
100
AcDbLine
 10
-2741.081457156682
 20
-857.530187637933
 30
0.0
 11
-2741.081457156682
 21
-650.3980488143321
 31
0.0
  0
LWPOLYLINE
  5
127
330
1F
100
AcDbEntity
  8
0-B_寸法
  6
Continuous
 62
     7
370
     9
100
AcDbPolyline
 90
        4
 70
     1
 43
6.0
 10
-2738.081457156682
 20
-857.530187637933
 42
0.4142135623731
 10
-2741.081457156682
 20
-854.5301876379328
 42
0.4142135623731
 10
-2744.081457156682
 20
-857.530187637933
 42
0.4142135623731
 10
-2741.081457156682
 20
-860.530187637933
 42
0.4142135623731
  0
LINE
  5
128
330
1F
100
AcDbEntity
  8
0-C_ﾊｯﾁ
  6
JWW_DASHED1
 62
   120
370
     5
100
AcDbLine
 10
-2690.081457156685
 20
65.33428473960782
 30
0.0
 11
-2615.081457156689
 21
140.3342847396036
 31
0.0
  0
LINE
  5
129
330
1F
100
AcDbEntity
  8
0-C_ﾊｯﾁ
  6
JWW_DASHED1
 62
   120
370
     5
100
AcDbLine
 10
-2690.081457156673
 20
107.7606916108181
 30
0.0
 11
-2615.081457156662
 21
182.7606916108309
 31
0.0
  0
LINE
  5
12A
330
1F
100
AcDbEntity
  8
0-C_ﾊｯﾁ
  6
JWW_DASHED1
 62
   120
370
     5
100
AcDbLine
 10
-2690.081457156665
 20
192.6135053532283
 30
0.0
 11
-2687.695160461754
 21
194.9998020481422
 31
0.0
  0
LINE
  5
12B
330
1F
100
AcDbEntity
  8
0-C_ﾊｯﾁ
  6
JWW_DASHED1
 62
   120
370
     5
100
AcDbLine
 10
-2690.081457156679
 20
150.1870984820172
 30
0.0
 11
-2645.268753590554
 21
194.9998020481422
 31
0.0
  0
LINE
  5
12C
330
1F
100
AcDbEntity
  8
0-3_仕上
  6
Continuous
 62
    40
370
    15
100
AcDbLine
 10
-2690.081457156679
 20
-405.0001979518578
 30
0.0
 11
-2690.081457156679
 21
194.9998020481422
 31
0.0
  0
LINE
  5
12D
330
1F
100
AcDbEntity
  8
0-3_仕上
  6
Continuous
 62
    40
370
    15
100
AcDbLine
 10
-2615.081457156679
 20
-405.0001979518578
 30
0.0
 11
-2615.081457156679
 21
194.9998020481422
 31
0.0
  0
LINE
  5
12E
330
1F
100
AcDbEntity
  8
0-B_寸法
  6
Continuous
 62
   120
370
     5
100
AcDbLine
 10
-1325.08145715668
 20
-3039.000100677076
 30
0.0
 11
-1535.08145715668
 21
-3039.000100677076
 31
0.0
  0
LWPOLYLINE
  5
12F
330
1F
100
AcDbEntity
  8
0-B_寸法
  6
Continuous
 62
     7
370
     9
100
AcDbPolyline
 90
        4
 70
     1
 43
6.0
 10
-1322.08145715668
 20
-3039.000100677076
 42
0.4142135623731
 10
-1325.08145715668
 20
-3036.000100677076
 42
0.4142135623731
 10
-1328.08145715668
 20
-3039.000100677076
 42
0.4142135623731
 10
-1325.08145715668
 20
-3042.000100677076
 42
0.4142135623731
  0
LINE
  5
130
330
1F
100
AcDbEntity
  8
0-B_寸法
  6
Continuous
 62
   120
370
     5
100
AcDbLine
 10
-1325.08145715668
 20
-405.0001979518578
 30
0.0
 11
-1325.08145715668
 21
-3069.000100677076
 31
0.0
  0
LINE
  5
131
330
1F
100
AcDbEntity
  8
0-0_補助線
  6
JWW_HOJO
 62
   120
370
     5
100
AcDbLine
 10
-1325.08145715668
 20
-3159.000403945509
 30
0.0
 11
-1325.08145715668
 21
194.9998020481422
 31
0.0
  0
LINE
  5
132
330
1F
100
AcDbEntity
  8
0-B_寸法
  6
Continuous
 62
   120
370
     5
100
AcDbLine
 10
-1115.08145715668
 20
-3087.000609939163
 30
0.0
 11
-1535.08145715668
 21
-3087.000609939163
 31
0.0
  0
LWPOLYLINE
  5
133
330
1F
100
AcDbEntity
  8
0-B_寸法
  6
Continuous
 62
     7
370
     9
100
AcDbPolyline
 90
        4
 70
     1
 43
6.0
 10
-1112.08145715668
 20
-3087.000609939163
 42
0.4142135623731
 10
-1115.08145715668
 20
-3084.000609939164
 42
0.4142135623731
 10
-1118.08145715668
 20
-3087.000609939163
 42
0.4142135623731
 10
-1115.08145715668
 20
-3090.000609939163
 42
0.4142135623731
  0
LWPOLYLINE
  5
134
330
1F
100
AcDbEntity
  8
0-B_寸法
  6
Continuous
 62
     7
370
     9
100
AcDbPolyline
 90
        4
 70
     1
 43
6.0
 10
-1112.08145715668
 20
-3159.000403945509
 42
0.4142135623731
 10
-1115.08145715668
 20
-3156.000403945509
 42
0.4142135623731
 10
-1118.08145715668
 20
-3159.000403945509
 42
0.4142135623731
 10
-1115.08145715668
 20
-3162.000403945509
 42
0.4142135623731
  0
LINE
  5
135
330
1F
100
AcDbEntity
  8
0-B_寸法
  6
Continuous
 62
   120
370
     5
100
AcDbLine
 10
-1115.08145715668
 20
-549.000197951859
 30
0.0
 11
-1115.08145715668
 21
-3159.000403945509
 31
0.0
  0
LINE
  5
136
330
1F
100
AcDbEntity
  8
0-4_枠
  6
Continuous
 62
    92
370
    13
100
AcDbLine
 10
-2736.838816469562
 20
-549.0001979518598
 30
0.0
 11
-2192.081457156682
 21
-549.0001979518598
 31
0.0
  0
LINE
  5
137
330
1F
100
AcDbEntity
  8
0-4_枠
  6
Continuous
 62
    92
370
    13
100
AcDbLine
 10
-2735.595740906957
 20
-546.0006328273458
 30
0.0
 11
-2192.081457156682
 21
-546.0006328273458
 31
0.0
  0
LINE
  5
138
330
1F
100
AcDbEntity
  8
0-C_ﾊｯﾁ
  6
Continuous
 62
   120
370
     5
100
AcDbLine
 10
-2169.881457156682
 20
-524.9058426469808
 30
0.0
 11
-2148.786693261016
 21
-546.0006328273488
 31
0.0
  0
LINE
  5
139
330
1F
100
AcDbEntity
  8
0-C_ﾊｯﾁ
  6
Continuous
 62
   120
370
     5
100
AcDbLine
 10
-2289.786952445998
 20
-405.0001979518578
 30
0.0
 11
-2192.081457156682
 21
-502.7058149851222
 31
0.0
  0
LINE
  5
13A
330
1F
100
AcDbEntity
  8
0-C_ﾊｯﾁ
  6
Continuous
 62
   120
370
     5
100
AcDbLine
 10
-2221.904651765919
 20
-405.0001979518578
 30
0.0
 11
-2080.904595240387
 21
-546.0006328273492
 31
0.0
  0
LINE
  5
13B
330
1F
100
AcDbEntity
  8
0-4_枠
  6
Continuous
 62
    92
370
    13
100
AcDbLine
 10
-1773.324097843802
 20
-549.0001979518598
 30
0.0
 11
-2036.081457156682
 21
-549.0001979518598
 31
0.0
  0
LINE
  5
13C
330
1F
100
AcDbEntity
  8
0-4_枠
  6
Continuous
 62
    92
370
    13
100
AcDbLine
 10
-1774.567173406406
 20
-546.0006328273458
 30
0.0
 11
-2036.081457156682
 21
-546.0006328273458
 31
0.0
  0
LINE
  5
13D
330
1F
100
AcDbEntity
  8
0-C_ﾊｯﾁ
  6
Continuous
 62
   120
370
     5
100
AcDbLine
 10
-2036.081457156682
 20
-522.9422249664331
 30
0.0
 11
-2013.023215287041
 21
-546.0006328273458
 31
0.0
  0
LINE
  5
13E
330
1F
100
AcDbEntity
  8
0-C_ﾊｯﾁ
  6
Continuous
 62
   120
370
     5
100
AcDbLine
 10
-2154.02263513835
 20
-405.0001979518578
 30
0.0
 11
-2058.281457156682
 21
-500.7420651534579
 31
0.0
  0
LINE
  5
13F
330
1F
100
AcDbEntity
  8
0-4_枠
  6
Continuous
 62
    92
370
    13
100
AcDbLine
 10
-2169.881457156682
 20
-549.0001979518598
 30
0.0
 11
-2058.281457156682
 21
-549.0001979518598
 31
0.0
  0
LINE
  5
140
330
1F
100
AcDbEntity
  8
0-4_枠
  6
Continuous
 62
    92
370
    13
100
AcDbLine
 10
-2169.881457156682
 20
-546.0006328273488
 30
0.0
 11
-2058.281457156682
 21
-546.0006328273488
 31
0.0
  0
LINE
  5
141
330
1F
100
AcDbEntity
  8
0-4_枠
  6
Continuous
 62
    92
370
    13
100
AcDbLine
 10
-2192.081457156682
 20
-498.0001979518597
 30
0.0
 11
-2169.881457156682
 21
-498.0001979518597
 31
0.0
  0
LINE
  5
142
330
1F
100
AcDbEntity
  8
0-4_枠
  6
Continuous
 62
    92
370
    13
100
AcDbLine
 10
-2058.281457156682
 20
-498.0001979518597
 30
0.0
 11
-2036.081457156682
 21
-498.0001979518597
 31
0.0
  0
LINE
  5
143
330
1F
100
AcDbEntity
  8
0-4_枠
  6
Continuous
 62
    92
370
    13
100
AcDbLine
 10
-2036.081457156682
 20
-498.0001979518597
 30
0.0
 11
-2036.081457156682
 21
-549.0001979518598
 31
0.0
  0
LINE
  5
144
330
1F
100
AcDbEntity
  8
0-4_枠
  6
Continuous
 62
    92
370
    13
100
AcDbLine
 10
-2058.281457156682
 20
-549.0001979518598
 30
0.0
 11
-2058.281457156682
 21
-498.0001979518597
 31
0.0
  0
LINE
  5
145
330
1F
100
AcDbEntity
  8
0-4_枠
  6
Continuous
 62
    92
370
    13
100
AcDbLine
 10
-2169.881457156682
 20
-549.0001979518598
 30
0.0
 11
-2169.881457156682
 21
-498.0001979518597
 31
0.0
  0
LINE
  5
146
330
1F
100
AcDbEntity
  8
0-4_枠
  6
Continuous
 62
    92
370
    13
100
AcDbLine
 10
-2192.081457156682
 20
-549.0001979518598
 30
0.0
 11
-2192.081457156682
 21
-498.0001979518597
 31
0.0
  0
LINE
  5
147
330
1F
100
AcDbEntity
  8
0-C_ﾊｯﾁ
  6
Continuous
 62
   120
370
     5
100
AcDbLine
 10
-2738.081892032173
 20
-499.7625676894273
 30
0.0
 11
-2691.843355197459
 21
-546.0006328273458
 31
0.0
  0
LINE
  5
148
330
1F
100
AcDbEntity
  8
0-C_ﾊｯﾁ
  6
Continuous
 62
   120
370
     5
100
AcDbLine
 10
-2738.081892032173
 20
-431.8817948692487
 30
0.0
 11
-2623.96150018647
 21
-546.0006328273458
 31
0.0
  0
LINE
  5
149
330
1F
100
AcDbEntity
  8
0-4_枠
  6
Continuous
 62
    92
370
    13
100
AcDbLine
 10
-2741.081457156682
 20
-405.0001979518578
 30
0.0
 11
-1769.081457156682
 21
-405.0001979518578
 31
0.0
  0
LINE
  5
14A
330
1F
100
AcDbEntity
  8
0-C_ﾊｯﾁ
  6
Continuous
 62
   120
370
     5
100
AcDbLine
 10
-1882.493468495963
 20
-405.0001979518578
 30
0.0
 11
-1772.08161737397
 21
-515.4121776271505
 31
0.0
  0
LINE
  5
14B
330
1F
100
AcDbEntity
  8
0-C_ﾊｯﾁ
  6
Continuous
 62
   120
370
     5
100
AcDbLine
 10
-1950.375356667818
 20
-405.0001979518578
 30
0.0
 11
-1809.375143069767
 21
-546.0006328273458
 31
0.0
  0
LINE
  5
14C
330
1F
100
AcDbEntity
  8
0-C_ﾊｯﾁ
  6
Continuous
 62
   120
370
     5
100
AcDbLine
 10
-2018.257570020503
 20
-405.0001979518578
 30
0.0
 11
-1877.257581729436
 21
-546.0006328273458
 31
0.0
  0
LINE
  5
14D
330
1F
100
AcDbEntity
  8
0-C_ﾊｯﾁ
  6
Continuous
 62
   120
370
     5
100
AcDbLine
 10
-2425.551947834329
 20
-405.0001979518578
 30
0.0
 11
-2284.551057834174
 21
-546.0006328273458
 31
0.0
  0
LINE
  5
14E
330
1F
100
AcDbEntity
  8
0-C_ﾊｯﾁ
  6
Continuous
 62
   120
370
     5
100
AcDbLine
 10
-2493.434786134067
 20
-405.0001979518578
 30
0.0
 11
-2352.432912845162
 21
-546.0006328273458
 31
0.0
  0
LINE
  5
14F
330
1F
100
AcDbEntity
  8
0-C_ﾊｯﾁ
  6
Continuous
 62
   120
370
     5
100
AcDbLine
 10
-2629.199079804721
 20
-405.0001979518578
 30
0.0
 11
-2488.197206515816
 21
-546.0006328273458
 31
0.0
  0
LINE
  5
150
330
1F
100
AcDbEntity
  8
0-C_ﾊｯﾁ
  6
Continuous
 62
   120
370
     5
100
AcDbLine
 10
-2561.317706298464
 20
-405.0001979518578
 30
0.0
 11
-2420.315351504828
 21
-546.0006328273458
 31
0.0
  0
LINE
  5
151
330
1F
100
AcDbEntity
  8
0-C_ﾊｯﾁ
  6
Continuous
 62
   120
370
     5
100
AcDbLine
 10
-2086.137391036605
 20
-405.0001979518578
 30
0.0
 11
-1945.140031833198
 21
-546.0006328273458
 31
0.0
  0
LINE
  5
152
330
1F
100
AcDbEntity
  8
0-C_ﾊｯﾁ
  6
Continuous
 62
   120
370
     5
100
AcDbLine
 10
-2357.669441124723
 20
-405.0001979518578
 30
0.0
 11
-2216.668619174507
 21
-546.0006328273458
 31
0.0
  0
LINE
  5
153
330
1F
100
AcDbEntity
  8
0-4_枠
  6
Continuous
 62
    92
370
    13
100
AcDbLine
 10
-2738.081892032169
 20
-543.5144791308251
 30
0.0
 11
-2738.081892032169
 21
-408.0001979518576
 31
0.0
  0
LINE
  5
154
330
1F
100
AcDbEntity
  8
0-4_枠
  6
Continuous
 62
    92
370
    13
100
AcDbLine
 10
-2735.595738366531
 20
-546.0006306652677
 30
0.0
 11
-2738.081892032169
 21
-543.5144791308251
 31
0.0
  0
LINE
  5
155
330
1F
100
AcDbEntity
  8
0-4_枠
  6
Continuous
 62
    92
370
    13
100
AcDbLine
 10
-2736.838814651112
 20
-549.0001943149534
 30
0.0
 11
-2741.081457156682
 21
-544.7575554462862
 31
0.0
  0
LINE
  5
156
330
1F
100
AcDbEntity
  8
0-4_枠
  6
Continuous
 62
    92
370
    13
100
AcDbLine
 10
-2741.081457156682
 20
-544.7575554462862
 30
0.0
 11
-2741.081457156682
 21
-405.0001979518578
 31
0.0
  0
LINE
  5
157
330
1F
100
AcDbEntity
  8
0-4_枠
  6
Continuous
 62
    92
370
    13
100
AcDbLine
 10
-2681.081457156682
 20
-408.0001979518576
 30
0.0
 11
-2738.081892032169
 21
-408.0001979518576
 31
0.0
  0
LINE
  5
158
330
1F
100
AcDbEntity
  8
0-4_枠
  6
Continuous
 62
    92
370
    13
100
AcDbLine
 10
-2681.081457156682
 20
-405.0001979518578
 30
0.0
 11
-2681.081457156682
 21
-408.0001979518576
 31
0.0
  0
LINE
  5
159
330
1F
100
AcDbEntity
  8
0-4_枠
  6
Continuous
 62
    92
370
    13
100
AcDbLine
 10
-1772.081617373966
 20
-543.5150767949035
 30
0.0
 11
-1772.081617373966
 21
-408.0001979518576
 31
0.0
  0
LINE
  5
15A
330
1F
100
AcDbEntity
  8
0-4_枠
  6
Continuous
 62
    92
370
    13
100
AcDbLine
 10
-1774.567173406409
 20
-546.0006328273458
 30
0.0
 11
-1772.081617373966
 21
-543.5150767949035
 31
0.0
  0
LINE
  5
15B
330
1F
100
AcDbEntity
  8
0-4_枠
  6
Continuous
 62
    92
370
    13
100
AcDbLine
 10
-1773.324097843802
 20
-549.0001979518577
 30
0.0
 11
-1769.081457156682
 21
-544.757557264739
 31
0.0
  0
LINE
  5
15C
330
1F
100
AcDbEntity
  8
0-4_枠
  6
Continuous
 62
    92
370
    13
100
AcDbLine
 10
-1769.081457156682
 20
-544.757557264739
 30
0.0
 11
-1769.081457156682
 21
-405.0001979518578
 31
0.0
  0
LINE
  5
15D
330
1F
100
AcDbEntity
  8
0-4_枠
  6
Continuous
 62
    92
370
    13
100
AcDbLine
 10
-1829.081457156682
 20
-408.0001979518576
 30
0.0
 11
-1829.081457156682
 21
-405.0001979518578
 31
0.0
  0
LINE
  5
15E
330
1F
100
AcDbEntity
  8
0-4_枠
  6
Continuous
 62
    92
370
    13
100
AcDbLine
 10
-1829.081457156682
 20
-408.0001979518576
 30
0.0
 11
-1772.081617373966
 21
-408.0001979518576
 31
0.0
  0
LINE
  5
15F
330
1F
100
AcDbEntity
  8
0-C_ﾊｯﾁ
  6
Continuous
 62
   120
370
     5
100
AcDbLine
 10
-2694.080904211261
 20
-408.0001979518576
 30
0.0
 11
-2556.079061526805
 21
-546.0006328273458
 31
0.0
  0
LINE
  5
160
330
1F
100
AcDbEntity
  8
0-C_ﾊｯﾁ
  6
Continuous
 62
   120
370
     5
100
AcDbLine
 10
-1811.611316161207
 20
-408.0001979518576
 30
0.0
 11
-1772.08161737397
 21
-447.5299427638043
 31
0.0
  0
LINE
  5
161
330
1F
100
AcDbEntity
  8
0-1_通り芯
  6
JWW_CENTER1
 62
   120
370
     5
100
AcDbLine
 10
-2885.081457156685
 20
-405.0001979518578
 30
0.0
 11
-1535.08145715668
 21
-405.0001979518578
 31
0.0
  0
TEXT
  5
162
330
1F
100
AcDbEntity
  8
0-B_寸法
  6
Continuous
 62
     7
370
     0
100
AcDbText
 10
-1355.299161743677
 20
-528.4260749262859
 30
0.0
 40
91.44
  1
24
 50
90.0
  7
ＭＳ ゴシック
100
AcDbText
  0
TEXT
  5
163
330
1F
100
AcDbEntity
  8
0-B_寸法
  6
Continuous
 62
     7
370
     0
100
AcDbText
 10
-1354.979451716176
 20
-632.3101491622672
 30
0.0
 40
91.44
  1
3
 50
90.0
  7
ＭＳ ゴシック
100
AcDbText
  0
TEXT
  5
164
330
1F
100
AcDbEntity
  8
0-B_寸法
  6
Continuous
 62
     7
370
     0
100
AcDbText
 10
-2345.081457156684
 20
-825.610187637933
 30
0.0
 40
91.44
  1
162
  7
ＭＳ ゴシック
100
AcDbText
  0
TEXT
  5
165
330
1F
100
AcDbEntity
  8
0-B_寸法
  6
Continuous
 62
     7
370
     0
100
AcDbText
 10
-1357.056985692248
 20
-3028.816284649364
 30
0.0
 40
91.44
  1
5
 50
90.0
  7
ＭＳ ゴシック
100
AcDbText
  0
TEXT
  5
166
330
1F
100
AcDbEntity
  8
0-B_寸法
  6
Continuous
 62
     7
370
     0
100
AcDbText
 10
-1143.990220996502
 20
-3059.904644590086
 30
0.0
 40
91.44
  1
3
 50
90.0
  7
ＭＳ ゴシック
100
AcDbText
  0
TEXT
  5
167
330
1F
100
AcDbEntity
  8
0-B_寸法
  6
Continuous
 62
     7
370
     0
100
AcDbText
 10
-1143.990220996502
 20
-3286.843902205993
 30
0.0
 40
91.44
  1
12
 50
90.0
  7
ＭＳ ゴシック
100
AcDbText
  0
LINE
  5
168
330
1F
100
AcDbEntity
  8
0-6_扉
  6
Continuous
 62
   200
370
    20
100
AcDbLine
 10
-2021.081457156678
 20
-567.0001979518571
 30
0.0
 11
-1805.08145715668
 21
-567.0001979518571
 31
0.0
  0
LINE
  5
169
330
1F
100
AcDbEntity
  8
0-6_扉
  6
Continuous
 62
   200
370
    20
100
AcDbLine
 10
-2021.081457156678
 20
-567.0001979518571
 30
0.0
 11
-2021.081457156678
 21
-1716.000252311294
 31
0.0
  0
LINE
  5
16A
330
1F
100
AcDbEntity
  8
0-6_扉
  6
Continuous
 62
   200
370
    20
100
AcDbLine
 10
-1805.08145715668
 20
-567.0001979518571
 30
0.0
 11
-1805.08145715668
 21
-1716.000252311294
 31
0.0
  0
LINE
  5
16B
330
1F
100
AcDbEntity
  8
0-B_寸法
  6
Continuous
 62
   120
370
     5
100
AcDbLine
 10
-1805.08145715668
 20
-1145.289292665547
 30
0.0
 11
-2021.081457156678
 21
-1145.289292665547
 31
0.0
  0
LWPOLYLINE
  5
16C
330
1F
100
AcDbEntity
  8
0-B_寸法
  6
Continuous
 62
     7
370
     9
100
AcDbPolyline
 90
        4
 70
     1
 43
6.0
 10
-1802.08145715668
 20
-1145.289292665547
 42
0.4142135623731
 10
-1805.08145715668
 20
-1142.289292665547
 42
0.4142135623731
 10
-1808.08145715668
 20
-1145.289292665547
 42
0.4142135623731
 10
-1805.08145715668
 20
-1148.289292665547
 42
0.4142135623731
  0
LWPOLYLINE
  5
16D
330
1F
100
AcDbEntity
  8
0-B_寸法
  6
Continuous
 62
     7
370
     9
100
AcDbPolyline
 90
        4
 70
     1
 43
6.0
 10
-2018.081457156678
 20
-1145.289292665547
 42
0.4142135623731
 10
-2021.081457156678
 20
-1142.289292665547
 42
0.4142135623731
 10
-2024.081457156677
 20
-1145.289292665547
 42
0.4142135623731
 10
-2021.081457156678
 20
-1148.289292665547
 42
0.4142135623731
  0
LINE
  5
16E
330
1F
100
AcDbEntity
  8
0-6_扉
  6
Continuous
 62
   200
370
    20
100
AcDbLine
 10
-2021.081457156678
 20
-3039.000100677076
 30
0.0
 11
-1805.08145715668
 21
-3039.000100677076
 31
0.0
  0
LINE
  5
16F
330
1F
100
AcDbEntity
  8
0-6_扉
  6
Continuous
 62
   200
370
    20
100
AcDbLine
 10
-2021.081457156678
 20
-1836.000252311294
 30
0.0
 11
-2021.081457156678
 21
-3039.000100677076
 31
0.0
  0
LINE
  5
170
330
1F
100
AcDbEntity
  8
0-6_扉
  6
Continuous
 62
   200
370
    20
100
AcDbLine
 10
-1805.08145715668
 20
-1836.000252311294
 30
0.0
 11
-1805.08145715668
 21
-3039.000100677076
 31
0.0
  0
TEXT
  5
171
330
1F
100
AcDbEntity
  8
0-B_寸法
  6
Continuous
 62
     7
370
   211
100
AcDbText
 10
-1973.081457156679
 20
-1113.369292665547
 30
0.0
 40
91.44
  1
36
  7
ＭＳ ゴシック
100
AcDbText
  0
LINE
  5
172
330
1F
100
AcDbEntity
  8
0-4_枠
  6
Continuous
 62
    92
370
    13
100
AcDbLine
 10
-1862.08145715668
 20
-3159.000403945509
 30
0.0
 11
-1862.08145715668
 21
-3123.000135009352
 31
0.0
  0
LINE
  5
173
330
1F
100
AcDbEntity
  8
0-4_枠
  6
Continuous
 62
    92
370
    13
100
AcDbLine
 10
-2156.08145715668
 20
-3159.000403945509
 30
0.0
 11
-2156.08145715668
 21
-3123.000135009352
 31
0.0
  0
LINE
  5
174
330
1F
100
AcDbEntity
  8
0-4_枠
  6
Continuous
 62
    92
370
    13
100
AcDbLine
 10
-2156.08145715668
 20
-3123.000135009352
 30
0.0
 11
-1862.081411380316
 21
-3123.000135009352
 31
0.0
  0
LINE
  5
175
330
1F
100
AcDbEntity
  8
0-4_枠
  6
Continuous
 62
    92
370
    13
100
AcDbLine
 10
-2216.081708926698
 20
-3072.000117843214
 30
0.0
 11
-1802.081205386662
 21
-3072.000117843214
 31
0.0
  0
ARC
  5
176
330
1F
100
AcDbEntity
  8
0-4_枠
  6
Continuous
 62
    92
370
    13
100
AcDbCircle
 10
-1802.08145715668
 20
-3087.000403945509
 30
0.0
 40
18.0
100
AcDbArc
 50
0.0000000000000127
 51
90.00000000000001
  0
LINE
  5
177
330
1F
100
AcDbEntity
  8
0-4_枠
  6
Continuous
 62
    92
370
    13
100
AcDbLine
 10
-2216.08145715668
 20
-3069.000403945509
 30
0.0
 11
-1802.08145715668
 21
-3069.000403945509
 31
0.0
  0
ARC
  5
178
330
1F
100
AcDbEntity
  8
0-4_枠
  6
Continuous
 62
    92
370
    13
100
AcDbCircle
 10
-2216.08145715668
 20
-3087.000403945509
 30
0.0
 40
18.0
100
AcDbArc
 50
90.0
 51
180.0
  0
ARC
  5
179
330
1F
100
AcDbEntity
  8
0-4_枠
  6
Continuous
 62
    92
370
    13
100
AcDbCircle
 10
-2216.08145715668
 20
-3087.000403945509
 30
0.0
 40
15.0
100
AcDbArc
 50
90.0
 51
180.0
  0
ARC
  5
17A
330
1F
100
AcDbEntity
  8
0-4_枠
  6
Continuous
 62
    92
370
    13
100
AcDbCircle
 10
-1802.08145715668
 20
-3087.000403945509
 30
0.0
 40
15.0
100
AcDbArc
 50
0.0000000000000127
 51
90.00000000000001
  0
LINE
  5
17B
330
1F
100
AcDbEntity
  8
0-C_ﾊｯﾁ
  6
Continuous
 62
   120
370
     5
100
AcDbLine
 10
-1930.111540604971
 20
-3159.000403945501
 30
0.0
 11
-1843.111254502694
 21
-3072.000117843224
 31
0.0
  0
LINE
  5
17C
330
1F
100
AcDbEntity
  8
0-C_ﾊｯﾁ
  6
Continuous
 62
   120
370
     5
100
AcDbLine
 10
-1989.508510224626
 20
-3159.000403945511
 30
0.0
 11
-1902.508224122335
 21
-3072.000117843219
 31
0.0
  0
LINE
  5
17D
330
1F
100
AcDbEntity
  8
0-C_ﾊｯﾁ
  6
Continuous
 62
   120
370
     5
100
AcDbLine
 10
-2048.905479844314
 20
-3159.000403945496
 30
0.0
 11
-1961.905193742037
 21
-3072.000117843219
 31
0.0
  0
LINE
  5
17E
330
1F
100
AcDbEntity
  8
0-C_ﾊｯﾁ
  6
Continuous
 62
   120
370
     5
100
AcDbLine
 10
-2108.302449463969
 20
-3159.000403945506
 30
0.0
 11
-2021.302163361677
 21
-3072.000117843213
 31
0.0
  0
LINE
  5
17F
330
1F
100
AcDbEntity
  8
0-C_ﾊｯﾁ
  6
Continuous
 62
   120
370
     5
100
AcDbLine
 10
-2167.699419083684
 20
-3159.000403945519
 30
0.0
 11
-2080.699132981393
 21
-3072.000117843224
 31
0.0
  0
LINE
  5
180
330
1F
100
AcDbEntity
  8
0-C_ﾊｯﾁ
  6
Continuous
 62
   120
370
     5
100
AcDbLine
 10
-2214.493358323024
 20
-3087.000403945509
 30
0.0
 11
-2199.493072220735
 21
-3072.000117843222
 31
0.0
  0
LINE
  5
181
330
1F
100
AcDbEntity
  8
0-4_枠
  6
Continuous
 62
    92
370
    13
100
AcDbLine
 10
-2210.081457156679
 20
-3087.000403945509
 30
0.0
 11
-2234.081457156683
 21
-3087.000403945509
 31
0.0
  0
LINE
  5
182
330
1F
100
AcDbEntity
  8
0-4_枠
  6
Continuous
 62
    92
370
    13
100
AcDbLine
 10
-2210.081457156679
 20
-3159.000403945509
 30
0.0
 11
-2210.081457156679
 21
-3087.000403945509
 31
0.0
  0
LINE
  5
183
330
1F
100
AcDbEntity
  8
0-4_枠
  6
Continuous
 62
    92
370
    13
100
AcDbLine
 10
-1808.08145715668
 20
-3159.000403945509
 30
0.0
 11
-2210.081457156679
 21
-3159.000403945509
 31
0.0
  0
LINE
  5
184
330
1F
100
AcDbEntity
  8
0-4_枠
  6
Continuous
 62
    92
370
    13
100
AcDbLine
 10
-1808.08145715668
 20
-3159.000403945509
 30
0.0
 11
-1808.08145715668
 21
-3087.000403945509
 31
0.0
  0
LINE
  5
185
330
1F
100
AcDbEntity
  8
0-4_枠
  6
Continuous
 62
    92
370
    13
100
AcDbLine
 10
-1808.08145715668
 20
-3087.000403945509
 30
0.0
 11
-1784.081457156683
 21
-3087.000403945509
 31
0.0
  0
LINE
  5
186
330
1F
100
AcDbEntity
  8
0-C_ﾊｯﾁ
  6
Continuous
 62
   120
370
     5
100
AcDbLine
 10
-2210.081457156679
 20
-3141.985472398863
 30
0.0
 11
-2140.09610260102
 21
-3072.000117843208
 31
0.0
  0
LINE
  5
187
330
1F
100
AcDbEntity
  8
0-C_ﾊｯﾁ
  6
Continuous
 62
   120
370
     5
100
AcDbLine
 10
-1870.714570985331
 20
-3159.000403945509
 30
0.0
 11
-1808.08145715668
 21
-3096.367290116862
 31
0.0
  0
LINE
  5
188
330
1F
100
AcDbEntity
  8
0-B_寸法
  6
Continuous
 62
   120
370
     5
100
AcDbLine
 10
-2216.08145715668
 20
-3399.000403945509
 30
0.0
 11
-2210.081457156679
 21
-3399.000403945509
 31
0.0
  0
LWPOLYLINE
  5
189
330
1F
100
AcDbEntity
  8
0-B_寸法
  6
Continuous
 62
     7
370
     9
100
AcDbPolyline
 90
        4
 70
     1
 43
6.0
 10
-2213.08145715668
 20
-3399.000403945509
 42
0.4142135623731
 10
-2216.08145715668
 20
-3396.000403945509
 42
0.4142135623731
 10
-2219.08145715668
 20
-3399.000403945509
 42
0.4142135623731
 10
-2216.08145715668
 20
-3402.000403945509
 42
0.4142135623731
  0
LWPOLYLINE
  5
18A
330
1F
100
AcDbEntity
  8
0-B_寸法
  6
Continuous
 62
     7
370
     9
100
AcDbPolyline
 90
        4
 70
     1
 43
6.0
 10
-2207.08145715668
 20
-3399.000403945509
 42
0.4142135623731
 10
-2210.081457156679
 20
-3396.000403945509
 42
0.4142135623731
 10
-2213.081457156679
 20
-3399.000403945509
 42
0.4142135623731
 10
-2210.081457156679
 20
-3402.000403945509
 42
0.4142135623731
  0
LINE
  5
18B
330
1F
100
AcDbEntity
  8
0-B_寸法
  6
Continuous
 62
   120
370
     5
100
AcDbLine
 10
-2216.08145715668
 20
-3399.000403945509
 30
0.0
 11
-2216.08145715668
 21
-3219.000403945509
 31
0.0
  0
LINE
  5
18C
330
1F
100
AcDbEntity
  8
0-B_寸法
  6
Continuous
 62
   120
370
     5
100
AcDbLine
 10
-2210.081457156679
 20
-3399.000403945509
 30
0.0
 11
-2210.081457156679
 21
-3219.000403945509
 31
0.0
  0
LINE
  5
18D
330
1F
100
AcDbEntity
  8
0-B_寸法
  6
Continuous
 62
   120
370
     5
100
AcDbLine
 10
-2210.081457156679
 20
-3399.000403945509
 30
0.0
 11
-1808.08145715668
 21
-3399.000403945509
 31
0.0
  0
LWPOLYLINE
  5
18E
330
1F
100
AcDbEntity
  8
0-B_寸法
  6
Continuous
 62
     7
370
     9
100
AcDbPolyline
 90
        4
 70
     1
 43
6.0
 10
-1805.08145715668
 20
-3399.000403945509
 42
0.4142135623731
 10
-1808.08145715668
 20
-3396.000403945509
 42
0.4142135623731
 10
-1811.08145715668
 20
-3399.000403945509
 42
0.4142135623731
 10
-1808.08145715668
 20
-3402.000403945509
 42
0.4142135623731
  0
LINE
  5
18F
330
1F
100
AcDbEntity
  8
0-B_寸法
  6
Continuous
 62
   120
370
     5
100
AcDbLine
 10
-1808.08145715668
 20
-3399.000403945509
 30
0.0
 11
-1808.08145715668
 21
-3219.000403945509
 31
0.0
  0
TEXT
  5
190
330
1F
100
AcDbEntity
  8
0-B_寸法
  6
Continuous
 62
     7
370
   211
100
AcDbText
 10
-2072.83145715668
 20
-3367.080403945509
 30
0.0
 40
91.44
  1
67
 41
1.0625
  7
ＭＳ ゴシック
100
AcDbText
  0
LINE
  5
191
330
1F
100
AcDbEntity
  8
0-B_寸法
  6
Continuous
 62
   120
370
     5
100
AcDbLine
 10
-1808.08145715668
 20
-3399.000403945509
 30
0.0
 11
-1802.081457156681
 21
-3399.000403945509
 31
0.0
  0
LWPOLYLINE
  5
192
330
1F
100
AcDbEntity
  8
0-B_寸法
  6
Continuous
 62
     7
370
     9
100
AcDbPolyline
 90
        4
 70
     1
 43
6.0
 10
-1799.081457156681
 20
-3399.000403945509
 42
0.4142135623731
 10
-1802.081457156681
 20
-3396.000403945509
 42
0.4142135623731
 10
-1805.081457156681
 20
-3399.000403945509
 42
0.4142135623731
 10
-1802.081457156681
 20
-3402.000403945509
 42
0.4142135623731
  0
LINE
  5
193
330
1F
100
AcDbEntity
  8
0-B_寸法
  6
Continuous
 62
   120
370
     5
100
AcDbLine
 10
-1802.081457156681
 20
-3399.000403945509
 30
0.0
 11
-1802.081457156681
 21
-3219.000403945509
 31
0.0
  0
TEXT
  5
194
330
1F
100
AcDbEntity
  8
0-B_寸法
  6
Continuous
 62
     7
370
   211
100
AcDbText
 10
-2297.08145715668
 20
-3367.080403945509
 30
0.0
 40
91.44
  1
1
  7
ＭＳ ゴシック
100
AcDbText
  0
TEXT
  5
195
330
1F
100
AcDbEntity
  8
0-B_寸法
  6
Continuous
 62
     7
370
   211
100
AcDbText
 10
-1781.081457156681
 20
-3367.080403945509
 30
0.0
 40
91.44
  1
1
  7
ＭＳ ゴシック
100
AcDbText
  0
LINE
  5
196
330
1F
100
AcDbEntity
  8
0-1_通り芯
  6
JWW_CENTER1
 62
   120
370
     5
100
AcDbLine
 10
-2255.081457156679
 20
-3159.000403945509
 30
0.0
 11
-2255.081457156679
 21
194.9998020481422
 31
0.0
  0
LINE
  5
197
330
1F
100
AcDbEntity
  8
0-0_補助線
  6
JWW_HOJO
 62
   120
370
     5
100
AcDbLine
 10
-1913.081457156673
 20
-3159.000403945509
 30
0.0
 11
-1913.081457156673
 21
194.9998020481422
 31
0.0
  0
INSERT
  5
198
330
1F
100
AcDbEntity
  8
0-0_補助線
  6
Continuous
 62
     7
370
     9
100
AcDbBlockReference
  2
2@@SfigorgFlag@@4_0-0_
 10
-2104.61277256511
 20
-549.9262760268693
 30
0.0
 41
30.0
 42
30.0
 50
90.0
  0
TEXT
  5
199
330
1F
100
AcDbEntity
  8
0-B_寸法
  6
Continuous
 62
     7
370
     0
100
AcDbText
 10
-930.9161075833833
 20
-2319.000252311292
 30
0.0
 40
91.44
  1
枠外＝2,042(2,242)
 50
90.0
  7
ＭＳ ゴシック
100
AcDbText
  0
TEXT
  5
19A
330
1F
100
AcDbEntity
  8
0-B_寸法
  6
Continuous
 62
     7
370
   211
100
AcDbText
 10
-1147.00145715668
 20
-2319.000252311293
 30
0.0
 40
91.44
  1
枠内＝2,003(2,203)
 50
90.0
  7
ＭＳ ゴシック
100
AcDbText
  0
TEXT
  5
19B
330
1F
100
AcDbEntity
  8
0-B_寸法
  6
Continuous
 62
     7
370
     0
100
AcDbText
 10
-1355.082277801358
 20
-2319.000252311293
 30
0.0
 40
91.44
  1
ＤＨ＝1,995(2,195)
 50
90.0
  7
ＭＳ ゴシック
100
AcDbText
  0
TEXT
  5
19C
330
1F
100
AcDbEntity
  8
0-A_文字
  6
Continuous
 62
     7
370
     9
100
AcDbText
 10
-3095.081457145493
 20
300.4560119899824
 30
0.0
 40
91.44
  1
■縦断面図
 41
1.1
  7
ＭＳ ゴシック
100
AcDbText
  0
TEXT
  5
19D
330
1F
100
AcDbEntity
  8
0-A_文字
  6
Continuous
 62
     7
370
     0
100
AcDbText
 10
-2009.447185336039
 20
-3615.08967740415
 30
0.0
 40
68.58
  1
※(　)内寸法はハイドア
 41
1.151515151515152
  7
ＭＳ ゴシック
100
AcDbText
  0
LINE
  5
19E
330
1F
100
AcDbEntity
  8
F-0_補助線
  6
JWW_HOJO
 62
   120
370
     5
100
AcDbLine
 10
-5659.999495325861
 20
4424.999604096284
 30
0.0
 11
-5659.999495325861
 21
-4455.0
 31
0.0
  0
LINE
  5
19F
330
1F
100
AcDbEntity
  8
F-0_補助線
  6
JWW_HOJO
 62
   120
370
     5
100
AcDbLine
 10
-6140.081333436773
 20
194.9998020481422
 30
0.0
 11
6159.917676803936
 21
194.9998020481422
 31
0.0
  0
LINE
  5
1A0
330
1F
100
AcDbEntity
  8
F-0_補助線
  6
JWW_HOJO
 62
   120
370
     5
100
AcDbLine
 10
9.918171683581818
 20
-4455.0
 30
0.0
 11
9.918171683581818
 21
4424.999604096284
 31
0.0
  0
LINE
  5
1A1
330
1F
100
AcDbEntity
  8
F-0_補助線
  6
JWW_HOJO
 62
   120
370
     5
100
AcDbLine
 10
-200.0818283164182
 20
-3159.000197951857
 30
0.0
 11
-200.0818283164182
 21
194.9998020481422
 31
0.0
  0
LINE
  5
1A2
330
1F
100
AcDbEntity
  8
F-0_補助線
  6
JWW_HOJO
 62
   120
370
     5
100
AcDbLine
 10
219.9181716835818
 20
-3159.000197951857
 30
0.0
 11
219.9181716835818
 21
194.9998020481422
 31
0.0
  0
LINE
  5
1A3
330
1F
100
AcDbEntity
  8
F-0_補助線
  6
JWW_HOJO
 62
   120
370
     5
100
AcDbLine
 10
5679.835838693025
 20
4000.000181455871
 30
0.0
 11
5679.835838693025
 21
-4455.0
 31
0.0
  0
LINE
  5
1A4
330
1F
100
AcDbEntity
  8
F-0_補助線
  6
JWW_HOJO
 62
   120
370
     5
100
AcDbLine
 10
-6140.081333436773
 20
-3159.000197951857
 30
0.0
 11
6159.917676803936
 21
-3159.000197951857
 31
0.0
  0
LINE
  5
1A5
330
1F
100
AcDbEntity
  8
F-0_補助線
  6
JWW_HOJO
 62
   120
370
     5
100
AcDbLine
 10
-6140.081333436773
 20
2438.999683277028
 30
0.0
 11
6159.917676803936
 21
2438.999683277028
 31
0.0
  0
LINE
  5
1A6
330
1F
100
AcDbEntity
  8
F-0_補助線
  6
JWW_HOJO
 62
   120
370
     5
100
AcDbLine
 10
-6140.081333436773
 20
3730.000181455871
 30
0.0
 11
6159.917676803936
 21
3730.000181455871
 31
0.0
  0
LINE
  5
1A7
330
1F
100
AcDbEntity
  8
F-0_補助線
  6
JWW_HOJO
 62
   120
370
     5
100
AcDbLine
 10
-6140.081333436773
 20
4000.000181455871
 30
0.0
 11
6159.917676803936
 21
4000.000181455871
 31
0.0
  0
TEXT
  5
1A8
330
1F
100
AcDbEntity
  8
1-B_寸法
  6
Continuous
 62
     7
370
     0
100
AcDbText
 10
3467.101667782747
 20
-2465.208943474043
 30
0.0
 40
91.44
  1
R3
  7
ＭＳ ゴシック
100
AcDbText
  0
TEXT
  5
1A9
330
1F
100
AcDbEntity
  8
1-B_寸法
  6
Continuous
 62
     7
370
     0
100
AcDbText
 10
2177.101896682748
 20
-2465.208943474043
 30
0.0
 40
91.44
  1
R3
  7
ＭＳ ゴシック
100
AcDbText
  0
LINE
  5
1AA
330
1F
100
AcDbEntity
  8
0-3_仕上
  6
Continuous
 62
   120
370
     5
100
AcDbLine
 10
3459.918171683581
 20
-1170.616614710039
 30
0.0
 11
3138.77103023365
 21
-1170.616614710039
 31
0.0
  0
LINE
  5
1AB
330
1F
100
AcDbEntity
  8
0-3_仕上
  6
Continuous
 62
   120
370
     5
100
AcDbLine
 10
3459.918171683581
 20
-1570.233237461873
 30
0.0
 11
3138.77103023365
 21
-1570.233237461873
 31
0.0
  0
LINE
  5
1AC
330
1F
100
AcDbEntity
  8
0-3_仕上
  6
Continuous
 62
   120
370
     5
100
AcDbLine
 10
3459.918171683581
 20
-1370.424926085957
 30
0.0
 11
3138.77103023365
 21
-1370.424926085957
 31
0.0
  0
LINE
  5
1AD
330
1F
100
AcDbEntity
  8
0-3_仕上
  6
Continuous
 62
   120
370
     5
100
AcDbLine
 10
3459.918171683581
 20
-1770.041548837791
 30
0.0
 11
3138.77103023365
 21
-1770.041548837791
 31
0.0
  0
LINE
  5
1AE
330
1F
100
AcDbEntity
  8
0-3_仕上
  6
Continuous
 62
   120
370
     5
100
AcDbLine
 10
3459.918171683581
 20
-970.8083033341205
 30
0.0
 11
3138.77103023365
 21
-970.8083033341205
 31
0.0
  0
LINE
  5
1AF
330
1F
100
AcDbEntity
  8
0-3_仕上
  6
Continuous
 62
   120
370
     5
100
AcDbLine
 10
2139.918171683582
 20
-1370.424926085957
 30
0.0
 11
2724.77103023365
 21
-1370.424926085957
 31
0.0
  0
LINE
  5
1B0
330
1F
100
AcDbEntity
  8
0-3_仕上
  6
Continuous
 62
   120
370
     5
100
AcDbLine
 10
2139.918171683582
 20
-1170.616614710039
 30
0.0
 11
2724.77103023365
 21
-1170.616614710039
 31
0.0
  0
LINE
  5
1B1
330
1F
100
AcDbEntity
  8
0-3_仕上
  6
Continuous
 62
   120
370
     5
100
AcDbLine
 10
2139.918171683582
 20
-970.8083033341205
 30
0.0
 11
2724.77103023365
 21
-970.8083033341205
 31
0.0
  0
LINE
  5
1B2
330
1F
100
AcDbEntity
  8
0-3_仕上
  6
Continuous
 62
   120
370
     5
100
AcDbLine
 10
2139.918171683582
 20
-1770.041548837791
 30
0.0
 11
2724.77103023365
 21
-1770.041548837791
 31
0.0
  0
LINE
  5
1B3
330
1F
100
AcDbEntity
  8
0-3_仕上
  6
Continuous
 62
   120
370
     5
100
AcDbLine
 10
2139.918171683582
 20
-1570.233237461873
 30
0.0
 11
2724.77103023365
 21
-1570.233237461873
 31
0.0
  0
TEXT
  5
1B4
330
1F
100
AcDbEntity
  8
0-A_文字
  6
Continuous
 62
     7
370
     0
100
AcDbText
 10
3227.418171683581
 20
-1513.409081773913
 30
0.0
 40
91.44
  1
床
  7
ＭＳ ゴシック
100
AcDbText
  0
TEXT
  5
1B5
330
1F
100
AcDbEntity
  8
0-A_文字
  6
Continuous
 62
     7
370
     0
100
AcDbText
 10
2252.418171683581
 20
-1513.409081773913
 30
0.0
 40
91.44
  1
床
  7
ＭＳ ゴシック
100
AcDbText
  0
TEXT
  5
1B6
330
1F
100
AcDbEntity
  8
0-A_文字
  6
Continuous
 62
     7
370
     0
100
AcDbText
 10
2379.918171683585
 20
-667.6284640340743
 30
0.0
 40
91.44
  1
壁(枠)センター
  7
ＭＳ ゴシック
100
AcDbText
  0
TEXT
  5
1B7
330
1F
100
AcDbEntity
  8
0-A_文字
  6
Continuous
 62
     7
370
     0
100
AcDbText
 10
2199.918171683581
 20
-424.079991958202
 30
0.0
 40
91.44
  1
フロアー貼り込み位置
  7
ＭＳ ゴシック
100
AcDbText
  0
LINE
  5
1B8
330
1F
100
AcDbEntity
  8
0-A_文字
  6
JWW_HOJO
 62
   120
370
     5
100
AcDbLine
 10
2799.91817168358
 20
-290.999991958202
 30
0.0
 11
2799.91817168358
 21
-470.999991958202
 31
0.0
  0
TEXT
  5
1B9
330
1F
100
AcDbEntity
  8
1-B_寸法
  6
Continuous
 62
     7
370
   211
100
AcDbText
 10
2818.351782232748
 20
-3049.086431100688
 30
0.0
 40
91.44
  1
67
 41
1.0625
  7
ＭＳ ゴシック
100
AcDbText
  0
TEXT
  5
1BA
330
1F
100
AcDbEntity
  8
1-B_寸法
  6
Continuous
 62
     7
370
     0
100
AcDbText
 10
3463.728641767838
 20
-2870.208714583125
 30
0.0
 40
91.44
  1
4
  7
ＭＳ ゴシック
100
AcDbText
  0
TEXT
  5
1BB
330
1F
100
AcDbEntity
  8
1-B_寸法
  6
Continuous
 62
     7
370
     0
100
AcDbText
 10
3287.101896673666
 20
-2870.208714583125
 30
0.0
 40
91.44
  1
9
  7
ＭＳ ゴシック
100
AcDbText
  0
TEXT
  5
1BC
330
1F
100
AcDbEntity
  8
1-B_寸法
  6
Continuous
 62
     7
370
     0
100
AcDbText
 10
2822.101896673666
 20
-2870.208714583125
 30
0.0
 40
91.44
  1
49
  7
ＭＳ ゴシック
100
AcDbText
  0
TEXT
  5
1BD
330
1F
100
AcDbEntity
  8
1-B_寸法
  6
Continuous
 62
     7
370
     0
100
AcDbText
 10
2424.601896673666
 20
-2870.208714583125
 30
0.0
 40
91.44
  1
9
  7
ＭＳ ゴシック
100
AcDbText
  0
TEXT
  5
1BE
330
1F
100
AcDbEntity
  8
1-B_寸法
  6
Continuous
 62
     7
370
     0
100
AcDbText
 10
2245.876234563229
 20
-2870.208714583125
 30
0.0
 40
91.44
  1
4
  7
ＭＳ ゴシック
100
AcDbText
  0
TEXT
  5
1BF
330
1F
100
AcDbEntity
  8
1-B_寸法
  6
Continuous
 62
     7
370
     0
100
AcDbText
 10
2137.681896673666
 20
-2722.12897207519
 30
0.0
 40
91.44
  1
12
 50
90.0
  7
ＭＳ ゴシック
100
AcDbText
  0
TEXT
  5
1C0
330
1F
100
AcDbEntity
  8
1-B_寸法
  6
Continuous
 62
     7
370
     0
100
AcDbText
 10
3562.681667782747
 20
-2699.627820513453
 30
0.0
 40
91.44
  1
15
 50
90.0
  7
ＭＳ ゴシック
100
AcDbText
  0
TEXT
  5
1C1
330
1F
100
AcDbEntity
  8
1-B_寸法
  6
Continuous
 62
     7
370
     0
100
AcDbText
 10
2137.681896673666
 20
-2579.628078005519
 30
0.0
 40
91.44
  1
3
 50
90.0
  7
ＭＳ ゴシック
100
AcDbText
  0
TEXT
  5
1C2
330
1F
100
AcDbEntity
  8
1-B_寸法
  6
Continuous
 62
     7
370
     0
100
AcDbText
 10
2822.101896673666
 20
-2345.208943474043
 30
0.0
 40
91.44
  1
75
  7
ＭＳ ゴシック
100
AcDbText
  0
LINE
  5
1C3
330
1F
100
AcDbEntity
  8
1-B_寸法
  6
Continuous
 62
   120
370
     5
100
AcDbLine
 10
2379.601896673666
 20
-2910.329994605409
 30
0.0
 11
2379.601896673666
 21
-3081.006431100688
 31
0.0
  0
LINE
  5
1C4
330
1F
100
AcDbEntity
  8
1-B_寸法
  6
Continuous
 62
   120
370
     5
100
AcDbLine
 10
3384.60166779183
 20
-3081.006431100688
 30
0.0
 11
2379.601896673666
 21
-3081.006431100688
 31
0.0
  0
LINE
  5
1C5
330
1F
100
AcDbEntity
  8
1-B_寸法
  6
Continuous
 62
   120
370
     5
100
AcDbLine
 10
3384.60166779183
 20
-3081.006431100688
 30
0.0
 11
3384.60166779183
 21
-2910.329994605409
 31
0.0
  0
LWPOLYLINE
  5
1C6
330
1F
100
AcDbEntity
  8
1-B_寸法
  6
Continuous
 62
     7
370
     9
100
AcDbPolyline
 90
        4
 70
     1
 43
6.0
 10
3387.60166779183
 20
-3081.006431100688
 42
0.4142135623731
 10
3384.60166779183
 20
-3078.006431100688
 42
0.4142135623731
 10
3381.60166779183
 20
-3081.006431100688
 42
0.4142135623731
 10
3384.60166779183
 20
-3084.006431100688
 42
0.4142135623731
  0
LWPOLYLINE
  5
1C7
330
1F
100
AcDbEntity
  8
1-B_寸法
  6
Continuous
 62
     7
370
     9
100
AcDbPolyline
 90
        4
 70
     1
 43
6.0
 10
2382.601896673666
 20
-3081.006431100688
 42
0.4142135623731
 10
2379.601896673666
 20
-3078.006431100688
 42
0.4142135623731
 10
2376.601896673666
 20
-3081.006431100688
 42
0.4142135623731
 10
2379.601896673666
 20
-3084.006431100688
 42
0.4142135623731
  0
LINE
  5
1C8
330
1F
100
AcDbEntity
  8
1-4_枠
  6
Continuous
 62
    92
370
    13
100
AcDbLine
 10
3384.60166779183
 20
-2752.128714583125
 30
0.0
 11
2379.601896673666
 21
-2752.128714583125
 31
0.0
  0
LINE
  5
1C9
330
1F
100
AcDbEntity
  8
1-4_枠
  6
Continuous
 62
    92
370
    13
100
AcDbLine
 10
3384.601896673666
 20
-2752.128714583125
 30
0.0
 11
3384.601896673666
 21
-2572.128714583125
 31
0.0
  0
LINE
  5
1CA
330
1F
100
AcDbEntity
  8
1-4_枠
  6
Continuous
 62
    92
370
    13
100
AcDbLine
 10
3384.601896673666
 20
-2572.128714583125
 30
0.0
 11
3444.601896673666
 21
-2572.128714583125
 31
0.0
  0
LWPOLYLINE
  5
1CB
330
1F
100
AcDbEntity
  8
1-B_寸法
  6
Continuous
 62
     7
370
     9
100
AcDbPolyline
 90
        4
 70
     1
 43
6.0
 10
3387.601896673666
 20
-2902.128714583125
 42
0.4142135623731
 10
3384.601896673666
 20
-2899.128714583125
 42
0.4142135623731
 10
3381.601896673666
 20
-2902.128714583125
 42
0.4142135623731
 10
3384.601896673666
 20
-2905.128714583124
 42
0.4142135623731
  0
LINE
  5
1CC
330
1F
100
AcDbEntity
  8
1-B_寸法
  6
Continuous
 62
   120
370
     5
100
AcDbLine
 10
3384.601896673666
 20
-2902.128714583125
 30
0.0
 11
3384.601896673666
 21
-2797.128714583125
 31
0.0
  0
LINE
  5
1CD
330
1F
100
AcDbEntity
  8
1-4_枠
  6
Continuous
 62
    92
370
    13
100
AcDbLine
 10
2379.601896673666
 20
-2752.128714583125
 30
0.0
 11
2379.601896673666
 21
-2572.128714583125
 31
0.0
  0
LWPOLYLINE
  5
1CE
330
1F
100
AcDbEntity
  8
1-B_寸法
  6
Continuous
 62
     7
370
     9
100
AcDbPolyline
 90
        4
 70
     1
 43
6.0
 10
2382.601896673666
 20
-2902.128714583125
 42
0.4142135623731
 10
2379.601896673666
 20
-2899.128714583125
 42
0.4142135623731
 10
2376.601896673666
 20
-2902.128714583125
 42
0.4142135623731
 10
2379.601896673666
 20
-2905.128714583124
 42
0.4142135623731
  0
LINE
  5
1CF
330
1F
100
AcDbEntity
  8
1-B_寸法
  6
Continuous
 62
   120
370
     5
100
AcDbLine
 10
2379.601896673666
 20
-2902.128714583125
 30
0.0
 11
2379.601896673666
 21
-2797.128714583125
 31
0.0
  0
LINE
  5
1D0
330
1F
100
AcDbEntity
  8
1-4_枠
  6
Continuous
 62
    92
370
    13
100
AcDbLine
 10
2379.601896673666
 20
-2572.128714583125
 30
0.0
 11
2319.601896673666
 21
-2572.128714583125
 31
0.0
  0
LWPOLYLINE
  5
1D1
330
1F
100
AcDbEntity
  8
1-B_寸法
  6
Continuous
 62
     7
370
     9
100
AcDbPolyline
 90
        4
 70
     1
 43
6.0
 10
2172.601896673666
 20
-2752.128714583125
 42
0.4142135623731
 10
2169.601896673666
 20
-2749.128714583125
 42
0.4142135623731
 10
2166.601896673666
 20
-2752.128714583125
 42
0.4142135623731
 10
2169.601896673666
 20
-2755.128714583124
 42
0.4142135623731
  0
LINE
  5
1D2
330
1F
100
AcDbEntity
  8
1-B_寸法
  6
Continuous
 62
   120
370
     5
100
AcDbLine
 10
2169.601896673666
 20
-2752.128714583125
 30
0.0
 11
2274.601896673666
 21
-2752.128714583125
 31
0.0
  0
LINE
  5
1D3
330
1F
100
AcDbEntity
  8
1-B_寸法
  6
Continuous
 62
   120
370
     5
100
AcDbLine
 10
2169.601896673666
 20
-2527.128714583125
 30
0.0
 11
2169.601896673666
 21
-2752.128714583125
 31
0.0
  0
LWPOLYLINE
  5
1D4
330
1F
100
AcDbEntity
  8
1-B_寸法
  6
Continuous
 62
     7
370
     9
100
AcDbPolyline
 90
        4
 70
     1
 43
6.0
 10
2172.601896673666
 20
-2572.128714583125
 42
0.4142135623731
 10
2169.601896673666
 20
-2569.128714583125
 42
0.4142135623731
 10
2166.601896673666
 20
-2572.128714583125
 42
0.4142135623731
 10
2169.601896673666
 20
-2575.128714583124
 42
0.4142135623731
  0
LINE
  5
1D5
330
1F
100
AcDbEntity
  8
1-B_寸法
  6
Continuous
 62
   120
370
     5
100
AcDbLine
 10
2169.601896673666
 20
-2572.128714583125
 30
0.0
 11
2274.601896673666
 21
-2572.128714583125
 31
0.0
  0
LWPOLYLINE
  5
1D6
330
1F
100
AcDbEntity
  8
1-B_寸法
  6
Continuous
 62
     7
370
     9
100
AcDbPolyline
 90
        4
 70
     1
 43
6.0
 10
2172.601896673666
 20
-2527.128714583125
 42
0.4142135623731
 10
2169.601896673666
 20
-2524.128714583125
 42
0.4142135623731
 10
2166.601896673666
 20
-2527.128714583125
 42
0.4142135623731
 10
2169.601896673666
 20
-2530.128714583124
 42
0.4142135623731
  0
LINE
  5
1D7
330
1F
100
AcDbEntity
  8
1-B_寸法
  6
Continuous
 62
   120
370
     5
100
AcDbLine
 10
2169.601896673666
 20
-2527.128714583125
 30
0.0
 11
2274.601896673666
 21
-2527.128714583125
 31
0.0
  0
ARC
  5
1D8
330
1F
100
AcDbEntity
  8
1-4_枠
  6
Continuous
 62
    92
370
    13
100
AcDbCircle
 10
3399.601896673666
 20
-2572.128714583125
 30
0.0
 40
37.5
100
AcDbArc
 50
0.0
 51
90.0
  0
ARC
  5
1D9
330
1F
100
AcDbEntity
  8
1-4_枠
  6
Continuous
 62
    92
370
    13
100
AcDbCircle
 10
2364.601896673666
 20
-2572.128714583125
 30
0.0
 40
37.5
100
AcDbArc
 50
90.0
 51
180.0
  0
ARC
  5
1DA
330
1F
100
AcDbEntity
  8
1-4_枠
  6
Continuous
 62
    92
370
    13
100
AcDbCircle
 10
2364.601896673666
 20
-2572.128714583125
 30
0.0
 40
45.0
100
AcDbArc
 50
90.0
 51
180.0
  0
LINE
  5
1DB
330
1F
100
AcDbEntity
  8
1-4_枠
  6
Continuous
 62
    92
370
    13
100
AcDbLine
 10
2364.601896673666
 20
-2527.128714583125
 30
0.0
 11
3399.601896673666
 21
-2527.128714583125
 31
0.0
  0
ARC
  5
1DC
330
1F
100
AcDbEntity
  8
1-4_枠
  6
Continuous
 62
    92
370
    13
100
AcDbCircle
 10
3399.601896673666
 20
-2572.128714583125
 30
0.0
 40
45.0
100
AcDbArc
 50
0.0
 51
90.0
  0
LINE
  5
1DD
330
1F
100
AcDbEntity
  8
1-4_枠
  6
Continuous
 62
    92
370
    13
100
AcDbLine
 10
2364.60126724862
 20
-2534.627999327387
 30
0.0
 11
3399.602526098715
 21
-2534.627999327387
 31
0.0
  0
LINE
  5
1DE
330
1F
100
AcDbEntity
  8
1-4_枠
  6
Continuous
 62
    92
370
    13
100
AcDbLine
 10
2514.601896673666
 20
-2662.128042242732
 30
0.0
 11
3249.602011114584
 21
-2662.128042242732
 31
0.0
  0
LINE
  5
1DF
330
1F
100
AcDbEntity
  8
1-4_枠
  6
Continuous
 62
    92
370
    13
100
AcDbLine
 10
2514.601896673666
 20
-2752.128714583125
 30
0.0
 11
2514.601896673666
 21
-2662.128042242732
 31
0.0
  0
LINE
  5
1E0
330
1F
100
AcDbEntity
  8
1-4_枠
  6
Continuous
 62
    92
370
    13
100
AcDbLine
 10
3249.601896673666
 20
-2752.128714583125
 30
0.0
 11
3249.601896673666
 21
-2662.128042242732
 31
0.0
  0
LWPOLYLINE
  5
1E1
330
1F
100
AcDbEntity
  8
1-B_寸法
  6
Continuous
 62
     7
370
     9
100
AcDbPolyline
 90
        4
 70
     1
 43
6.0
 10
2322.601896673666
 20
-2902.128714583125
 42
0.4142135623731
 10
2319.601896673666
 20
-2899.128714583125
 42
0.4142135623731
 10
2316.601896673666
 20
-2902.128714583125
 42
0.4142135623731
 10
2319.601896673666
 20
-2905.128714583124
 42
0.4142135623731
  0
LINE
  5
1E2
330
1F
100
AcDbEntity
  8
1-B_寸法
  6
Continuous
 62
   120
370
     5
100
AcDbLine
 10
2319.601896673666
 20
-2902.128714583125
 30
0.0
 11
2319.601896673666
 21
-2797.128714583125
 31
0.0
  0
LWPOLYLINE
  5
1E3
330
1F
100
AcDbEntity
  8
1-B_寸法
  6
Continuous
 62
     7
370
     9
100
AcDbPolyline
 90
        4
 70
     1
 43
6.0
 10
2517.601896673666
 20
-2902.128714583125
 42
0.4142135623731
 10
2514.601896673666
 20
-2899.128714583125
 42
0.4142135623731
 10
2511.601896673666
 20
-2902.128714583125
 42
0.4142135623731
 10
2514.601896673666
 20
-2905.128714583124
 42
0.4142135623731
  0
LINE
  5
1E4
330
1F
100
AcDbEntity
  8
1-B_寸法
  6
Continuous
 62
   120
370
     5
100
AcDbLine
 10
2514.601896673666
 20
-2902.128714583125
 30
0.0
 11
2514.601896673666
 21
-2797.128714583125
 31
0.0
  0
LWPOLYLINE
  5
1E5
330
1F
100
AcDbEntity
  8
1-B_寸法
  6
Continuous
 62
     7
370
     9
100
AcDbPolyline
 90
        4
 70
     1
 43
6.0
 10
3252.601896673666
 20
-2902.128714583125
 42
0.4142135623731
 10
3249.601896673666
 20
-2899.128714583125
 42
0.4142135623731
 10
3246.601896673666
 20
-2902.128714583125
 42
0.4142135623731
 10
3249.601896673666
 20
-2905.128714583124
 42
0.4142135623731
  0
LINE
  5
1E6
330
1F
100
AcDbEntity
  8
1-B_寸法
  6
Continuous
 62
   120
370
     5
100
AcDbLine
 10
3249.601896673666
 20
-2902.128714583125
 30
0.0
 11
3249.601896673666
 21
-2797.128714583125
 31
0.0
  0
LINE
  5
1E7
330
1F
100
AcDbEntity
  8
1-B_寸法
  6
Continuous
 62
   120
370
     5
100
AcDbLine
 10
2319.601896673666
 20
-2902.128714583125
 30
0.0
 11
3444.601896673666
 21
-2902.128714583125
 31
0.0
  0
LWPOLYLINE
  5
1E8
330
1F
100
AcDbEntity
  8
1-B_寸法
  6
Continuous
 62
     7
370
     9
100
AcDbPolyline
 90
        4
 70
     1
 43
6.0
 10
3447.601896673666
 20
-2902.128714583125
 42
0.4142135623731
 10
3444.601896673666
 20
-2899.128714583125
 42
0.4142135623731
 10
3441.601896673666
 20
-2902.128714583125
 42
0.4142135623731
 10
3444.601896673666
 20
-2905.128714583124
 42
0.4142135623731
  0
LINE
  5
1E9
330
1F
100
AcDbEntity
  8
1-B_寸法
  6
Continuous
 62
   120
370
     5
100
AcDbLine
 10
3444.601896673666
 20
-2902.128714583125
 30
0.0
 11
3444.601896673666
 21
-2797.128714583125
 31
0.0
  0
LINE
  5
1EA
330
1F
100
AcDbEntity
  8
1-B_寸法
  6
Continuous
 62
   120
370
     5
100
AcDbLine
 10
3594.601667782747
 20
-2527.127441427912
 30
0.0
 11
3594.601667782747
 21
-2752.128714583125
 31
0.0
  0
LWPOLYLINE
  5
1EB
330
1F
100
AcDbEntity
  8
1-B_寸法
  6
Continuous
 62
     7
370
     9
100
AcDbPolyline
 90
        4
 70
     1
 43
6.0
 10
3597.601667782747
 20
-2752.128714583125
 42
0.4142135623731
 10
3594.601667782747
 20
-2749.128714583125
 42
0.4142135623731
 10
3591.601667782748
 20
-2752.128714583125
 42
0.4142135623731
 10
3594.601667782747
 20
-2755.128714583124
 42
0.4142135623731
  0
LINE
  5
1EC
330
1F
100
AcDbEntity
  8
1-B_寸法
  6
Continuous
 62
   120
370
     5
100
AcDbLine
 10
3594.601667782747
 20
-2752.128714583125
 30
0.0
 11
3488.322435640604
 21
-2752.128714583125
 31
0.0
  0
LWPOLYLINE
  5
1ED
330
1F
100
AcDbEntity
  8
1-B_寸法
  6
Continuous
 62
     7
370
     9
100
AcDbPolyline
 90
        4
 70
     1
 43
6.0
 10
3597.601667782747
 20
-2527.127441427912
 42
0.4142135623731
 10
3594.601667782747
 20
-2524.127441427912
 42
0.4142135623731
 10
3591.601667782748
 20
-2527.127441427912
 42
0.4142135623731
 10
3594.601667782747
 20
-2530.127441427912
 42
0.4142135623731
  0
LINE
  5
1EE
330
1F
100
AcDbEntity
  8
1-B_寸法
  6
Continuous
 62
   120
370
     5
100
AcDbLine
 10
3594.601667782747
 20
-2527.127441427912
 30
0.0
 11
3488.322435640604
 21
-2527.127441427912
 31
0.0
  0
LINE
  5
1EF
330
1F
100
AcDbEntity
  8
1-B_寸法
  6
Continuous
 62
   120
370
     5
100
AcDbLine
 10
2274.601896682748
 20
-2482.128943474043
 30
0.0
 11
2199.601896682747
 21
-2482.128943474043
 31
0.0
  0
LINE
  5
1F0
330
1F
100
AcDbEntity
  8
1-B_寸法
  6
Continuous
 62
   120
370
     5
100
AcDbLine
 10
2332.781862638437
 20
-2540.308909429732
 30
0.0
 11
2274.601145659681
 21
-2482.128192450979
 31
0.0
  0
LINE
  5
1F1
330
1F
100
AcDbEntity
  8
1-B_寸法
  6
Continuous
 62
   120
370
     5
100
AcDbLine
 10
3489.601667782747
 20
-2482.128943474043
 30
0.0
 11
3564.601667782747
 21
-2482.128943474043
 31
0.0
  0
LINE
  5
1F2
330
1F
100
AcDbEntity
  8
1-B_寸法
  6
Continuous
 62
   120
370
     5
100
AcDbLine
 10
3431.421701827062
 20
-2540.308909429732
 30
0.0
 11
3489.602418805815
 21
-2482.128192450979
 31
0.0
  0
LINE
  5
1F3
330
1F
100
AcDbEntity
  8
1-B_寸法
  6
Continuous
 62
   120
370
     5
100
AcDbLine
 10
2319.601896673666
 20
-2377.128943474043
 30
0.0
 11
3444.601896673666
 21
-2377.128943474043
 31
0.0
  0
LWPOLYLINE
  5
1F4
330
1F
100
AcDbEntity
  8
1-B_寸法
  6
Continuous
 62
     7
370
     9
100
AcDbPolyline
 90
        4
 70
     1
 43
6.0
 10
2322.601896673666
 20
-2377.128943474043
 42
0.4142135623731
 10
2319.601896673666
 20
-2374.128943474043
 42
0.4142135623731
 10
2316.601896673666
 20
-2377.128943474043
 42
0.4142135623731
 10
2319.601896673666
 20
-2380.128943474043
 42
0.4142135623731
  0
LWPOLYLINE
  5
1F5
330
1F
100
AcDbEntity
  8
1-B_寸法
  6
Continuous
 62
     7
370
     9
100
AcDbPolyline
 90
        4
 70
     1
 43
6.0
 10
3447.601896673666
 20
-2377.128943474043
 42
0.4142135623731
 10
3444.601896673666
 20
-2374.128943474043
 42
0.4142135623731
 10
3441.601896673666
 20
-2377.128943474043
 42
0.4142135623731
 10
3444.601896673666
 20
-2380.128943474043
 42
0.4142135623731
  0
LINE
  5
1F6
330
1F
100
AcDbEntity
  8
1-B_寸法
  6
Continuous
 62
   120
370
     5
100
AcDbLine
 10
2319.601896673666
 20
-2377.128943474043
 30
0.0
 11
2319.601896673666
 21
-2482.128943474043
 31
0.0
  0
LINE
  5
1F7
330
1F
100
AcDbEntity
  8
1-B_寸法
  6
Continuous
 62
   120
370
     5
100
AcDbLine
 10
3444.601896673666
 20
-2377.128943474043
 30
0.0
 11
3444.601896673666
 21
-2482.128943474043
 31
0.0
  0
TEXT
  5
1F8
330
1F
100
AcDbEntity
  8
0-B_寸法
  6
Continuous
 62
     7
370
   211
100
AcDbText
 10
2745.255224121953
 20
-1091.222044937212
 30
0.0
 40
91.44
  1
6.5
 41
1.083333333333333
  7
ＭＳ ゴシック
100
AcDbText
  0
LINE
  5
1F9
330
1F
100
AcDbEntity
  8
0-B_寸法
  6
Continuous
 62
   120
370
     5
100
AcDbLine
 10
2685.77103023365
 20
-1123.142044937212
 30
0.0
 11
2916.262992000627
 21
-1123.142044937212
 31
0.0
  0
LWPOLYLINE
  5
1FA
330
1F
100
AcDbEntity
  8
0-B_寸法
  6
Continuous
 62
     7
370
     9
100
AcDbPolyline
 90
        4
 70
     1
 43
6.0
 10
2688.771030233649
 20
-1123.142044937212
 42
0.4142135623731
 10
2685.77103023365
 20
-1120.142044937212
 42
0.4142135623731
 10
2682.77103023365
 20
-1123.142044937212
 42
0.4142135623731
 10
2685.77103023365
 20
-1126.142044937212
 42
0.4142135623731
  0
LWPOLYLINE
  5
1FB
330
1F
100
AcDbEntity
  8
0-B_寸法
  6
Continuous
 62
     7
370
     9
100
AcDbPolyline
 90
        4
 70
     1
 43
6.0
 10
2727.77103023365
 20
-1123.142044937212
 42
0.4142135623731
 10
2724.77103023365
 20
-1120.142044937212
 42
0.4142135623731
 10
2721.77103023365
 20
-1123.142044937212
 42
0.4142135623731
 10
2724.77103023365
 20
-1126.142044937212
 42
0.4142135623731
  0
TEXT
  5
1FC
330
1F
100
AcDbEntity
  8
0-B_寸法
  6
Continuous
 62
     7
370
   211
100
AcDbText
 10
2868.02103023365
 20
-1271.222044937212
 30
0.0
 40
91.44
  1
69
 41
1.0625
  7
ＭＳ ゴシック
100
AcDbText
  0
LWPOLYLINE
  5
1FD
330
1F
100
AcDbEntity
  8
0-B_寸法
  6
Continuous
 62
     7
370
     9
100
AcDbPolyline
 90
        4
 70
     1
 43
6.0
 10
2727.77103023365
 20
-1303.142044937212
 42
0.4142135623731
 10
2724.77103023365
 20
-1300.142044937212
 42
0.4142135623731
 10
2721.77103023365
 20
-1303.142044937212
 42
0.4142135623731
 10
2724.77103023365
 20
-1306.142044937212
 42
0.4142135623731
  0
LWPOLYLINE
  5
1FE
330
1F
100
AcDbEntity
  8
0-B_寸法
  6
Continuous
 62
     7
370
     9
100
AcDbPolyline
 90
        4
 70
     1
 43
6.0
 10
3141.77103023365
 20
-1303.142044937212
 42
0.4142135623731
 10
3138.77103023365
 20
-1300.142044937212
 42
0.4142135623731
 10
3135.77103023365
 20
-1303.142044937212
 42
0.4142135623731
 10
3138.77103023365
 20
-1306.142044937212
 42
0.4142135623731
  0
LINE
  5
1FF
330
1F
100
AcDbEntity
  8
0-B_寸法
  6
Continuous
 62
   120
370
     5
100
AcDbLine
 10
3138.77103023365
 20
-1303.142044937212
 30
0.0
 11
2724.77103023365
 21
-1303.142044937212
 31
0.0
  0
LINE
  5
200
330
1F
100
AcDbEntity
  8
0-4_枠
  6
Continuous
 62
    92
370
    13
100
AcDbLine
 10
3138.77103023365
 20
-770.999991958202
 30
0.0
 11
3138.77103023365
 21
-1830.041548837791
 31
0.0
  0
TEXT
  5
201
330
1F
100
AcDbEntity
  8
0-A_文字
  6
Continuous
 62
     7
370
     0
100
AcDbText
 10
2205.862863451513
 20
-2143.121548837791
 30
0.0
 40
91.44
  1
下枠詳細図（S＝1/2）
  7
ＭＳ ゴシック
100
AcDbText
  0
TEXT
  5
202
330
1F
100
AcDbEntity
  8
0-B_寸法
  6
Continuous
 62
     7
370
     0
100
AcDbText
 10
1695.12451662007
 20
-1525.735513191762
 30
0.0
 40
91.44
  1
5.5
 50
90.0
  7
ＭＳ ゴシック
100
AcDbText
  0
TEXT
  5
203
330
1F
100
AcDbEntity
  8
0-B_寸法
  6
Continuous
 62
     7
370
   211
100
AcDbText
 10
370.3242688938652
 20
-1202.468457142388
 30
0.0
 40
91.44
  1
12
 50
90.0
 41
1.0625
  7
ＭＳ ゴシック
100
AcDbText
  0
TEXT
  5
204
330
1F
100
AcDbEntity
  8
0-B_寸法
  6
Continuous
 62
     7
370
     0
100
AcDbText
 10
1014.590909873511
 20
-629.1506681113328
 30
0.0
 40
91.44
  1
170
  7
ＭＳ ゴシック
100
AcDbText
  0
TEXT
  5
205
330
1F
100
AcDbEntity
  8
0-A_文字
  6
Continuous
 62
     7
370
     0
100
AcDbText
 10
543.65144402379
 20
-1562.787147819167
 30
0.0
 40
91.44
  1
下枠ﾍﾞｰｽ
 41
0.9999999999999996
  7
ＭＳ ゴシック
100
AcDbText
  0
TEXT
  5
206
330
1F
100
AcDbEntity
  8
0-A_文字
  6
Continuous
 62
     7
370
     9
100
AcDbText
 10
3071.302045429153
 20
-906.4485992048635
 30
0.0
 40
91.44
  1
（ドア側）
  7
ＭＳ ゴシック
100
AcDbText
  0
LINE
  5
207
330
1F
100
AcDbEntity
  8
0-1_通り芯
  6
JWW_CENTER1
 62
   120
370
     5
100
AcDbLine
 10
2685.77103023365
 20
-694.3526353926933
 30
0.0
 11
2685.77103023365
 21
-1888.499991958202
 31
0.0
  0
LINE
  5
208
330
1F
100
AcDbEntity
  8
0-A_文字
  6
Continuous
 62
    92
370
    13
100
AcDbLine
 10
3699.918171683582
 20
-3159.000197951857
 30
0.0
 11
3699.918171683582
 21
-290.9999919582033
 31
0.0
  0
LINE
  5
209
330
1F
100
AcDbEntity
  8
0-A_文字
  6
Continuous
 62
    92
370
    13
100
AcDbLine
 10
1950.362074444371
 20
-470.9999919582054
 30
0.0
 11
3699.918171683582
 21
-470.9999919582054
 31
0.0
  0
LINE
  5
20A
330
1F
100
AcDbEntity
  8
0-A_文字
  6
Continuous
 62
    92
370
    13
100
AcDbLine
 10
1950.362074444371
 20
-290.9999919582033
 30
0.0
 11
3699.918171683582
 21
-290.9999919582033
 31
0.0
  0
LINE
  5
20B
330
1F
100
AcDbEntity
  8
0-A_文字
  6
Continuous
 62
    92
370
    13
100
AcDbLine
 10
3699.918171683582
 20
-2190.041548837791
 30
0.0
 11
1899.918171683582
 21
-2190.041548837791
 31
0.0
  0
LINE
  5
20C
330
1F
100
AcDbEntity
  8
0-A_文字
  6
Continuous
 62
    92
370
    13
100
AcDbLine
 10
1899.918171683582
 20
-3159.000197951857
 30
0.0
 11
3699.918171683582
 21
-3159.000197951857
 31
0.0
  0
LINE
  5
20D
330
1F
100
AcDbEntity
  8
0-A_文字
  6
Continuous
 62
    92
370
    13
100
AcDbLine
 10
1899.918171683582
 20
-290.9999919582033
 30
0.0
 11
1899.918171683582
 21
-3159.000197951857
 31
0.0
  0
LINE
  5
20E
330
1F
100
AcDbEntity
  8
0-A_文字
  6
Continuous
 62
    92
370
    13
100
AcDbLine
 10
1950.362074444371
 20
-470.9999919582054
 30
0.0
 11
219.9181716835831
 21
-470.9999919582054
 31
0.0
  0
LINE
  5
20F
330
1F
100
AcDbEntity
  8
0-A_文字
  6
Continuous
 62
    92
370
    13
100
AcDbLine
 10
219.9181716835818
 20
-290.9999919582033
 30
0.0
 11
1950.362074444371
 21
-290.9999919582033
 31
0.0
  0
LINE
  5
210
330
1F
100
AcDbEntity
  8
0-4_枠
  6
Continuous
 62
    92
370
    13
100
AcDbLine
 10
1149.59090987351
 20
-1102.718457142386
 30
0.0
 11
1149.59090987351
 21
-1174.718457142385
 31
0.0
  0
LINE
  5
211
330
1F
100
AcDbEntity
  8
0-B_寸法
  6
Continuous
 62
   120
370
     5
100
AcDbLine
 10
402.2442688938652
 20
-1102.718457142386
 30
0.0
 11
522.2442688938652
 21
-1102.718457142386
 31
0.0
  0
LWPOLYLINE
  5
212
330
1F
100
AcDbEntity
  8
0-B_寸法
  6
Continuous
 62
     7
370
     9
100
AcDbPolyline
 90
        4
 70
     1
 43
6.0
 10
405.2442688938652
 20
-1102.718457142386
 42
0.4142135623731
 10
402.2442688938652
 20
-1099.718457142386
 42
0.4142135623731
 10
399.2442688938652
 20
-1102.718457142386
 42
0.4142135623731
 10
402.2442688938652
 20
-1105.718457142386
 42
0.4142135623731
  0
LINE
  5
213
330
1F
100
AcDbEntity
  8
0-B_寸法
  6
Continuous
 62
   120
370
     5
100
AcDbLine
 10
402.2442688938652
 20
-1174.718457142385
 30
0.0
 11
402.2442688938652
 21
-1102.718457142386
 31
0.0
  0
LINE
  5
214
330
1F
100
AcDbEntity
  8
0-B_寸法
  6
Continuous
 62
   120
370
     5
100
AcDbLine
 10
402.2442688938652
 20
-1174.718457142385
 30
0.0
 11
522.2442688938652
 21
-1174.718457142385
 31
0.0
  0
LWPOLYLINE
  5
215
330
1F
100
AcDbEntity
  8
0-B_寸法
  6
Continuous
 62
     7
370
     9
100
AcDbPolyline
 90
        4
 70
     1
 43
6.0
 10
405.2442688938652
 20
-1174.718457142385
 42
0.4142135623731
 10
402.2442688938652
 20
-1171.718457142385
 42
0.4142135623731
 10
399.2442688938652
 20
-1174.718457142385
 42
0.4142135623731
 10
402.2442688938652
 20
-1177.718457142386
 42
0.4142135623731
  0
LINE
  5
216
330
1F
100
AcDbEntity
  8
0-4_枠
  6
Continuous
 62
    92
370
    13
100
AcDbLine
 10
1149.59090987351
 20
-1174.718457142385
 30
0.0
 11
1203.59090987351
 21
-1174.718457142385
 31
0.0
  0
LWPOLYLINE
  5
217
330
1F
100
AcDbEntity
  8
0-B_寸法
  6
Continuous
 62
     7
370
     9
100
AcDbPolyline
 90
        4
 70
     1
 43
6.0
 10
1589.108488973898
 20
-1358.943530616153
 42
0.4142135623731
 10
1586.108488973898
 20
-1355.943530616153
 42
0.4142135623731
 10
1583.108488973898
 20
-1358.943530616153
 42
0.4142135623731
 10
1586.108488973898
 20
-1361.943530616153
 42
0.4142135623731
  0
LWPOLYLINE
  5
218
330
1F
100
AcDbEntity
  8
0-B_寸法
  6
Continuous
 62
     7
370
     9
100
AcDbPolyline
 90
        4
 70
     1
 43
6.0
 10
1589.108488973898
 20
-1391.943530616154
 42
0.4142135623731
 10
1586.108488973898
 20
-1388.943530616153
 42
0.4142135623731
 10
1583.108488973898
 20
-1391.943530616154
 42
0.4142135623731
 10
1586.108488973898
 20
-1394.943530616154
 42
0.4142135623731
  0
LINE
  5
219
330
1F
100
AcDbEntity
  8
0-A_文字
  6
Continuous
 62
     7
370
     9
100
AcDbLine
 10
1023.651444023791
 20
-1491.272364605191
 30
0.0
 11
1082.719977582629
 21
-1491.272364605191
 31
0.0
  0
LINE
  5
21A
330
1F
100
AcDbEntity
  8
0-A_文字
  6
Continuous
 62
     7
370
     9
100
AcDbLine
 10
1237.519305759406
 20
-1375.172868472608
 30
0.0
 11
1082.719977582629
 21
-1491.272364605191
 31
0.0
  0
LINE
  5
21B
330
1F
100
AcDbEntity
  8
0-B_寸法
  6
Continuous
 62
   120
370
     5
100
AcDbLine
 10
1586.108488973898
 20
-1358.943530616153
 30
0.0
 11
1526.108488973898
 21
-1358.943530616153
 31
0.0
  0
LINE
  5
21C
330
1F
100
AcDbEntity
  8
0-B_寸法
  6
Continuous
 62
   120
370
     5
100
AcDbLine
 10
1586.108488973898
 20
-1358.943530616153
 30
0.0
 11
1586.108488973898
 21
-1391.943530616154
 31
0.0
  0
LINE
  5
21D
330
1F
100
AcDbEntity
  8
0-B_寸法
  6
Continuous
 62
   120
370
     5
100
AcDbLine
 10
1586.108488973898
 20
-1391.943530616154
 30
0.0
 11
1526.108488973898
 21
-1391.943530616154
 31
0.0
  0
LINE
  5
21E
330
1F
100
AcDbEntity
  8
0-A_文字
  6
Continuous
 62
     7
370
     9
100
AcDbLine
 10
1341.590909873511
 20
-1367.943530616155
 30
0.0
 11
1341.590909873511
 21
-1358.943530616153
 31
0.0
  0
LINE
  5
21F
330
1F
100
AcDbEntity
  8
0-A_文字
  6
Continuous
 62
     7
370
     9
100
AcDbLine
 10
1359.590909873511
 20
-1367.943530616155
 30
0.0
 11
1341.590909873511
 21
-1367.943530616155
 31
0.0
  0
LINE
  5
220
330
1F
100
AcDbEntity
  8
0-A_文字
  6
Continuous
 62
     7
370
     9
100
AcDbLine
 10
1484.862987812153
 20
-1358.943530616153
 30
0.0
 11
1359.590909873511
 21
-1358.943530616153
 31
0.0
  0
LINE
  5
221
330
1F
100
AcDbEntity
  8
0-A_文字
  6
Continuous
 62
     7
370
     9
100
AcDbLine
 10
1359.590909873511
 20
-1367.943530616155
 30
0.0
 11
1359.590909873511
 21
-1358.943530616153
 31
0.0
  0
LINE
  5
222
330
1F
100
AcDbEntity
  8
0-A_文字
  6
Continuous
 62
     7
370
     9
100
AcDbLine
 10
1341.590909873511
 20
-1358.943530616153
 30
0.0
 11
1216.318831934869
 21
-1358.943530616153
 31
0.0
  0
LINE
  5
223
330
1F
100
AcDbEntity
  8
0-A_文字
  6
Continuous
 62
     7
370
     9
100
AcDbLine
 10
1484.862987812153
 20
-1358.943530616153
 30
0.0
 11
1497.590909873511
 21
-1371.671452677512
 31
0.0
  0
LINE
  5
224
330
1F
100
AcDbEntity
  8
0-A_文字
  6
Continuous
 62
     7
370
     9
100
AcDbLine
 10
1497.590909873511
 20
-1371.671452677512
 30
0.0
 11
1497.590909873511
 21
-1391.943530616154
 31
0.0
  0
LINE
  5
225
330
1F
100
AcDbEntity
  8
0-A_文字
  6
Continuous
 62
     7
370
     9
100
AcDbLine
 10
1497.590909873511
 20
-1391.943530616154
 30
0.0
 11
1203.59090987351
 21
-1391.943530616154
 31
0.0
  0
LINE
  5
226
330
1F
100
AcDbEntity
  8
0-A_文字
  6
Continuous
 62
     7
370
     9
100
AcDbLine
 10
1203.59090987351
 20
-1371.671452677512
 30
0.0
 11
1216.318831934869
 21
-1358.943530616153
 31
0.0
  0
LINE
  5
227
330
1F
100
AcDbEntity
  8
0-A_文字
  6
Continuous
 62
     7
370
     9
100
AcDbLine
 10
1203.59090987351
 20
-1371.671452677512
 30
0.0
 11
1203.59090987351
 21
-1391.943530616154
 31
0.0
  0
LINE
  5
228
330
1F
100
AcDbEntity
  8
0-4_枠
  6
Continuous
 62
    92
370
    13
100
AcDbLine
 10
1497.590909873509
 20
-1174.718457142385
 30
0.0
 11
1551.590909873509
 21
-1174.718457142385
 31
0.0
  0
LINE
  5
229
330
1F
100
AcDbEntity
  8
0-4_枠
  6
Continuous
 62
    92
370
    13
100
AcDbLine
 10
1203.59090987351
 20
-1140.518457142386
 30
0.0
 11
1203.59090987351
 21
-1174.718457142385
 31
0.0
  0
LINE
  5
22A
330
1F
100
AcDbEntity
  8
0-4_枠
  6
Continuous
 62
    92
370
    13
100
AcDbLine
 10
1497.590909873509
 20
-1140.518457142386
 30
0.0
 11
1497.590909873509
 21
-1174.718457142385
 31
0.0
  0
LINE
  5
22B
330
1F
100
AcDbEntity
  8
0-4_枠
  6
Continuous
 62
    92
370
    13
100
AcDbLine
 10
1203.59090987351
 20
-1140.518457142386
 30
0.0
 11
1497.590909873509
 21
-1140.518457142386
 31
0.0
  0
LWPOLYLINE
  5
22C
330
1F
100
AcDbEntity
  8
0-B_寸法
  6
Continuous
 62
     7
370
     9
100
AcDbPolyline
 90
        4
 70
     1
 43
6.0
 10
597.5909098735124
 20
-659.3626323731957
 42
0.4142135623731
 10
594.5909098735124
 20
-656.3626323731957
 42
0.4142135623731
 10
591.5909098735123
 20
-659.3626323731957
 42
0.4142135623731
 10
594.5909098735124
 20
-662.3626323731957
 42
0.4142135623731
  0
LINE
  5
22D
330
1F
100
AcDbEntity
  8
0-B_寸法
  6
Continuous
 62
   120
370
     5
100
AcDbLine
 10
594.5909098735124
 20
-659.3626323731957
 30
0.0
 11
1614.590909873511
 21
-659.3626323731957
 31
0.0
  0
LINE
  5
22E
330
1F
100
AcDbEntity
  8
0-B_寸法
  6
Continuous
 62
   120
370
     5
100
AcDbLine
 10
594.5909098735124
 20
-659.3626323731957
 30
0.0
 11
594.5909098735124
 21
-809.3626323731991
 31
0.0
  0
LWPOLYLINE
  5
22F
330
1F
100
AcDbEntity
  8
0-B_寸法
  6
Continuous
 62
     7
370
     9
100
AcDbPolyline
 90
        4
 70
     1
 43
6.0
 10
1617.590909873511
 20
-659.3626323731957
 42
0.4142135623731
 10
1614.590909873511
 20
-656.3626323731957
 42
0.4142135623731
 10
1611.590909873511
 20
-659.3626323731957
 42
0.4142135623731
 10
1614.590909873511
 20
-662.3626323731957
 42
0.4142135623731
  0
LINE
  5
230
330
1F
100
AcDbEntity
  8
0-B_寸法
  6
Continuous
 62
   120
370
     5
100
AcDbLine
 10
1614.590909873511
 20
-659.3626323731957
 30
0.0
 11
1614.590909873511
 21
-809.3626323731991
 31
0.0
  0
LINE
  5
231
330
1F
100
AcDbEntity
  8
0-4_枠
  6
Continuous
 62
    92
370
    13
100
AcDbLine
 10
2724.77103023365
 20
-770.999991958202
 30
0.0
 11
2724.77103023365
 21
-1830.041548837791
 31
0.0
  0
LINE
  5
232
330
1F
100
AcDbEntity
  8
0-4_枠
  6
Continuous
 62
    92
370
    13
100
AcDbLine
 10
594.5909098735124
 20
-880.9558114187854
 30
0.0
 11
594.5909098735124
 21
-1102.718457142386
 31
0.0
  0
LINE
  5
233
330
1F
100
AcDbEntity
  8
0-4_枠
  6
Continuous
 62
    92
370
    13
100
AcDbLine
 10
594.5909098735124
 20
-1102.718457142386
 30
0.0
 11
1149.59090987351
 21
-1102.718457142386
 31
0.0
  0
LINE
  5
234
330
1F
100
AcDbEntity
  8
0-4_枠
  6
Continuous
 62
    92
370
    13
100
AcDbLine
 10
1614.590909873511
 20
-880.9558114187854
 30
0.0
 11
1614.590909873511
 21
-1102.71845714239
 31
0.0
  0
LINE
  5
235
330
1F
100
AcDbEntity
  8
0-4_枠
  6
Continuous
 62
    92
370
    13
100
AcDbLine
 10
1551.590909873509
 20
-1102.71845714239
 30
0.0
 11
1551.590909873509
 21
-1174.718457142385
 31
0.0
  0
LINE
  5
236
330
1F
100
AcDbEntity
  8
0-4_枠
  6
Continuous
 62
    92
370
    13
100
AcDbLine
 10
1614.590909873511
 20
-1102.71845714239
 30
0.0
 11
1551.590909873509
 21
-1102.71845714239
 31
0.0
  0
LINE
  5
237
330
1F
100
AcDbEntity
  8
0-A_文字
  6
Continuous
 62
    92
370
    13
100
AcDbLine
 10
219.9181716835831
 20
-2190.041548837791
 30
0.0
 11
1899.918171683582
 21
-2190.041548837791
 31
0.0
  0
LINE
  5
238
330
1F
100
AcDbEntity
  8
0-A_文字
  6
Continuous
 62
    92
370
    13
100
AcDbLine
 10
1899.918171683582
 20
-2010.041548837791
 30
0.0
 11
3699.918171683582
 21
-2010.041548837791
 31
0.0
  0
LINE
  5
239
330
1F
100
AcDbEntity
  8
0-A_文字
  6
Continuous
 62
    92
370
    13
100
AcDbLine
 10
219.9181716835818
 20
-290.9999919582033
 30
0.0
 11
219.9181716835831
 21
-2190.041548837791
 31
0.0
  0
TEXT
  5
23A
330
1F
100
AcDbEntity
  8
0-0_補助線
  6
Continuous
 62
     7
370
     9
100
AcDbText
 10
347.552070462511
 20
-2121.913208673952
 30
0.0
 40
91.44
  1
※要カスタムオーダー
 41
1.1125
  7
ＭＳ ゴシック
100
AcDbText
  0
TEXT
  5
23B
330
1F
100
AcDbEntity
  8
0-A_文字
  6
Continuous
 62
     7
370
     0
100
AcDbText
 10
649.112074444368
 20
-424.0799919582054
 30
0.0
 40
91.44
  1
竪枠下端形状図
  7
ＭＳ ゴシック
100
AcDbText
  0
LINE
  5
23C
330
1F
100
AcDbEntity
  8
0-A_文字
  6
Continuous
 62
    92
370
    13
100
AcDbLine
 10
4083.835838693027
 20
3730.000181455871
 30
0.0
 11
4083.835838693027
 21
2764.000181455871
 31
0.0
  0
LINE
  5
23D
330
1F
100
AcDbEntity
  8
0-A_文字
  6
Continuous
 62
    92
370
    13
100
AcDbLine
 10
5679.835838693025
 20
3730.000181455871
 30
0.0
 11
5679.835838693025
 21
2764.000181455871
 31
0.0
  0
LINE
  5
23E
330
1F
100
AcDbEntity
  8
0-A_文字
  6
Continuous
 62
    92
370
    13
100
AcDbLine
 10
5679.835838693025
 20
2764.000181455871
 30
0.0
 11
4083.835838693027
 21
2764.000181455871
 31
0.0
  0
LINE
  5
23F
330
1F
100
AcDbEntity
  8
0-A_文字
  6
Continuous
 62
    92
370
    13
100
AcDbLine
 10
4881.835838693028
 20
3730.000181455871
 30
0.0
 11
4881.835838693028
 21
2764.000181455871
 31
0.0
  0
LINE
  5
240
330
1F
100
AcDbEntity
  8
0-A_文字
  6
Continuous
 62
    92
370
    13
100
AcDbLine
 10
4083.835838693027
 20
3604.00018145587
 30
0.0
 11
5679.835838693025
 21
3604.00018145587
 31
0.0
  0
LINE
  5
241
330
1F
100
AcDbEntity
  8
0-A_文字
  6
Continuous
 62
    92
370
    13
100
AcDbLine
 10
5679.835838693025
 20
3730.000181455871
 30
0.0
 11
4083.835838693027
 21
3730.000181455871
 31
0.0
  0
LINE
  5
242
330
1F
100
AcDbEntity
  8
0-8_戸当
  6
Continuous
 62
    40
370
    15
100
AcDbLine
 10
5511.835838693028
 20
3481.846273380328
 30
0.0
 11
5658.835838693027
 21
3481.846273380328
 31
0.0
  0
LINE
  5
243
330
1F
100
AcDbEntity
  8
0-8_戸当
  6
Continuous
 62
    40
370
    15
100
AcDbLine
 10
5049.835838693025
 20
3481.846273380328
 30
0.0
 11
4902.835838693026
 21
3481.846273380328
 31
0.0
  0
LINE
  5
244
330
1F
100
AcDbEntity
  8
0-8_戸当
  6
Continuous
 62
    40
370
    15
100
AcDbLine
 10
4713.835838693027
 20
3481.846273380328
 30
0.0
 11
4860.835838693027
 21
3481.846273380328
 31
0.0
  0
LINE
  5
245
330
1F
100
AcDbEntity
  8
0-8_戸当
  6
Continuous
 62
    40
370
    15
100
AcDbLine
 10
4251.835838693028
 20
3481.846273380328
 30
0.0
 11
4104.835838693025
 21
3481.846273380328
 31
0.0
  0
LINE
  5
246
330
1F
100
AcDbEntity
  8
0-0_補助線
  6
JWW_HOJO
 62
   120
370
     5
100
AcDbLine
 10
5658.835838693027
 20
3730.000181455871
 30
0.0
 11
5658.835838693027
 21
2764.000181455871
 31
0.0
  0
LINE
  5
247
330
1F
100
AcDbEntity
  8
0-0_補助線
  6
JWW_HOJO
 62
   120
370
     5
100
AcDbLine
 10
4902.835838693026
 20
3730.000181455871
 30
0.0
 11
4902.835838693026
 21
2764.000181455871
 31
0.0
  0
LINE
  5
248
330
1F
100
AcDbEntity
  8
0-0_補助線
  6
JWW_HOJO
 62
   120
370
     5
100
AcDbLine
 10
4860.835838693027
 20
3730.000181455871
 30
0.0
 11
4860.835838693027
 21
2764.000181455871
 31
0.0
  0
LINE
  5
249
330
1F
100
AcDbEntity
  8
0-0_補助線
  6
JWW_HOJO
 62
   120
370
     5
100
AcDbLine
 10
4104.835838693025
 20
3730.000181455871
 30
0.0
 11
4104.835838693025
 21
2764.000181455871
 31
0.0
  0
ELLIPSE
  5
24A
330
1F
100
AcDbEntity
  8
0-8_戸当
  6
Continuous
 62
    92
370
    13
100
AcDbEllipse
 10
5207.192036141519
 20
2972.884428393054
 30
0.0
 11
-17.7763823922528
 21
100.8148742797557
 31
0.0
210
0.0
220
0.0
230
1.0
 40
0.4000000000000001
 41
1.85063327265668
 42
2.442876790075129
  0
ELLIPSE
  5
24B
330
1F
100
AcDbEntity
  8
0-8_戸当
  6
Continuous
 62
    92
370
    13
100
AcDbEllipse
 10
5207.192036141519
 20
2972.884428393054
 30
0.0
 11
-17.7763823922528
 21
100.8148742797557
 31
0.0
210
0.0
220
0.0
230
1.0
 40
0.4000000000000001
 41
3.840308517104467
 42
4.432552034522944
  0
ELLIPSE
  5
24C
330
1F
100
AcDbEntity
  8
0-8_戸当
  6
Continuous
 62
    92
370
    13
100
AcDbEllipse
 10
5206.77229009162
 20
2975.264926534712
 30
0.0
 11
-14.67024424252691
 21
83.19908946199425
 31
0.0
210
0.0
220
0.0
230
1.0
 40
0.5
 41
4.340591432030095
 42
8.225779182329084
  0
LINE
  5
24D
330
1F
100
AcDbEntity
  8
0-8_戸当
  6
Continuous
 62
    92
370
    13
100
AcDbLine
 10
5246.741919914281
 20
2900.267379069785
 30
0.0
 11
5194.863795824745
 21
2891.119866084259
 31
0.0
  0
LINE
  5
24E
330
1F
100
AcDbEntity
  8
0-8_戸当
  6
Continuous
 62
    92
370
    13
100
AcDbLine
 10
5248.929886952884
 20
2887.858801381832
 30
0.0
 11
5197.051762863349
 21
2878.711288396305
 31
0.0
  0
ELLIPSE
  5
24F
330
1F
100
AcDbEntity
  8
0-8_戸当
  6
Continuous
 62
    92
370
    13
100
AcDbEllipse
 10
5222.990824908116
 20
2883.285044889068
 30
0.0
 11
-7.622927487939132
 21
43.23177007461331
 31
0.0
210
0.0
220
0.0
230
1.0
 40
0.6
 41
1.570796326794897
 42
4.71238898038469
  0
ELLIPSE
  5
250
330
1F
100
AcDbEntity
  8
0-8_戸当
  6
Continuous
 62
    92
370
    13
100
AcDbEllipse
 10
5361.652805079398
 20
3008.935263882862
 30
0.0
 11
26.49533313827762
 21
98.88192943551533
 31
0.0
210
0.0
220
0.0
230
1.0
 40
0.4
 41
1.85063327265668
 42
2.442876790075129
  0
ELLIPSE
  5
251
330
1F
100
AcDbEntity
  8
0-8_戸当
  6
Continuous
 62
    92
370
    13
100
AcDbEllipse
 10
5361.652805079398
 20
3008.935263882862
 30
0.0
 11
26.49533313827762
 21
98.88192943551533
 31
0.0
210
0.0
220
0.0
230
1.0
 40
0.4
 41
3.840308517104467
 42
4.432552034522944
  0
ELLIPSE
  5
252
330
1F
100
AcDbEntity
  8
0-8_戸当
  6
Continuous
 62
    92
370
    13
100
AcDbEllipse
 10
5362.278427952498
 20
3011.270120231655
 30
0.0
 11
21.86569797210526
 21
81.6038957748525
 31
0.0
210
0.0
220
0.0
230
1.0
 40
0.5
 41
4.340591432030095
 42
8.225779182329084
  0
LINE
  5
253
330
1F
100
AcDbEntity
  8
0-8_戸当
  6
Continuous
 62
    92
370
    13
100
AcDbLine
 10
5366.807881561307
 20
2926.407363477468
 30
0.0
 11
5315.924427684913
 21
2940.041543851753
 31
0.0
  0
LINE
  5
254
330
1F
100
AcDbEntity
  8
0-8_戸当
  6
Continuous
 62
    92
370
    13
100
AcDbLine
 10
5363.546761593016
 20
2914.236698066226
 30
0.0
 11
5312.663307716622
 21
2927.870878440511
 31
0.0
  0
ELLIPSE
  5
255
330
1F
100
AcDbEntity
  8
0-8_戸当
  6
Continuous
 62
    92
370
    13
100
AcDbEllipse
 10
5338.105034654817
 20
2921.053788253368
 30
0.0
 11
11.36181697857171
 21
42.40287823032828
 31
0.0
210
0.0
220
0.0
230
1.0
 40
0.6
 41
1.570796326794897
 42
4.71238898038469
  0
LINE
  5
256
330
1F
100
AcDbEntity
  8
0-8_戸当
  6
Continuous
 62
    40
370
    15
100
AcDbLine
 10
5049.835838693025
 20
3481.846273380328
 30
0.0
 11
5049.835838693025
 21
3133.246273380327
 31
0.0
  0
LINE
  5
257
330
1F
100
AcDbEntity
  8
0-8_戸当
  6
Continuous
 62
    40
370
    15
100
AcDbLine
 10
5511.835838693028
 20
3481.846273380328
 30
0.0
 11
5511.835838693028
 21
3292.846273380327
 31
0.0
  0
ARC
  5
258
330
1F
100
AcDbEntity
  8
0-8_戸当
  6
Continuous
 62
    40
370
    15
100
AcDbCircle
 10
5049.835838693025
 20
3444.046273380328
 30
0.0
 40
310.8
100
AcDbArc
 50
270.0
 51
0.0
  0
ARC
  5
259
330
1F
100
AcDbEntity
  8
0-8_戸当
  6
Continuous
 62
    40
370
    15
100
AcDbCircle
 10
5511.835838693028
 20
3444.046273380328
 30
0.0
 40
151.1999999999998
100
AcDbArc
 50
180.0
 51
270.0
  0
LINE
  5
25A
330
1F
100
AcDbEntity
  8
0-8_戸当
  6
Continuous
 62
    40
370
    15
100
AcDbLine
 10
5658.835838693027
 20
3444.046273380328
 30
0.0
 11
4902.835838693026
 21
3444.046273380328
 31
0.0
  0
LINE
  5
25B
330
1F
100
AcDbEntity
  8
0-0_補助線
  6
JWW_HOJO
 62
   120
370
     5
100
AcDbLine
 10
5280.835838693027
 20
3730.000181455871
 30
0.0
 11
5280.835838693027
 21
2764.000181455871
 31
0.0
  0
LINE
  5
25C
330
1F
100
AcDbEntity
  8
0-0_補助線
  6
JWW_HOJO
 62
   120
370
     5
100
AcDbLine
 10
4482.835838693026
 20
3730.000181455871
 30
0.0
 11
4482.835838693026
 21
2764.000181455871
 31
0.0
  0
ELLIPSE
  5
25D
330
1F
100
AcDbEntity
  8
0-8_戸当
  6
Continuous
 62
    92
370
    13
100
AcDbEllipse
 10
4409.192036141518
 20
2972.884428393054
 30
0.0
 11
-17.7763823922528
 21
100.8148742797557
 31
0.0
210
0.0
220
0.0
230
1.0
 40
0.4000000000000001
 41
1.85063327265668
 42
2.442876790075129
  0
ELLIPSE
  5
25E
330
1F
100
AcDbEntity
  8
0-8_戸当
  6
Continuous
 62
    92
370
    13
100
AcDbEllipse
 10
4409.192036141518
 20
2972.884428393054
 30
0.0
 11
-17.7763823922528
 21
100.8148742797557
 31
0.0
210
0.0
220
0.0
230
1.0
 40
0.4000000000000001
 41
3.840308517104467
 42
4.432552034522944
  0
ELLIPSE
  5
25F
330
1F
100
AcDbEntity
  8
0-8_戸当
  6
Continuous
 62
    92
370
    13
100
AcDbEllipse
 10
4408.772290091619
 20
2975.264926534712
 30
0.0
 11
-14.67024424252691
 21
83.19908946199425
 31
0.0
210
0.0
220
0.0
230
1.0
 40
0.5
 41
4.340591432030095
 42
8.225779182329084
  0
LINE
  5
260
330
1F
100
AcDbEntity
  8
0-8_戸当
  6
Continuous
 62
    92
370
    13
100
AcDbLine
 10
4448.741919914281
 20
2900.267379069785
 30
0.0
 11
4396.863795824745
 21
2891.119866084259
 31
0.0
  0
LINE
  5
261
330
1F
100
AcDbEntity
  8
0-8_戸当
  6
Continuous
 62
    92
370
    13
100
AcDbLine
 10
4450.929886952883
 20
2887.858801381832
 30
0.0
 11
4399.051762863348
 21
2878.711288396305
 31
0.0
  0
ELLIPSE
  5
262
330
1F
100
AcDbEntity
  8
0-8_戸当
  6
Continuous
 62
    92
370
    13
100
AcDbEllipse
 10
4424.990824908116
 20
2883.285044889068
 30
0.0
 11
-7.622927487939132
 21
43.23177007461331
 31
0.0
210
0.0
220
0.0
230
1.0
 40
0.6
 41
1.570796326794897
 42
4.71238898038469
  0
ELLIPSE
  5
263
330
1F
100
AcDbEntity
  8
0-8_戸当
  6
Continuous
 62
    92
370
    13
100
AcDbEllipse
 10
4563.652805079397
 20
3008.935263882862
 30
0.0
 11
26.49533313827762
 21
98.88192943551533
 31
0.0
210
0.0
220
0.0
230
1.0
 40
0.4
 41
1.85063327265668
 42
2.442876790075129
  0
ELLIPSE
  5
264
330
1F
100
AcDbEntity
  8
0-8_戸当
  6
Continuous
 62
    92
370
    13
100
AcDbEllipse
 10
4563.652805079397
 20
3008.935263882862
 30
0.0
 11
26.49533313827762
 21
98.88192943551533
 31
0.0
210
0.0
220
0.0
230
1.0
 40
0.4
 41
3.840308517104467
 42
4.432552034522944
  0
ELLIPSE
  5
265
330
1F
100
AcDbEntity
  8
0-8_戸当
  6
Continuous
 62
    92
370
    13
100
AcDbEllipse
 10
4564.278427952497
 20
3011.270120231655
 30
0.0
 11
21.86569797210526
 21
81.6038957748525
 31
0.0
210
0.0
220
0.0
230
1.0
 40
0.5
 41
4.340591432030095
 42
8.225779182329084
  0
LINE
  5
266
330
1F
100
AcDbEntity
  8
0-8_戸当
  6
Continuous
 62
    92
370
    13
100
AcDbLine
 10
4568.807881561306
 20
2926.407363477468
 30
0.0
 11
4517.924427684912
 21
2940.041543851753
 31
0.0
  0
LINE
  5
267
330
1F
100
AcDbEntity
  8
0-8_戸当
  6
Continuous
 62
    92
370
    13
100
AcDbLine
 10
4565.546761593015
 20
2914.236698066226
 30
0.0
 11
4514.663307716621
 21
2927.870878440511
 31
0.0
  0
ELLIPSE
  5
268
330
1F
100
AcDbEntity
  8
0-8_戸当
  6
Continuous
 62
    92
370
    13
100
AcDbEllipse
 10
4540.105034654818
 20
2921.053788253368
 30
0.0
 11
11.36181697857171
 21
42.40287823032828
 31
0.0
210
0.0
220
0.0
230
1.0
 40
0.6
 41
1.570796326794897
 42
4.71238898038469
  0
LINE
  5
269
330
1F
100
AcDbEntity
  8
0-8_戸当
  6
Continuous
 62
    40
370
    15
100
AcDbLine
 10
4713.835838693027
 20
3481.846273380328
 30
0.0
 11
4713.835838693027
 21
3133.246273380327
 31
0.0
  0
LINE
  5
26A
330
1F
100
AcDbEntity
  8
0-8_戸当
  6
Continuous
 62
    40
370
    15
100
AcDbLine
 10
4251.835838693028
 20
3481.846273380328
 30
0.0
 11
4251.835838693028
 21
3292.846273380327
 31
0.0
  0
ARC
  5
26B
330
1F
100
AcDbEntity
  8
0-8_戸当
  6
Continuous
 62
    40
370
    15
100
AcDbCircle
 10
4713.835838693027
 20
3444.046273380328
 30
0.0
 40
310.8
100
AcDbArc
 50
180.0
 51
270.0
  0
ARC
  5
26C
330
1F
100
AcDbEntity
  8
0-8_戸当
  6
Continuous
 62
    40
370
    15
100
AcDbCircle
 10
4251.835838693028
 20
3444.046273380328
 30
0.0
 40
151.1999999999998
100
AcDbArc
 50
270.0
 51
0.0
  0
LINE
  5
26D
330
1F
100
AcDbEntity
  8
0-8_戸当
  6
Continuous
 62
    40
370
    15
100
AcDbLine
 10
4104.835838693025
 20
3444.046273380328
 30
0.0
 11
4860.835838693027
 21
3444.046273380328
 31
0.0
  0
TEXT
  5
26E
330
1F
100
AcDbEntity
  8
0-A_文字
  6
Continuous
 62
     7
370
     9
100
AcDbText
 10
4083.835838693027
 20
3776.920181455871
 30
0.0
 40
91.44
  1
■吊り手方向
 41
1.104166666666667
  7
ＭＳ ゴシック
100
AcDbText
  0
TEXT
  5
26F
330
1F
100
AcDbEntity
  8
0-A_文字
  6
Continuous
 62
     7
370
     9
100
AcDbText
 10
4332.835838693026
 20
3634.690181455871
 30
0.0
 40
68.58
  1
右吊元
 41
1.111111111111111
  7
ＭＳ ゴシック
100
AcDbText
  0
TEXT
  5
270
330
1F
100
AcDbEntity
  8
0-A_文字
  6
Continuous
 62
     7
370
     9
100
AcDbText
 10
5131.574329392652
 20
3634.690181455871
 30
0.0
 40
68.58
  1
左吊元
 41
1.111111111111111
  7
ＭＳ ゴシック
100
AcDbText
  0
TEXT
  5
271
330
1F
100
AcDbEntity
  8
0-A_文字
  6
Continuous
 62
    92
370
    13
100
AcDbText
 10
-5551.249495325861
 20
3800.380181455871
 30
0.0
 40
137.16
  1
親子ドア　下枠付[固定枠170巾]
 41
1.080459770114943
  7
ＭＳ ゴシック
100
AcDbText
  0
TEXT
  5
272
330
1F
100
AcDbEntity
  8
F-A_文字
  6
Continuous
 62
     7
370
     0
100
AcDbText
 10
-5080.081323642279
 20
-4027.30993607839
 30
0.0
 40
68.58
  1
ソフトアート　親子ドア　固定枠170　気密　下枠付　ドアＨ共通　枠外Ｗ1189
 41
1.164319248826291
  7
ＭＳ ゴシック
100
AcDbText
  0
TEXT
  5
273
330
1F
100
AcDbEntity
  8
F-A_文字
  6
Continuous
 62
     7
370
     9
100
AcDbText
 10
3281.167643811961
 20
-4127.313118467413
 30
0.0
 40
68.58
  1
F01(X)-E1189KQe_S01
 41
1.157894736842105
  7
ＭＳ ゴシック
100
AcDbText
  0
LINE
  5
274
330
1F
100
AcDbEntity
  8
0-6_扉
  6
Continuous
 62
   200
370
    20
100
AcDbLine
 10
2058.918171683583
 20
2204.999683277018
 30
0.0
 11
2058.918171683583
 21
1988.999683277019
 31
0.0
  0
LINE
  5
275
330
1F
100
AcDbEntity
  8
0-6_扉
  6
Continuous
 62
   200
370
    20
100
AcDbLine
 10
-563.3034642003222
 20
1988.999683277018
 30
0.0
 11
-563.3034642003222
 21
2204.999683277018
 31
0.0
  0
LINE
  5
276
330
1F
100
AcDbEntity
  8
0-1_通り芯
  6
JWW_CENTER1
 62
     7
370
     9
100
AcDbLine
 10
-761.5142169903036
 20
2096.999683277016
 30
0.0
 11
-510.8005259777255
 21
2096.999683277016
 31
0.0
  0
CIRCLE
  5
277
330
1F
100
AcDbEntity
  8
0-1_通り芯
  6
Continuous
 62
     7
370
     9
100
AcDbCircle
 10
-638.303464200317
 20
2096.999683277016
 30
0.0
 40
42.00000000000001
  0
LINE
  5
278
330
1F
100
AcDbEntity
  8
0-1_通り芯
  6
JWW_CENTER1
 62
     7
370
     9
100
AcDbLine
 10
-638.303464200317
 20
2245.773804593694
 30
0.0
 11
-638.303464200317
 21
1950.378465677884
 31
0.0
  0
LINE
  5
279
330
1F
100
AcDbEntity
  8
0-0_補助線
  6
JWW_HOJO
 62
   120
370
     5
100
AcDbLine
 10
699.807353741629
 20
2672.999683277031
 30
0.0
 11
699.807353741629
 21
1772.999683277031
 31
0.0
  0
LINE
  5
27A
330
1F
100
AcDbEntity
  8
0-0_補助線
  6
JWW_HOJO
 62
   120
370
     5
100
AcDbLine
 10
819.807353741629
 20
2672.999683277031
 30
0.0
 11
819.807353741629
 21
1772.999683277031
 31
0.0
  0
CIRCLE
  5
27B
330
1F
100
AcDbEntity
  8
0-0_補助線
  6
Continuous
 62
     7
370
     9
100
AcDbCircle
 10
2039.165484015371
 20
1912.029120528536
 30
0.0
 40
21.00000000000001
  0
CIRCLE
  5
27C
330
1F
100
AcDbEntity
  8
0-0_補助線
  6
Continuous
 62
     7
370
     9
100
AcDbCircle
 10
2039.165484015371
 20
1912.029120528536
 30
0.0
 40
30.0
  0
TEXT
  5
27D
330
1F
100
AcDbEntity
  8
0-A_文字
  6
Continuous
 62
     7
370
     0
100
AcDbText
 10
2214.918171683582
 20
1765.919683277018
 30
0.0
 40
91.44
  1
（親ドア側）
  7
ＭＳ ゴシック
100
AcDbText
  0
LWPOLYLINE
  5
27E
330
1F
100
AcDbEntity
  8
0-B_寸法
  6
Continuous
 62
     7
370
     9
100
AcDbPolyline
 90
        4
 70
     1
 43
6.0
 10
-2180.081828316422
 20
848.9996832770163
 42
0.4142135623731
 10
-2183.081828316422
 20
851.9996832770163
 42
0.4142135623731
 10
-2186.081828316422
 20
848.9996832770163
 42
0.4142135623731
 10
-2183.081828316422
 20
845.9996832770163
 42
0.4142135623731
  0
LWPOLYLINE
  5
27F
330
1F
100
AcDbEntity
  8
0-B_寸法
  6
Continuous
 62
     7
370
     9
100
AcDbPolyline
 90
        4
 70
     1
 43
6.0
 10
-2180.081828316422
 20
1028.999683277016
 42
0.4142135623731
 10
-2183.081828316422
 20
1031.999683277016
 42
0.4142135623731
 10
-2186.081828316422
 20
1028.999683277016
 42
0.4142135623731
 10
-2183.081828316422
 20
1025.999683277016
 42
0.4142135623731
  0
LWPOLYLINE
  5
280
330
1F
100
AcDbEntity
  8
0-B_寸法
  6
Continuous
 62
     7
370
     9
100
AcDbPolyline
 90
        4
 70
     1
 43
6.0
 10
-2036.08182831642
 20
1028.999683277016
 42
0.4142135623731
 10
-2039.08182831642
 20
1031.999683277016
 42
0.4142135623731
 10
-2042.08182831642
 20
1028.999683277016
 42
0.4142135623731
 10
-2039.08182831642
 20
1025.999683277016
 42
0.4142135623731
  0
LWPOLYLINE
  5
281
330
1F
100
AcDbEntity
  8
0-B_寸法
  6
Continuous
 62
     7
370
     9
100
AcDbPolyline
 90
        4
 70
     1
 43
6.0
 10
-2036.08182831642
 20
1208.999683277017
 42
0.4142135623731
 10
-2039.08182831642
 20
1211.999683277017
 42
0.4142135623731
 10
-2042.08182831642
 20
1208.999683277017
 42
0.4142135623731
 10
-2039.08182831642
 20
1205.999683277017
 42
0.4142135623731
  0
LWPOLYLINE
  5
282
330
1F
100
AcDbEntity
  8
0-B_寸法
  6
Continuous
 62
     7
370
     9
100
AcDbPolyline
 90
        4
 70
     1
 43
6.0
 10
-2024.081828316421
 20
1208.999683277017
 42
0.4142135623731
 10
-2027.081828316421
 20
1211.999683277017
 42
0.4142135623731
 10
-2030.08182831642
 20
1208.999683277017
 42
0.4142135623731
 10
-2027.081828316421
 20
1205.999683277017
 42
0.4142135623731
  0
LWPOLYLINE
  5
283
330
1F
100
AcDbEntity
  8
0-B_寸法
  6
Continuous
 62
     7
370
     9
100
AcDbPolyline
 90
        4
 70
     1
 43
6.0
 10
-536.3034642003234
 20
1208.999683277017
 42
0.4142135623731
 10
-539.3034642003236
 20
1211.999683277017
 42
0.4142135623731
 10
-542.3034642003236
 20
1208.999683277017
 42
0.4142135623731
 10
-539.3034642003236
 20
1205.999683277017
 42
0.4142135623731
  0
LWPOLYLINE
  5
284
330
1F
100
AcDbEntity
  8
0-B_寸法
  6
Continuous
 62
     7
370
     9
100
AcDbPolyline
 90
        4
 70
     1
 43
6.0
 10
-560.3034642003221
 20
1208.999683277017
 42
0.4142135623731
 10
-563.3034642003222
 20
1211.999683277017
 42
0.4142135623731
 10
-566.3034642003222
 20
1208.999683277017
 42
0.4142135623731
 10
-563.3034642003222
 20
1205.999683277017
 42
0.4142135623731
  0
TEXT
  5
285
330
1F
100
AcDbEntity
  8
0-B_寸法
  6
Continuous
 62
     7
370
   211
100
AcDbText
 10
-2107.016251847185
 20
1240.919683277017
 30
0.0
 40
91.44
  1
2
  7
ＭＳ ゴシック
100
AcDbText
  0
TEXT
  5
286
330
1F
100
AcDbEntity
  8
0-B_寸法
  6
Continuous
 62
     7
370
   211
100
AcDbText
 10
-1565.192646258371
 20
1240.919683277017
 30
0.0
 40
91.44
  1
ＤＷ＝410
  7
ＭＳ ゴシック
100
AcDbText
  0
TEXT
  5
287
330
1F
100
AcDbEntity
  8
0-B_寸法
  6
Continuous
 62
     7
370
   211
100
AcDbText
 10
-525.9005778824289
 20
1240.919683277017
 30
0.0
 40
91.44
  1
4
  7
ＭＳ ゴシック
100
AcDbText
  0
LINE
  5
288
330
1F
100
AcDbEntity
  8
0-B_寸法
  6
Continuous
 62
   120
370
     5
100
AcDbLine
 10
2214.918171683581
 20
848.9996832770163
 30
0.0
 11
-2183.081828316422
 21
848.9996832770163
 31
0.0
  0
LINE
  5
289
330
1F
100
AcDbEntity
  8
0-B_寸法
  6
Continuous
 62
   120
370
     5
100
AcDbLine
 10
2214.918171683581
 20
1028.999683277016
 30
0.0
 11
-2183.081828316422
 21
1028.999683277016
 31
0.0
  0
LINE
  5
28A
330
1F
100
AcDbEntity
  8
0-B_寸法
  6
Continuous
 62
   120
370
     5
100
AcDbLine
 10
2070.918171683583
 20
1208.999683277017
 30
0.0
 11
-2039.08182831642
 21
1208.999683277017
 31
0.0
  0
LWPOLYLINE
  5
28B
330
1F
100
AcDbEntity
  8
0-B_寸法
  6
Continuous
 62
     7
370
     9
100
AcDbPolyline
 90
        4
 70
     1
 43
6.0
 10
2217.918171683581
 20
848.9996832770163
 42
0.4142135623731
 10
2214.918171683581
 20
851.9996832770163
 42
0.4142135623731
 10
2211.918171683581
 20
848.9996832770163
 42
0.4142135623731
 10
2214.918171683581
 20
845.9996832770163
 42
0.4142135623731
  0
LWPOLYLINE
  5
28C
330
1F
100
AcDbEntity
  8
0-B_寸法
  6
Continuous
 62
     7
370
     9
100
AcDbPolyline
 90
        4
 70
     1
 43
6.0
 10
2073.918171683582
 20
1028.999683277016
 42
0.4142135623731
 10
2070.918171683583
 20
1031.999683277016
 42
0.4142135623731
 10
2067.918171683583
 20
1028.999683277016
 42
0.4142135623731
 10
2070.918171683583
 20
1025.999683277016
 42
0.4142135623731
  0
LWPOLYLINE
  5
28D
330
1F
100
AcDbEntity
  8
0-B_寸法
  6
Continuous
 62
     7
370
     9
100
AcDbPolyline
 90
        4
 70
     1
 43
6.0
 10
2217.918171683581
 20
1028.999683277016
 42
0.4142135623731
 10
2214.918171683581
 20
1031.999683277016
 42
0.4142135623731
 10
2211.918171683581
 20
1028.999683277016
 42
0.4142135623731
 10
2214.918171683581
 20
1025.999683277016
 42
0.4142135623731
  0
LWPOLYLINE
  5
28E
330
1F
100
AcDbEntity
  8
0-B_寸法
  6
Continuous
 62
     7
370
     9
100
AcDbPolyline
 90
        4
 70
     1
 43
6.0
 10
2061.918171683583
 20
1208.999683277017
 42
0.4142135623731
 10
2058.918171683583
 20
1211.999683277017
 42
0.4142135623731
 10
2055.918171683584
 20
1208.999683277017
 42
0.4142135623731
 10
2058.918171683583
 20
1205.999683277017
 42
0.4142135623731
  0
LWPOLYLINE
  5
28F
330
1F
100
AcDbEntity
  8
0-B_寸法
  6
Continuous
 62
     7
370
     9
100
AcDbPolyline
 90
        4
 70
     1
 43
6.0
 10
2073.918171683582
 20
1208.999683277017
 42
0.4142135623731
 10
2070.918171683583
 20
1211.999683277017
 42
0.4142135623731
 10
2067.918171683583
 20
1208.999683277017
 42
0.4142135623731
 10
2070.918171683583
 20
1205.999683277017
 42
0.4142135623731
  0
TEXT
  5
290
330
1F
100
AcDbEntity
  8
0-B_寸法
  6
Continuous
 62
     7
370
   211
100
AcDbText
 10
489.8073537416289
 20
1240.919683277017
 30
0.0
 40
91.44
  1
ＤＷ＝723
  7
ＭＳ ゴシック
100
AcDbText
  0
TEXT
  5
291
330
1F
100
AcDbEntity
  8
0-B_寸法
  6
Continuous
 62
     7
370
   211
100
AcDbText
 10
2078.230916164134
 20
1240.919683277017
 30
0.0
 40
91.44
  1
2
  7
ＭＳ ゴシック
100
AcDbText
  0
TEXT
  5
292
330
1F
100
AcDbEntity
  8
0-B_寸法
  6
Continuous
 62
     7
370
   211
100
AcDbText
 10
-2171.08182831642
 20
1060.919683277017
 30
0.0
 40
91.44
  1
24
  7
ＭＳ ゴシック
100
AcDbText
  0
TEXT
  5
293
330
1F
100
AcDbEntity
  8
0-B_寸法
  6
Continuous
 62
     7
370
   211
100
AcDbText
 10
2082.918171683581
 20
1060.919683277017
 30
0.0
 40
91.44
  1
24
  7
ＭＳ ゴシック
100
AcDbText
  0
TEXT
  5
294
330
1F
100
AcDbEntity
  8
0-B_寸法
  6
Continuous
 62
     7
370
   211
100
AcDbText
 10
-311.0818283164187
 20
1060.919683277017
 30
0.0
 40
91.44
  1
枠内＝1,141
  7
ＭＳ ゴシック
100
AcDbText
  0
TEXT
  5
295
330
1F
100
AcDbEntity
  8
0-B_寸法
  6
Continuous
 62
     7
370
   211
100
AcDbText
 10
-311.0818283164187
 20
880.919683277017
 30
0.0
 40
91.44
  1
枠外＝1,189
  7
ＭＳ ゴシック
100
AcDbText
  0
TEXT
  5
296
330
1F
100
AcDbEntity
  8
0-A_文字
  6
Continuous
 62
     7
370
     9
100
AcDbText
 10
2020.857142857143
 20
685.5471428571315
 30
0.0
 40
68.58
  1
※図示：右吊り元
  7
ＭＳ ゴシック
100
AcDbText
  0
LINE
  5
297
330
1F
100
AcDbEntity
  8
0-B_寸法
  6
Continuous
 62
   120
370
     5
100
AcDbLine
 10
-2027.081828316421
 20
1208.999683277017
 30
0.0
 11
-2027.081828316421
 21
1748.999683277018
 31
0.0
  0
LINE
  5
298
330
1F
100
AcDbEntity
  8
0-B_寸法
  6
Continuous
 62
   120
370
     5
100
AcDbLine
 10
-2039.08182831642
 20
1028.999683277016
 30
0.0
 11
-2039.08182831642
 21
1748.999683277018
 31
0.0
  0
LINE
  5
299
330
1F
100
AcDbEntity
  8
0-B_寸法
  6
Continuous
 62
   120
370
     5
100
AcDbLine
 10
-2183.081828316422
 20
848.9996832770163
 30
0.0
 11
-2183.081828316422
 21
1748.999683277018
 31
0.0
  0
LINE
  5
29A
330
1F
100
AcDbEntity
  8
0-B_寸法
  6
Continuous
 62
   120
370
     5
100
AcDbLine
 10
2058.918171683583
 20
1208.999683277017
 30
0.0
 11
2058.918171683583
 21
1748.999683277018
 31
0.0
  0
LINE
  5
29B
330
1F
100
AcDbEntity
  8
0-B_寸法
  6
Continuous
 62
   120
370
     5
100
AcDbLine
 10
2070.918171683583
 20
1028.999683277016
 30
0.0
 11
2070.918171683583
 21
1748.999683277018
 31
0.0
  0
LINE
  5
29C
330
1F
100
AcDbEntity
  8
0-B_寸法
  6
Continuous
 62
   120
370
     5
100
AcDbLine
 10
2214.918171683581
 20
848.9996832770163
 30
0.0
 11
2214.918171683581
 21
1748.999683277018
 31
0.0
  0
LINE
  5
29D
330
1F
100
AcDbEntity
  8
0-B_寸法
  6
Continuous
 62
   120
370
     5
100
AcDbLine
 10
-539.3034642003236
 20
1208.999683277017
 30
0.0
 11
-539.3034642003236
 21
1388.999683277016
 31
0.0
  0
LINE
  5
29E
330
1F
100
AcDbEntity
  8
0-B_寸法
  6
Continuous
 62
   120
370
     5
100
AcDbLine
 10
-563.3034642003222
 20
1208.999683277017
 30
0.0
 11
-563.3034642003222
 21
1388.999683277016
 31
0.0
  0
TEXT
  5
29F
330
1F
100
AcDbEntity
  8
0-B_寸法
  6
Continuous
 62
     7
370
   211
100
AcDbText
 10
-551.0818283164188
 20
1420.919683277012
 30
0.0
 40
91.44
  1
有効開口寸法＝1,021
  7
ＭＳ ゴシック
100
AcDbText
  0
LWPOLYLINE
  5
2A0
330
1F
100
AcDbEntity
  8
0-B_寸法
  6
Continuous
 62
     7
370
     9
100
AcDbPolyline
 90
        4
 70
     1
 43
6.0
 10
-1670.112904286319
 20
1388.999683277017
 42
0.4142135623731
 10
-1673.112904286319
 20
1391.999683277017
 42
0.4142135623731
 10
-1676.112904286319
 20
1388.999683277017
 42
0.4142135623731
 10
-1673.112904286319
 20
1385.999683277017
 42
0.4142135623731
  0
LINE
  5
2A1
330
1F
100
AcDbEntity
  8
0-B_寸法
  6
Continuous
 62
   120
370
     5
100
AcDbLine
 10
-1673.112904286319
 20
1388.999683277017
 30
0.0
 11
-1673.112904286319
 21
1748.999683277018
 31
0.0
  0
LWPOLYLINE
  5
2A2
330
1F
100
AcDbEntity
  8
0-B_寸法
  6
Continuous
 62
     7
370
     9
100
AcDbPolyline
 90
        4
 70
     1
 43
6.0
 10
1713.949247653482
 20
1388.999683277017
 42
0.4142135623731
 10
1710.949247653482
 20
1391.999683277017
 42
0.4142135623731
 10
1707.949247653482
 20
1388.999683277017
 42
0.4142135623731
 10
1710.949247653482
 20
1385.999683277017
 42
0.4142135623731
  0
LINE
  5
2A3
330
1F
100
AcDbEntity
  8
0-B_寸法
  6
Continuous
 62
   120
370
     5
100
AcDbLine
 10
1710.949247653482
 20
1388.999683277017
 30
0.0
 11
1710.949247653482
 21
1748.999683277018
 31
0.0
  0
LINE
  5
2A4
330
1F
100
AcDbEntity
  8
0-B_寸法
  6
Continuous
 62
   120
370
     5
100
AcDbLine
 10
-1673.112904286319
 20
1388.999683277017
 30
0.0
 11
1710.949247653482
 21
1388.999683277017
 31
0.0
  0
LINE
  5
2A5
330
1F
100
AcDbEntity
  8
0-6_扉
  6
JWW_DASHED2
 62
   200
370
    20
100
AcDbLine
 10
1710.949247653482
 20
1873.341493170647
 30
0.0
 11
1926.949247653481
 21
1873.341493170647
 31
0.0
  0
LINE
  5
2A6
330
1F
100
AcDbEntity
  8
0-6_扉
  6
JWW_DASHED2
 62
   200
370
    20
100
AcDbLine
 10
1926.949247653481
 20
1873.341493170647
 30
0.0
 11
1926.949247653481
 21
1748.999683277018
 31
0.0
  0
LINE
  5
2A7
330
1F
100
AcDbEntity
  8
0-6_扉
  6
JWW_DASHED2
 62
   200
370
    20
100
AcDbLine
 10
1710.949247653482
 20
1873.341493170647
 30
0.0
 11
1710.949247653482
 21
1748.999683277018
 31
0.0
  0
LINE
  5
2A8
330
1F
100
AcDbEntity
  8
0-6_扉
  6
JWW_DASHED2
 62
   200
370
    20
100
AcDbLine
 10
-1673.112904286319
 20
1873.341493170647
 30
0.0
 11
-1889.112904286319
 21
1873.341493170647
 31
0.0
  0
LINE
  5
2A9
330
1F
100
AcDbEntity
  8
0-6_扉
  6
JWW_DASHED2
 62
   200
370
    20
100
AcDbLine
 10
-1889.112904286319
 20
1873.341493170647
 30
0.0
 11
-1889.112904286319
 21
1748.999683277018
 31
0.0
  0
LINE
  5
2AA
330
1F
100
AcDbEntity
  8
0-6_扉
  6
JWW_DASHED2
 62
   200
370
    20
100
AcDbLine
 10
-1673.112904286319
 20
1873.341493170647
 30
0.0
 11
-1673.112904286319
 21
1748.999683277018
 31
0.0
  0
TEXT
  5
2AB
330
1F
100
AcDbEntity
  8
0-A_文字
  6
Continuous
 62
     7
370
     0
100
AcDbText
 10
-2903.081828316421
 20
1765.919683277018
 30
0.0
 40
91.44
  1
（子ドア側）
  7
ＭＳ ゴシック
100
AcDbText
  0
CIRCLE
  5
2AC
330
1F
100
AcDbEntity
  8
0-0_補助線
  6
Continuous
 62
     7
370
     9
100
AcDbCircle
 10
-2018.299703396686
 20
1912.029120528536
 30
0.0
 40
30.0
  0
CIRCLE
  5
2AD
330
1F
100
AcDbEntity
  8
0-0_補助線
  6
Continuous
 62
     7
370
     9
100
AcDbCircle
 10
-2018.299703396686
 20
1912.029120528536
 30
0.0
 40
21.00000000000001
  0
LINE
  5
2AE
330
1F
100
AcDbEntity
  8
0-6_扉
  6
Continuous
 62
   200
370
    20
100
AcDbLine
 10
-563.3034642003222
 20
2204.999683277018
 30
0.0
 11
-563.3034642003222
 21
1988.999683277019
 31
0.0
  0
LINE
  5
2AF
330
1F
100
AcDbEntity
  8
0-6_扉
  6
Continuous
 62
   200
370
    20
100
AcDbLine
 10
-539.3034642003236
 20
2204.999683277018
 30
0.0
 11
-539.3034642003236
 21
1988.999683277017
 31
0.0
  0
LINE
  5
2B0
330
1F
100
AcDbEntity
  8
0-6_扉
  6
Continuous
 62
   200
370
    20
100
AcDbLine
 10
-539.3034642003236
 20
1988.999683277019
 30
0.0
 11
-539.3034642003236
 21
2204.999683277018
 31
0.0
  0
LINE
  5
2B1
330
1F
100
AcDbEntity
  8
0-6_扉
  6
Continuous
 62
   200
370
    20
100
AcDbLine
 10
-539.3034642003236
 20
2204.999683277018
 30
0.0
 11
699.807353741629
 21
2204.999683277018
 31
0.0
  0
LINE
  5
2B2
330
1F
100
AcDbEntity
  8
0-6_扉
  6
Continuous
 62
   200
370
    20
100
AcDbLine
 10
-539.3034642003236
 20
1988.999683277019
 30
0.0
 11
699.807353741629
 21
1988.999683277019
 31
0.0
  0
LINE
  5
2B3
330
1F
100
AcDbEntity
  8
0-C_ﾊｯﾁ
  6
JWW_DASHED1
 62
   120
370
     5
100
AcDbLine
 10
3361.501571185334
 20
2003.999683277007
 30
0.0
 11
3414.918171683583
 21
2057.416283775258
 31
0.0
  0
LINE
  5
2B4
330
1F
100
AcDbEntity
  8
0-C_ﾊｯﾁ
  6
JWW_DASHED1
 62
   120
370
     5
100
AcDbLine
 10
3403.927978056534
 20
2003.999683277007
 30
0.0
 11
3414.918171683583
 21
2014.989876904058
 31
0.0
  0
LINE
  5
2B5
330
1F
100
AcDbEntity
  8
0-C_ﾊｯﾁ
  6
JWW_DASHED1
 62
   120
370
     5
100
AcDbLine
 10
3319.075164314134
 20
2003.999683277007
 30
0.0
 11
3394.075164314148
 21
2078.999683277019
 31
0.0
  0
LINE
  5
2B6
330
1F
100
AcDbEntity
  8
0-3_仕上
  6
Continuous
 62
    40
370
    15
100
AcDbLine
 10
3414.918171683583
 20
2078.999683277018
 30
0.0
 11
2214.918171683582
 21
2078.999683277018
 31
0.0
  0
LINE
  5
2B7
330
1F
100
AcDbEntity
  8
0-3_仕上
  6
Continuous
 62
    40
370
    15
100
AcDbLine
 10
3414.918171683583
 20
2003.999683277018
 30
0.0
 11
2214.918171683582
 21
2003.999683277018
 31
0.0
  0
LINE
  5
2B8
330
1F
100
AcDbEntity
  8
0-C_ﾊｯﾁ
  6
JWW_DASHED1
 62
   120
370
     5
100
AcDbLine
 10
3276.648757442936
 20
2003.999683277007
 30
0.0
 11
3351.648757442958
 21
2078.99968327703
 31
0.0
  0
LINE
  5
2B9
330
1F
100
AcDbEntity
  8
0-C_ﾊｯﾁ
  6
JWW_DASHED1
 62
   120
370
     5
100
AcDbLine
 10
3234.222350571737
 20
2003.999683277007
 30
0.0
 11
3309.222350571747
 21
2078.999683277019
 31
0.0
  0
LINE
  5
2BA
330
1F
100
AcDbEntity
  8
0-C_ﾊｯﾁ
  6
JWW_DASHED1
 62
   120
370
     5
100
AcDbLine
 10
3191.795943700541
 20
2003.999683277011
 30
0.0
 11
3266.795943700552
 21
2078.999683277022
 31
0.0
  0
LINE
  5
2BB
330
1F
100
AcDbEntity
  8
0-C_ﾊｯﾁ
  6
JWW_DASHED1
 62
   120
370
     5
100
AcDbLine
 10
3149.369536829402
 20
2003.999683277019
 30
0.0
 11
3224.369536829395
 21
2078.999683277011
 31
0.0
  0
LINE
  5
2BC
330
1F
100
AcDbEntity
  8
0-C_ﾊｯﾁ
  6
JWW_DASHED1
 62
   120
370
     5
100
AcDbLine
 10
3106.943129958206
 20
2003.999683277022
 30
0.0
 11
3181.943129958198
 21
2078.999683277014
 31
0.0
  0
LINE
  5
2BD
330
1F
100
AcDbEntity
  8
0-C_ﾊｯﾁ
  6
JWW_DASHED1
 62
   120
370
     5
100
AcDbLine
 10
3064.516723087011
 20
2003.999683277027
 30
0.0
 11
3139.516723087001
 21
2078.999683277018
 31
0.0
  0
LINE
  5
2BE
330
1F
100
AcDbEntity
  8
0-C_ﾊｯﾁ
  6
JWW_DASHED1
 62
   120
370
     5
100
AcDbLine
 10
3022.090316215806
 20
2003.999683277022
 30
0.0
 11
3097.090316215804
 21
2078.999683277021
 31
0.0
  0
LINE
  5
2BF
330
1F
100
AcDbEntity
  8
0-C_ﾊｯﾁ
  6
JWW_DASHED1
 62
   120
370
     5
100
AcDbLine
 10
2979.663909344608
 20
2003.999683277026
 30
0.0
 11
3054.663909344607
 21
2078.999683277025
 31
0.0
  0
LINE
  5
2C0
330
1F
100
AcDbEntity
  8
0-C_ﾊｯﾁ
  6
JWW_DASHED1
 62
   120
370
     5
100
AcDbLine
 10
2937.237502473395
 20
2003.999683277012
 30
0.0
 11
3012.237502473411
 21
2078.999683277028
 31
0.0
  0
LINE
  5
2C1
330
1F
100
AcDbEntity
  8
0-C_ﾊｯﾁ
  6
JWW_DASHED1
 62
   120
370
     5
100
AcDbLine
 10
2894.811095602194
 20
2003.999683277011
 30
0.0
 11
2969.811095602207
 21
2078.999683277025
 31
0.0
  0
LINE
  5
2C2
330
1F
100
AcDbEntity
  8
0-C_ﾊｯﾁ
  6
JWW_DASHED1
 62
   120
370
     5
100
AcDbLine
 10
2852.384688730997
 20
2003.999683277014
 30
0.0
 11
2927.384688731011
 21
2078.999683277029
 31
0.0
  0
LINE
  5
2C3
330
1F
100
AcDbEntity
  8
0-C_ﾊｯﾁ
  6
JWW_DASHED1
 62
   120
370
     5
100
AcDbLine
 10
2809.958281859861
 20
2003.999683277022
 30
0.0
 11
2884.958281859847
 21
2078.999683277008
 31
0.0
  0
LINE
  5
2C4
330
1F
100
AcDbEntity
  8
0-C_ﾊｯﾁ
  6
JWW_DASHED1
 62
   120
370
     5
100
AcDbLine
 10
2214.918171683582
 20
2045.35567616869
 30
0.0
 11
2248.562178791901
 21
2078.999683277007
 31
0.0
  0
LINE
  5
2C5
330
1F
100
AcDbEntity
  8
0-C_ﾊｯﾁ
  6
JWW_DASHED1
 62
   120
370
     5
100
AcDbLine
 10
2215.453378673348
 20
2003.464476287252
 30
0.0
 11
2290.988585663097
 21
2078.999683277004
 31
0.0
  0
LINE
  5
2C6
330
1F
100
AcDbEntity
  8
0-C_ﾊｯﾁ
  6
JWW_DASHED1
 62
   120
370
     5
100
AcDbLine
 10
2767.531874988663
 20
2003.999683277026
 30
0.0
 11
2842.531874988649
 21
2078.999683277012
 31
0.0
  0
LINE
  5
2C7
330
1F
100
AcDbEntity
  8
0-C_ﾊｯﾁ
  6
JWW_DASHED1
 62
   120
370
     5
100
AcDbLine
 10
2725.105468117454
 20
2003.999683277015
 30
0.0
 11
2800.105468117452
 21
2078.999683277015
 31
0.0
  0
LINE
  5
2C8
330
1F
100
AcDbEntity
  8
0-C_ﾊｯﾁ
  6
JWW_DASHED1
 62
   120
370
     5
100
AcDbLine
 10
2682.679061246259
 20
2003.99968327702
 30
0.0
 11
2757.679061246272
 21
2078.999683277033
 31
0.0
  0
LINE
  5
2C9
330
1F
100
AcDbEntity
  8
0-C_ﾊｯﾁ
  6
JWW_DASHED1
 62
   120
370
     5
100
AcDbLine
 10
2640.252654375048
 20
2003.999683277011
 30
0.0
 11
2715.252654375042
 21
2078.999683277005
 31
0.0
  0
LINE
  5
2CA
330
1F
100
AcDbEntity
  8
0-C_ﾊｯﾁ
  6
JWW_DASHED1
 62
   120
370
     5
100
AcDbLine
 10
2597.826247503848
 20
2003.999683277009
 30
0.0
 11
2672.826247503845
 21
2078.999683277007
 31
0.0
  0
LINE
  5
2CB
330
1F
100
AcDbEntity
  8
0-C_ﾊｯﾁ
  6
JWW_DASHED1
 62
   120
370
     5
100
AcDbLine
 10
2555.399840632651
 20
2003.999683277012
 30
0.0
 11
2630.399840632648
 21
2078.999683277011
 31
0.0
  0
LINE
  5
2CC
330
1F
100
AcDbEntity
  8
0-C_ﾊｯﾁ
  6
JWW_DASHED1
 62
   120
370
     5
100
AcDbLine
 10
2512.973433761455
 20
2003.999683277014
 30
0.0
 11
2587.973433761451
 21
2078.999683277011
 31
0.0
  0
LINE
  5
2CD
330
1F
100
AcDbEntity
  8
0-C_ﾊｯﾁ
  6
JWW_DASHED1
 62
   120
370
     5
100
AcDbLine
 10
2470.547026890316
 20
2003.99968327702
 30
0.0
 11
2545.547026890313
 21
2078.999683277018
 31
0.0
  0
LINE
  5
2CE
330
1F
100
AcDbEntity
  8
0-C_ﾊｯﾁ
  6
JWW_DASHED1
 62
   120
370
     5
100
AcDbLine
 10
2428.12062001912
 20
2003.999683277025
 30
0.0
 11
2503.120620019116
 21
2078.999683277021
 31
0.0
  0
LINE
  5
2CF
330
1F
100
AcDbEntity
  8
0-C_ﾊｯﾁ
  6
JWW_DASHED1
 62
   120
370
     5
100
AcDbLine
 10
2385.694213147906
 20
2003.999683277011
 30
0.0
 11
2460.694213147917
 21
2078.999683277025
 31
0.0
  0
LINE
  5
2D0
330
1F
100
AcDbEntity
  8
0-C_ﾊｯﾁ
  6
JWW_DASHED1
 62
   120
370
     5
100
AcDbLine
 10
2343.267806276704
 20
2003.999683277011
 30
0.0
 11
2418.267806276715
 21
2078.999683277021
 31
0.0
  0
LINE
  5
2D1
330
1F
100
AcDbEntity
  8
0-C_ﾊｯﾁ
  6
JWW_DASHED1
 62
   120
370
     5
100
AcDbLine
 10
2300.841399405508
 20
2003.999683277014
 30
0.0
 11
2375.841399405503
 21
2078.999683277008
 31
0.0
  0
LINE
  5
2D2
330
1F
100
AcDbEntity
  8
0-C_ﾊｯﾁ
  6
JWW_DASHED1
 62
   120
370
     5
100
AcDbLine
 10
2258.414992534297
 20
2003.999683277004
 30
0.0
 11
2333.414992534294
 21
2078.999683277
 31
0.0
  0
LINE
  5
2D3
330
1F
100
AcDbEntity
  8
0-C_ﾊｯﾁ
  6
JWW_DASHED1
 62
   120
370
     5
100
AcDbLine
 10
3387.67906124625
 20
2798.999683277014
 30
0.0
 11
3414.918171683583
 21
2826.238793714346
 31
0.0
  0
LINE
  5
2D4
330
1F
100
AcDbEntity
  8
0-C_ﾊｯﾁ
  6
JWW_DASHED1
 62
   120
370
     5
100
AcDbLine
 10
3345.25265437505
 20
2798.999683277014
 30
0.0
 11
3414.918171683583
 21
2868.665200585546
 31
0.0
  0
LINE
  5
2D5
330
1F
100
AcDbEntity
  8
0-C_ﾊｯﾁ
  6
JWW_DASHED1
 62
   120
370
     5
100
AcDbLine
 10
3302.82624750385
 20
2798.999683277014
 30
0.0
 11
3377.82624750386
 21
2873.999683277025
 31
0.0
  0
LINE
  5
2D6
330
1F
100
AcDbEntity
  8
0-3_仕上
  6
Continuous
 62
    40
370
    15
100
AcDbLine
 10
3414.918171683583
 20
2798.999683277018
 30
0.0
 11
2214.918171683582
 21
2798.999683277018
 31
0.0
  0
LINE
  5
2D7
330
1F
100
AcDbEntity
  8
0-3_仕上
  6
Continuous
 62
    40
370
    15
100
AcDbLine
 10
3414.918171683583
 20
2873.999683277018
 30
0.0
 11
2214.918171683582
 21
2873.999683277018
 31
0.0
  0
LINE
  5
2D8
330
1F
100
AcDbEntity
  8
0-C_ﾊｯﾁ
  6
JWW_DASHED1
 62
   120
370
     5
100
AcDbLine
 10
3260.399840632645
 20
2798.999683277008
 30
0.0
 11
3335.39984063266
 21
2873.999683277025
 31
0.0
  0
LINE
  5
2D9
330
1F
100
AcDbEntity
  8
0-C_ﾊｯﾁ
  6
JWW_DASHED1
 62
   120
370
     5
100
AcDbLine
 10
3217.97343376145
 20
2798.999683277014
 30
0.0
 11
3292.97343376146
 21
2873.999683277025
 31
0.0
  0
LINE
  5
2DA
330
1F
100
AcDbEntity
  8
0-C_ﾊｯﾁ
  6
JWW_DASHED1
 62
   120
370
     5
100
AcDbLine
 10
3175.547026890311
 20
2798.999683277021
 30
0.0
 11
3250.547026890304
 21
2873.999683277014
 31
0.0
  0
LINE
  5
2DB
330
1F
100
AcDbEntity
  8
0-C_ﾊｯﾁ
  6
JWW_DASHED1
 62
   120
370
     5
100
AcDbLine
 10
3133.120620019115
 20
2798.999683277025
 30
0.0
 11
3208.120620019108
 21
2873.999683277016
 31
0.0
  0
LINE
  5
2DC
330
1F
100
AcDbEntity
  8
0-C_ﾊｯﾁ
  6
JWW_DASHED1
 62
   120
370
     5
100
AcDbLine
 10
3090.69421314792
 20
2798.999683277029
 30
0.0
 11
3165.694213147911
 21
2873.999683277021
 31
0.0
  0
LINE
  5
2DD
330
1F
100
AcDbEntity
  8
0-C_ﾊｯﾁ
  6
JWW_DASHED1
 62
   120
370
     5
100
AcDbLine
 10
3048.267806276715
 20
2798.999683277023
 30
0.0
 11
3123.267806276714
 21
2873.999683277022
 31
0.0
  0
LINE
  5
2DE
330
1F
100
AcDbEntity
  8
0-C_ﾊｯﾁ
  6
JWW_DASHED1
 62
   120
370
     5
100
AcDbLine
 10
3005.841399405517
 20
2798.999683277028
 30
0.0
 11
3080.841399405517
 21
2873.999683277025
 31
0.0
  0
LINE
  5
2DF
330
1F
100
AcDbEntity
  8
0-C_ﾊｯﾁ
  6
JWW_DASHED1
 62
   120
370
     5
100
AcDbLine
 10
2963.414992534299
 20
2798.999683277008
 30
0.0
 11
3038.414992534313
 21
2873.999683277022
 31
0.0
  0
LINE
  5
2E0
330
1F
100
AcDbEntity
  8
0-C_ﾊｯﾁ
  6
JWW_DASHED1
 62
   120
370
     5
100
AcDbLine
 10
2920.988585663103
 20
2798.999683277011
 30
0.0
 11
2995.988585663116
 21
2873.999683277026
 31
0.0
  0
LINE
  5
2E1
330
1F
100
AcDbEntity
  8
0-C_ﾊｯﾁ
  6
JWW_DASHED1
 62
   120
370
     5
100
AcDbLine
 10
2878.562178791906
 20
2798.999683277015
 30
0.0
 11
2953.562178791922
 21
2873.99968327703
 31
0.0
  0
LINE
  5
2E2
330
1F
100
AcDbEntity
  8
0-C_ﾊｯﾁ
  6
JWW_DASHED1
 62
   120
370
     5
100
AcDbLine
 10
2836.135771920769
 20
2798.999683277023
 30
0.0
 11
2911.135771920756
 21
2873.999683277009
 31
0.0
  0
LINE
  5
2E3
330
1F
100
AcDbEntity
  8
0-C_ﾊｯﾁ
  6
JWW_DASHED1
 62
   120
370
     5
100
AcDbLine
 10
2793.709365049572
 20
2798.999683277028
 30
0.0
 11
2868.709365049558
 21
2873.999683277014
 31
0.0
  0
LINE
  5
2E4
330
1F
100
AcDbEntity
  8
0-C_ﾊｯﾁ
  6
JWW_DASHED1
 62
   120
370
     5
100
AcDbLine
 10
2214.918171683582
 20
2856.604592978925
 30
0.0
 11
2232.313261981673
 21
2873.999683277015
 31
0.0
  0
LINE
  5
2E5
330
1F
100
AcDbEntity
  8
0-C_ﾊｯﾁ
  6
JWW_DASHED1
 62
   120
370
     5
100
AcDbLine
 10
2214.918171683582
 20
2814.178186107727
 30
0.0
 11
2274.739668852869
 21
2873.999683277011
 31
0.0
  0
LINE
  5
2E6
330
1F
100
AcDbEntity
  8
0-3_仕上
  6
Continuous
 62
    92
370
    13
100
AcDbLine
 10
2607.223903601684
 20
2078.999683277018
 30
0.0
 11
2607.223903601684
 21
2798.999683277018
 31
0.0
  0
LINE
  5
2E7
330
1F
100
AcDbEntity
  8
0-3_仕上
  6
Continuous
 62
    92
370
    13
100
AcDbLine
 10
2535.918171683581
 20
2078.999683277018
 30
0.0
 11
2535.918171683581
 21
2798.999683277018
 31
0.0
  0
LINE
  5
2E8
330
1F
100
AcDbEntity
  8
0-3_仕上
  6
Continuous
 62
    92
370
    13
100
AcDbLine
 10
2265.918171683581
 20
2798.999683277018
 30
0.0
 11
2265.918171683581
 21
2078.999683277018
 31
0.0
  0
LINE
  5
2E9
330
1F
100
AcDbEntity
  8
0-C_ﾊｯﾁ
  6
JWW_DASHED1
 62
   120
370
     5
100
AcDbLine
 10
2751.282958178363
 20
2798.999683277016
 30
0.0
 11
2826.282958178363
 21
2873.999683277016
 31
0.0
  0
LINE
  5
2EA
330
1F
100
AcDbEntity
  8
0-C_ﾊｯﾁ
  6
JWW_DASHED1
 62
   120
370
     5
100
AcDbLine
 10
2708.856551307154
 20
2798.999683277008
 30
0.0
 11
2773.905834263585
 21
2864.048966233438
 31
0.0
  0
LINE
  5
2EB
330
1F
100
AcDbEntity
  8
0-C_ﾊｯﾁ
  6
JWW_DASHED1
 62
   120
370
     5
100
AcDbLine
 10
2666.430144435958
 20
2798.999683277011
 30
0.0
 11
2741.430144435971
 21
2873.999683277022
 31
0.0
  0
LINE
  5
2EC
330
1F
100
AcDbEntity
  8
0-C_ﾊｯﾁ
  6
JWW_DASHED1
 62
   120
370
     5
100
AcDbLine
 10
2624.003737564757
 20
2798.999683277011
 30
0.0
 11
2699.003737564756
 21
2873.999683277008
 31
0.0
  0
LINE
  5
2ED
330
1F
100
AcDbEntity
  8
0-C_ﾊｯﾁ
  6
JWW_DASHED1
 62
   120
370
     5
100
AcDbLine
 10
2581.57733069356
 20
2798.999683277015
 30
0.0
 11
2656.577330693557
 21
2873.999683277011
 31
0.0
  0
LINE
  5
2EE
330
1F
100
AcDbEntity
  8
0-C_ﾊｯﾁ
  6
JWW_DASHED1
 62
   120
370
     5
100
AcDbLine
 10
2539.150923822422
 20
2798.999683277022
 30
0.0
 11
2614.150923822418
 21
2873.999683277018
 31
0.0
  0
LINE
  5
2EF
330
1F
100
AcDbEntity
  8
0-C_ﾊｯﾁ
  6
JWW_DASHED1
 62
   120
370
     5
100
AcDbLine
 10
2496.724516951226
 20
2798.999683277025
 30
0.0
 11
2571.724516951222
 21
2873.999683277022
 31
0.0
  0
LINE
  5
2F0
330
1F
100
AcDbEntity
  8
0-C_ﾊｯﾁ
  6
JWW_DASHED1
 62
   120
370
     5
100
AcDbLine
 10
2454.298110080028
 20
2798.999683277028
 30
0.0
 11
2529.298110080025
 21
2873.999683277023
 31
0.0
  0
LINE
  5
2F1
330
1F
100
AcDbEntity
  8
0-C_ﾊｯﾁ
  6
JWW_DASHED1
 62
   120
370
     5
100
AcDbLine
 10
2411.871703208815
 20
2798.999683277014
 30
0.0
 11
2486.871703208828
 21
2873.999683277028
 31
0.0
  0
LINE
  5
2F2
330
1F
100
AcDbEntity
  8
0-C_ﾊｯﾁ
  6
JWW_DASHED1
 62
   120
370
     5
100
AcDbLine
 10
2369.445296337615
 20
2798.999683277011
 30
0.0
 11
2444.445296337625
 21
2873.999683277022
 31
0.0
  0
LINE
  5
2F3
330
1F
100
AcDbEntity
  8
0-C_ﾊｯﾁ
  6
JWW_DASHED1
 62
   120
370
     5
100
AcDbLine
 10
2327.018889466405
 20
2798.999683277003
 30
0.0
 11
2402.018889466401
 21
2873.999683277002
 31
0.0
  0
LINE
  5
2F4
330
1F
100
AcDbEntity
  8
0-C_ﾊｯﾁ
  6
JWW_DASHED1
 62
   120
370
     5
100
AcDbLine
 10
2284.592482595208
 20
2798.999683277007
 30
0.0
 11
2359.592482595205
 21
2873.999683277003
 31
0.0
  0
LINE
  5
2F5
330
1F
100
AcDbEntity
  8
0-C_ﾊｯﾁ
  6
JWW_DASHED1
 62
   120
370
     5
100
AcDbLine
 10
2242.166075724012
 20
2798.999683277008
 30
0.0
 11
2317.166075724008
 21
2873.999683277004
 31
0.0
  0
LINE
  5
2F6
330
1F
100
AcDbEntity
  8
0-3_仕上
  6
Continuous
 62
    92
370
    13
100
AcDbLine
 10
3327.223903601685
 20
2078.999683277018
 30
0.0
 11
3327.223903601685
 21
2798.999683277018
 31
0.0
  0
LINE
  5
2F7
330
1F
100
AcDbEntity
  8
0-3_仕上
  6
Continuous
 62
     7
370
     9
100
AcDbLine
 10
2607.223903601684
 20
2078.999683277018
 30
0.0
 11
3327.223903601685
 21
2798.999683277018
 31
0.0
  0
LINE
  5
2F8
330
1F
100
AcDbEntity
  8
0-3_仕上
  6
Continuous
 62
     7
370
     9
100
AcDbLine
 10
2607.223903601684
 20
2798.999683277018
 30
0.0
 11
3327.223903601685
 21
2078.999683277018
 31
0.0
  0
LINE
  5
2F9
330
1F
100
AcDbEntity
  8
0-C_ﾊｯﾁ
  6
Continuous
 62
   120
370
     5
100
AcDbLine
 10
2214.918171683582
 20
2473.705178566328
 30
0.0
 11
2117.212554650318
 21
2375.999683277015
 31
0.0
  0
LINE
  5
2FA
330
1F
100
AcDbEntity
  8
0-C_ﾊｯﾁ
  6
Continuous
 62
   120
370
     5
100
AcDbLine
 10
2095.012526988462
 20
2353.799683277015
 30
0.0
 11
2073.917736808091
 21
2332.704919381345
 31
0.0
  0
LINE
  5
2FB
330
1F
100
AcDbEntity
  8
0-C_ﾊｯﾁ
  6
Continuous
 62
   120
370
     5
100
AcDbLine
 10
2096.976144669016
 20
2219.999683277013
 30
0.0
 11
2073.917736808091
 21
2196.941441407365
 31
0.0
  0
LINE
  5
2FC
330
1F
100
AcDbEntity
  8
0-C_ﾊｯﾁ
  6
Continuous
 62
   120
370
     5
100
AcDbLine
 10
2214.918171683596
 20
2337.940861258664
 30
0.0
 11
2119.176304481996
 21
2242.199683277014
 31
0.0
  0
LINE
  5
2FD
330
1F
100
AcDbEntity
  8
0-C_ﾊｯﾁ
  6
Continuous
 62
   120
370
     5
100
AcDbLine
 10
2214.918171683582
 20
2405.822877886246
 30
0.0
 11
2073.917736808091
 21
2264.822821360718
 31
0.0
  0
LINE
  5
2FE
330
1F
100
AcDbEntity
  8
0-4_枠
  6
Continuous
 62
    92
370
    13
100
AcDbLine
 10
2070.918171683577
 20
2242.199683277014
 30
0.0
 11
2070.918171683577
 21
2353.799683277015
 31
0.0
  0
LINE
  5
2FF
330
1F
100
AcDbEntity
  8
0-4_枠
  6
Continuous
 62
    92
370
    13
100
AcDbLine
 10
2073.917736808091
 20
2242.199683277014
 30
0.0
 11
2073.917736808091
 21
2353.799683277015
 31
0.0
  0
LINE
  5
300
330
1F
100
AcDbEntity
  8
0-4_枠
  6
Continuous
 62
    92
370
    13
100
AcDbLine
 10
2121.918171683578
 20
2219.999683277013
 30
0.0
 11
2121.918171683578
 21
2242.199683277014
 31
0.0
  0
LINE
  5
301
330
1F
100
AcDbEntity
  8
0-4_枠
  6
Continuous
 62
    92
370
    13
100
AcDbLine
 10
2121.918171683578
 20
2353.799683277015
 30
0.0
 11
2121.918171683578
 21
2375.999683277015
 31
0.0
  0
LINE
  5
302
330
1F
100
AcDbEntity
  8
0-4_枠
  6
Continuous
 62
    92
370
    13
100
AcDbLine
 10
2121.918171683578
 20
2375.999683277015
 30
0.0
 11
2070.918171683577
 21
2375.999683277015
 31
0.0
  0
LINE
  5
303
330
1F
100
AcDbEntity
  8
0-4_枠
  6
Continuous
 62
    92
370
    13
100
AcDbLine
 10
2073.917736808091
 20
2375.999683277015
 30
0.0
 11
2073.917736808091
 21
2930.786044965926
 31
0.0
  0
LINE
  5
304
330
1F
100
AcDbEntity
  8
0-4_枠
  6
Continuous
 62
    92
370
    13
100
AcDbLine
 10
2070.918171683577
 20
2932.029120528533
 30
0.0
 11
2070.918171683577
 21
2375.999683277015
 31
0.0
  0
LINE
  5
305
330
1F
100
AcDbEntity
  8
0-4_枠
  6
Continuous
 62
    92
370
    13
100
AcDbLine
 10
2070.918171683577
 20
2353.799683277015
 30
0.0
 11
2121.918171683578
 21
2353.799683277015
 31
0.0
  0
LINE
  5
306
330
1F
100
AcDbEntity
  8
0-4_枠
  6
Continuous
 62
    92
370
    13
100
AcDbLine
 10
2070.918171683577
 20
2242.199683277014
 30
0.0
 11
2121.918171683578
 21
2242.199683277014
 31
0.0
  0
LINE
  5
307
330
1F
100
AcDbEntity
  8
0-4_枠
  6
Continuous
 62
    92
370
    13
100
AcDbLine
 10
2070.918171683577
 20
2219.999683277013
 30
0.0
 11
2121.918171683578
 21
2219.999683277013
 31
0.0
  0
LINE
  5
308
330
1F
100
AcDbEntity
  8
0-4_枠
  6
Continuous
 62
    92
370
    13
100
AcDbLine
 10
2073.917736808091
 20
1947.213321588094
 30
0.0
 11
2073.917736808091
 21
2219.999683277013
 31
0.0
  0
LINE
  5
309
330
1F
100
AcDbEntity
  8
0-4_枠
  6
Continuous
 62
    92
370
    13
100
AcDbLine
 10
2070.918171683577
 20
1945.970246025487
 30
0.0
 11
2070.918171683577
 21
2219.999683277013
 31
0.0
  0
LINE
  5
30A
330
1F
100
AcDbEntity
  8
0-C_ﾊｯﾁ
  6
Continuous
 62
   120
370
     5
100
AcDbLine
 10
2214.918171683582
 20
2066.411694616291
 30
0.0
 11
2084.818691993952
 21
1936.312366402234
 31
0.0
  0
LINE
  5
30B
330
1F
100
AcDbEntity
  8
0-C_ﾊｯﾁ
  6
Continuous
 62
   120
370
     5
100
AcDbLine
 10
2144.155557112649
 20
2946.00011815221
 30
0.0
 11
2073.917736808091
 21
2875.761581317784
 31
0.0
  0
LINE
  5
30C
330
1F
100
AcDbEntity
  8
0-C_ﾊｯﾁ
  6
Continuous
 62
   120
370
     5
100
AcDbLine
 10
2214.918171683582
 20
2948.882081100432
 30
0.0
 11
2073.917736808091
 21
2807.879726306797
 31
0.0
  0
LINE
  5
30D
330
1F
100
AcDbEntity
  8
0-4_枠
  6
Continuous
 62
    92
370
    13
100
AcDbLine
 10
2214.918171683582
 20
2948.999683277009
 30
0.0
 11
2214.918171683582
 21
1928.999683277011
 31
0.0
  0
LINE
  5
30E
330
1F
100
AcDbEntity
  8
0-C_ﾊｯﾁ
  6
Continuous
 62
   120
370
     5
100
AcDbLine
 10
2214.918171683582
 20
2270.055617156931
 30
0.0
 11
2073.917736808091
 21
2129.058257953525
 31
0.0
  0
LINE
  5
30F
330
1F
100
AcDbEntity
  8
0-C_ﾊｯﾁ
  6
Continuous
 62
   120
370
     5
100
AcDbLine
 10
2214.918171683582
 20
2541.587667245051
 30
0.0
 11
2073.917736808091
 21
2400.586845294833
 31
0.0
  0
LINE
  5
310
330
1F
100
AcDbEntity
  8
0-C_ﾊｯﾁ
  6
Continuous
 62
   120
370
     5
100
AcDbLine
 10
2214.918171683582
 20
2813.117305925048
 30
0.0
 11
2073.917736808091
 21
2672.115432636142
 31
0.0
  0
LINE
  5
311
330
1F
100
AcDbEntity
  8
0-C_ﾊｯﾁ
  6
Continuous
 62
   120
370
     5
100
AcDbLine
 10
2214.918171683582
 20
2745.23593241879
 30
0.0
 11
2073.917736808091
 21
2604.233577625155
 31
0.0
  0
LINE
  5
312
330
1F
100
AcDbEntity
  8
0-C_ﾊｯﾁ
  6
Continuous
 62
   120
370
     5
100
AcDbLine
 10
2214.918171683582
 20
2677.353012254394
 30
0.0
 11
2073.917736808091
 21
2536.351138965488
 31
0.0
  0
LINE
  5
313
330
1F
100
AcDbEntity
  8
0-C_ﾊｯﾁ
  6
Continuous
 62
   120
370
     5
100
AcDbLine
 10
2214.918171683582
 20
2609.470173954653
 30
0.0
 11
2073.917736808091
 21
2468.469283954499
 31
0.0
  0
LINE
  5
314
330
1F
100
AcDbEntity
  8
0-C_ﾊｯﾁ
  6
Continuous
 62
   120
370
     5
100
AcDbLine
 10
2214.918171683582
 20
2202.17579614083
 30
0.0
 11
2073.917736808091
 21
2061.175807849764
 31
0.0
  0
LINE
  5
315
330
1F
100
AcDbEntity
  8
0-C_ﾊｯﾁ
  6
Continuous
 62
   120
370
     5
100
AcDbLine
 10
2214.918171683582
 20
2134.293582788146
 30
0.0
 11
2073.917736808091
 21
1993.293369190094
 31
0.0
  0
LINE
  5
316
330
1F
100
AcDbEntity
  8
0-4_枠
  6
Continuous
 62
    92
370
    13
100
AcDbLine
 10
2089.131214901887
 20
1931.999843494296
 30
0.0
 11
2073.917736808091
 21
1947.213321588094
 31
0.0
  0
LINE
  5
317
330
1F
100
AcDbEntity
  8
0-4_枠
  6
Continuous
 62
    92
370
    13
100
AcDbLine
 10
2089.131809994376
 20
2946.00011815221
 30
0.0
 11
2073.917736808091
 21
2930.786044965926
 31
0.0
  0
LINE
  5
318
330
1F
100
AcDbEntity
  8
0-4_枠
  6
Continuous
 62
    92
370
    13
100
AcDbLine
 10
2087.888734432055
 20
1928.999683277009
 30
0.0
 11
2070.918171683577
 21
1945.970246025487
 31
0.0
  0
LINE
  5
319
330
1F
100
AcDbEntity
  8
0-4_枠
  6
Continuous
 62
    92
370
    13
100
AcDbLine
 10
2087.888734432055
 20
2948.999683277009
 30
0.0
 11
2070.918171683577
 21
2932.029120528533
 31
0.0
  0
LINE
  5
31A
330
1F
100
AcDbEntity
  8
0-4_枠
  6
Continuous
 62
    92
370
    13
100
AcDbLine
 10
2087.888734432055
 20
2948.999683277009
 30
0.0
 11
2214.918171683582
 21
2948.999683277009
 31
0.0
  0
LINE
  5
31B
330
1F
100
AcDbEntity
  8
0-4_枠
  6
Continuous
 62
    92
370
    13
100
AcDbLine
 10
2087.888734432055
 20
1928.999683277009
 30
0.0
 11
2214.918171683582
 21
1928.999683277009
 31
0.0
  0
LINE
  5
31C
330
1F
100
AcDbEntity
  8
0-4_枠
  6
Continuous
 62
    92
370
    13
100
AcDbLine
 10
2211.918171683581
 20
2018.999683277014
 30
0.0
 11
2211.918171683581
 21
1931.9998434943
 31
0.0
  0
LINE
  5
31D
330
1F
100
AcDbEntity
  8
0-4_枠
  6
Continuous
 62
    92
370
    13
100
AcDbLine
 10
2211.918171683581
 20
2018.999683277014
 30
0.0
 11
2214.918171683582
 21
2018.999683277014
 31
0.0
  0
LINE
  5
31E
330
1F
100
AcDbEntity
  8
0-4_枠
  6
Continuous
 62
    92
370
    13
100
AcDbLine
 10
2089.131214901887
 20
1931.999843494296
 30
0.0
 11
2211.918171683581
 21
1931.999843494296
 31
0.0
  0
LINE
  5
31F
330
1F
100
AcDbEntity
  8
0-4_枠
  6
Continuous
 62
    92
370
    13
100
AcDbLine
 10
2211.918171683581
 20
2858.999683277009
 30
0.0
 11
2211.918171683581
 21
2946.000118152499
 31
0.0
  0
LINE
  5
320
330
1F
100
AcDbEntity
  8
0-4_枠
  6
Continuous
 62
    92
370
    13
100
AcDbLine
 10
2211.918171683581
 20
2858.999683277009
 30
0.0
 11
2214.918171683582
 21
2858.999683277009
 31
0.0
  0
LINE
  5
321
330
1F
100
AcDbEntity
  8
0-4_枠
  6
Continuous
 62
    92
370
    13
100
AcDbLine
 10
2211.918171683581
 20
2946.00011815221
 30
0.0
 11
2089.131809994376
 21
2946.00011815221
 31
0.0
  0
LINE
  5
322
330
1F
100
AcDbEntity
  8
0-C_ﾊｯﾁ
  6
Continuous
 62
   120
370
     5
100
AcDbLine
 10
2211.918171683581
 20
1995.529542281534
 30
0.0
 11
2148.388398928266
 21
1931.999843494298
 31
0.0
  0
LINE
  5
323
330
1F
100
AcDbEntity
  8
0-C_ﾊｯﾁ
  6
Continuous
 62
   120
370
     5
100
AcDbLine
 10
2211.918171683581
 20
2877.999130331589
 30
0.0
 11
2073.917736808091
 21
2739.99728764713
 31
0.0
  0
LINE
  5
324
330
1F
100
AcDbEntity
  8
0-3_仕上
  6
Continuous
 62
     7
370
     9
100
AcDbLine
 10
2535.918171683581
 20
2798.999683277018
 30
0.0
 11
2265.918171683581
 21
2078.999683277018
 31
0.0
  0
INSERT
  5
325
330
1F
100
AcDbEntity
  8
0-0_補助線
  6
Continuous
 62
     7
370
     9
100
AcDbBlockReference
  2
01@@SfigorgFlag@@4_0-0_
 10
2070.040722446812
 20
2297.999683277014
 30
0.0
 41
-30.0
 42
30.0
 50
270.0
  0
LINE
  5
326
330
1F
100
AcDbEntity
  8
0-6_扉
  6
Continuous
 62
   200
370
    20
100
AcDbLine
 10
819.807353741629
 20
2204.999683277018
 30
0.0
 11
2058.918171683583
 21
2204.999683277018
 31
0.0
  0
LINE
  5
327
330
1F
100
AcDbEntity
  8
0-6_扉
  6
Continuous
 62
   200
370
    20
100
AcDbLine
 10
819.807353741629
 20
1988.999683277019
 30
0.0
 11
2058.918171683583
 21
1988.999683277019
 31
0.0
  0
LINE
  5
328
330
1F
100
AcDbEntity
  8
0-C_ﾊｯﾁ
  6
JWW_DASHED1
 62
   120
370
     5
100
AcDbLine
 10
-3395.081828316414
 20
2048.760572839652
 30
0.0
 11
-3364.842717879055
 21
2078.999683277011
 31
0.0
  0
LINE
  5
329
330
1F
100
AcDbEntity
  8
0-C_ﾊｯﾁ
  6
JWW_DASHED1
 62
   120
370
     5
100
AcDbLine
 10
-3279.989904136705
 20
2078.999683277018
 30
0.0
 11
-3354.989904136713
 21
2003.999683277005
 31
0.0
  0
LINE
  5
32A
330
1F
100
AcDbEntity
  8
0-C_ﾊｯﾁ
  6
JWW_DASHED1
 62
   120
370
     5
100
AcDbLine
 10
-3322.4163110079
 20
2078.999683277021
 30
0.0
 11
-3395.081828316408
 21
2006.334165968511
 31
0.0
  0
LINE
  5
32B
330
1F
100
AcDbEntity
  8
0-3_仕上
  6
Continuous
 62
    40
370
    15
100
AcDbLine
 10
-2195.081828316419
 20
2078.999683277018
 30
0.0
 11
-3395.081828316421
 21
2078.999683277018
 31
0.0
  0
LINE
  5
32C
330
1F
100
AcDbEntity
  8
0-3_仕上
  6
Continuous
 62
    40
370
    15
100
AcDbLine
 10
-2195.081828316419
 20
2003.999683277018
 30
0.0
 11
-3395.081828316421
 21
2003.999683277018
 31
0.0
  0
LINE
  5
32D
330
1F
100
AcDbEntity
  8
0-C_ﾊｯﾁ
  6
JWW_DASHED1
 62
   120
370
     5
100
AcDbLine
 10
-2973.152242295954
 20
2003.999683277019
 30
0.0
 11
-2898.15224229596
 21
2078.999683277018
 31
0.0
  0
LINE
  5
32E
330
1F
100
AcDbEntity
  8
0-C_ﾊｯﾁ
  6
JWW_DASHED1
 62
   120
370
     5
100
AcDbLine
 10
-3015.578649167173
 20
2003.999683277004
 30
0.0
 11
-2940.578649167154
 21
2078.999683277019
 31
0.0
  0
LINE
  5
32F
330
1F
100
AcDbEntity
  8
0-C_ﾊｯﾁ
  6
JWW_DASHED1
 62
   120
370
     5
100
AcDbLine
 10
-3058.005056038368
 20
2003.999683277009
 30
0.0
 11
-2983.005056038351
 21
2078.999683277022
 31
0.0
  0
LINE
  5
330
330
1F
100
AcDbEntity
  8
0-C_ﾊｯﾁ
  6
JWW_DASHED1
 62
   120
370
     5
100
AcDbLine
 10
-3100.431462909507
 20
2003.999683277015
 30
0.0
 11
-3025.431462909519
 21
2078.999683277004
 31
0.0
  0
LINE
  5
331
330
1F
100
AcDbEntity
  8
0-C_ﾊｯﾁ
  6
JWW_DASHED1
 62
   120
370
     5
100
AcDbLine
 10
-3142.8578697807
 20
2003.999683277019
 30
0.0
 11
-3067.857869780713
 21
2078.999683277007
 31
0.0
  0
LINE
  5
332
330
1F
100
AcDbEntity
  8
0-C_ﾊｯﾁ
  6
JWW_DASHED1
 62
   120
370
     5
100
AcDbLine
 10
-3185.2842766519
 20
2003.999683277022
 30
0.0
 11
-3110.284276651907
 21
2078.999683277012
 31
0.0
  0
LINE
  5
333
330
1F
100
AcDbEntity
  8
0-C_ﾊｯﾁ
  6
JWW_DASHED1
 62
   120
370
     5
100
AcDbLine
 10
-3227.7106835231
 20
2003.99968327702
 30
0.0
 11
-3152.710683523105
 21
2078.999683277018
 31
0.0
  0
LINE
  5
334
330
1F
100
AcDbEntity
  8
0-C_ﾊｯﾁ
  6
JWW_DASHED1
 62
   120
370
     5
100
AcDbLine
 10
-3270.137090394293
 20
2003.999683277026
 30
0.0
 11
-3195.1370903943
 21
2078.999683277021
 31
0.0
  0
LINE
  5
335
330
1F
100
AcDbEntity
  8
0-C_ﾊｯﾁ
  6
JWW_DASHED1
 62
   120
370
     5
100
AcDbLine
 10
-3312.563497265507
 20
2003.999683277014
 30
0.0
 11
-3237.563497265493
 21
2078.999683277025
 31
0.0
  0
LWPOLYLINE
  5
336
330
1F
100
AcDbEntity
  8
0-B_寸法
  6
Continuous
 62
     7
370
     9
100
AcDbPolyline
 90
        4
 70
     1
 43
6.0
 10
-1739.551838630343
 20
1928.999683277019
 42
0.4142135623731
 10
-1742.551838630343
 20
1931.999683277019
 42
0.4142135623731
 10
-1745.551838630343
 20
1928.999683277019
 42
0.4142135623731
 10
-1742.551838630343
 20
1925.999683277019
 42
0.4142135623731
  0
LINE
  5
337
330
1F
100
AcDbEntity
  8
0-B_寸法
  6
Continuous
 62
   120
370
     5
100
AcDbLine
 10
-1742.551838630343
 20
1928.999683277019
 30
0.0
 11
-1949.683977453941
 21
1928.999683277019
 31
0.0
  0
LINE
  5
338
330
1F
100
AcDbEntity
  8
0-C_ﾊｯﾁ
  6
JWW_DASHED1
 62
   120
370
     5
100
AcDbLine
 10
-2761.020207940009
 20
2003.999683277032
 30
0.0
 11
-2686.020207940009
 21
2078.99968327703
 31
0.0
  0
LINE
  5
339
330
1F
100
AcDbEntity
  8
0-C_ﾊｯﾁ
  6
JWW_DASHED1
 62
   120
370
     5
100
AcDbLine
 10
-2803.446614811219
 20
2003.999683277018
 30
0.0
 11
-2728.446614811205
 21
2078.999683277033
 31
0.0
  0
LINE
  5
33A
330
1F
100
AcDbEntity
  8
0-C_ﾊｯﾁ
  6
JWW_DASHED1
 62
   120
370
     5
100
AcDbLine
 10
-2845.873021682416
 20
2003.99968327702
 30
0.0
 11
-2770.873021682402
 21
2078.999683277034
 31
0.0
  0
LINE
  5
33B
330
1F
100
AcDbEntity
  8
0-C_ﾊｯﾁ
  6
JWW_DASHED1
 62
   120
370
     5
100
AcDbLine
 10
-2888.299428553564
 20
2003.999683277019
 30
0.0
 11
-2813.299428553573
 21
2078.999683277011
 31
0.0
  0
LINE
  5
33C
330
1F
100
AcDbEntity
  8
0-C_ﾊｯﾁ
  6
JWW_DASHED1
 62
   120
370
     5
100
AcDbLine
 10
-2930.725835424764
 20
2003.999683277019
 30
0.0
 11
-2855.725835424773
 21
2078.999683277014
 31
0.0
  0
LINE
  5
33D
330
1F
100
AcDbEntity
  8
0-C_ﾊｯﾁ
  6
JWW_DASHED1
 62
   120
370
     5
100
AcDbLine
 10
-2643.593801068795
 20
2078.999683277025
 30
0.0
 11
-2718.593801068805
 21
2003.999683277014
 31
0.0
  0
LINE
  5
33E
330
1F
100
AcDbEntity
  8
0-C_ﾊｯﾁ
  6
JWW_DASHED1
 62
   120
370
     5
100
AcDbLine
 10
-2601.167394197595
 20
2078.999683277025
 30
0.0
 11
-2676.167394197591
 21
2003.999683277027
 31
0.0
  0
LINE
  5
33F
330
1F
100
AcDbEntity
  8
0-C_ﾊｯﾁ
  6
JWW_DASHED1
 62
   120
370
     5
100
AcDbLine
 10
-2558.740987326401
 20
2078.999683277021
 30
0.0
 11
-2633.740987326395
 21
2003.999683277025
 31
0.0
  0
LINE
  5
340
330
1F
100
AcDbEntity
  8
0-C_ﾊｯﾁ
  6
JWW_DASHED1
 62
   120
370
     5
100
AcDbLine
 10
-2516.31458045526
 20
2078.999683277014
 30
0.0
 11
-2591.314580455256
 21
2003.999683277018
 31
0.0
  0
LINE
  5
341
330
1F
100
AcDbEntity
  8
0-C_ﾊｯﾁ
  6
JWW_DASHED1
 62
   120
370
     5
100
AcDbLine
 10
-2473.888173584063
 20
2078.999683277011
 30
0.0
 11
-2548.88817358406
 21
2003.999683277014
 31
0.0
  0
LINE
  5
342
330
1F
100
AcDbEntity
  8
0-C_ﾊｯﾁ
  6
JWW_DASHED1
 62
   120
370
     5
100
AcDbLine
 10
-2431.461766712863
 20
2078.999683277008
 30
0.0
 11
-2506.46176671286
 21
2003.999683277012
 31
0.0
  0
LINE
  5
343
330
1F
100
AcDbEntity
  8
0-C_ﾊｯﾁ
  6
JWW_DASHED1
 62
   120
370
     5
100
AcDbLine
 10
-2389.03535984165
 20
2078.999683277022
 30
0.0
 11
-2464.035359841663
 21
2003.999683277009
 31
0.0
  0
LINE
  5
344
330
1F
100
AcDbEntity
  8
0-C_ﾊｯﾁ
  6
JWW_DASHED1
 62
   120
370
     5
100
AcDbLine
 10
-2346.60895297045
 20
2078.999683277025
 30
0.0
 11
-2421.60895297046
 21
2003.999683277014
 31
0.0
  0
LINE
  5
345
330
1F
100
AcDbEntity
  8
0-C_ﾊｯﾁ
  6
JWW_DASHED1
 62
   120
370
     5
100
AcDbLine
 10
-2304.182546099241
 20
2078.999683277033
 30
0.0
 11
-2379.182546099241
 21
2003.999683277034
 31
0.0
  0
LINE
  5
346
330
1F
100
AcDbEntity
  8
0-C_ﾊｯﾁ
  6
JWW_DASHED1
 62
   120
370
     5
100
AcDbLine
 10
-2261.756139228043
 20
2078.99968327703
 30
0.0
 11
-2336.756139228041
 21
2003.999683277033
 31
0.0
  0
LINE
  5
347
330
1F
100
AcDbEntity
  8
0-C_ﾊｯﾁ
  6
JWW_DASHED1
 62
   120
370
     5
100
AcDbLine
 10
-2219.329732356846
 20
2078.999683277028
 30
0.0
 11
-2294.329732356843
 21
2003.999683277032
 31
0.0
  0
LINE
  5
348
330
1F
100
AcDbEntity
  8
0-C_ﾊｯﾁ
  6
JWW_DASHED1
 62
   120
370
     5
100
AcDbLine
 10
-2195.081828316424
 20
2060.821180446304
 30
0.0
 11
-2251.903325485704
 21
2003.999683277025
 31
0.0
  0
LINE
  5
349
330
1F
100
AcDbEntity
  8
0-C_ﾊｯﾁ
  6
JWW_DASHED1
 62
   120
370
     5
100
AcDbLine
 10
-2195.081828316421
 20
2018.394773575105
 30
0.0
 11
-2209.476918614509
 21
2003.99968327702
 31
0.0
  0
LINE
  5
34A
330
1F
100
AcDbEntity
  8
0-C_ﾊｯﾁ
  6
JWW_DASHED1
 62
   120
370
     5
100
AcDbLine
 10
-3395.081828316421
 20
2860.00948964994
 30
0.0
 11
-3381.091634689343
 21
2873.999683277016
 31
0.0
  0
LINE
  5
34B
330
1F
100
AcDbEntity
  8
0-C_ﾊｯﾁ
  6
JWW_DASHED1
 62
   120
370
     5
100
AcDbLine
 10
-3296.238820946991
 20
2873.999683277022
 30
0.0
 11
-3371.238820947001
 21
2798.999683277009
 31
0.0
  0
LINE
  5
34C
330
1F
100
AcDbEntity
  8
0-C_ﾊｯﾁ
  6
JWW_DASHED1
 62
   120
370
     5
100
AcDbLine
 10
-3338.665227818143
 20
2873.999683277012
 30
0.0
 11
-3395.081828316414
 21
2817.583082778741
 31
0.0
  0
LINE
  5
34D
330
1F
100
AcDbEntity
  8
0-3_仕上
  6
Continuous
 62
    40
370
    15
100
AcDbLine
 10
-2195.081828316419
 20
2798.999683277018
 30
0.0
 11
-3395.081828316421
 21
2798.999683277018
 31
0.0
  0
LINE
  5
34E
330
1F
100
AcDbEntity
  8
0-3_仕上
  6
Continuous
 62
    40
370
    15
100
AcDbLine
 10
-2195.081828316419
 20
2873.999683277018
 30
0.0
 11
-3395.081828316421
 21
2873.999683277018
 31
0.0
  0
LINE
  5
34F
330
1F
100
AcDbEntity
  8
0-C_ﾊｯﾁ
  6
JWW_DASHED1
 62
   120
370
     5
100
AcDbLine
 10
-2946.974752235045
 20
2798.999683277019
 30
0.0
 11
-2871.974752235051
 21
2873.999683277018
 31
0.0
  0
LINE
  5
350
330
1F
100
AcDbEntity
  8
0-C_ﾊｯﾁ
  6
JWW_DASHED1
 62
   120
370
     5
100
AcDbLine
 10
-2989.401159106259
 20
2798.999683277005
 30
0.0
 11
-2914.401159106245
 21
2873.999683277021
 31
0.0
  0
LINE
  5
351
330
1F
100
AcDbEntity
  8
0-C_ﾊｯﾁ
  6
JWW_DASHED1
 62
   120
370
     5
100
AcDbLine
 10
-3031.827565977455
 20
2798.999683277008
 30
0.0
 11
-2956.827565977442
 21
2873.999683277023
 31
0.0
  0
LINE
  5
352
330
1F
100
AcDbEntity
  8
0-C_ﾊｯﾁ
  6
JWW_DASHED1
 62
   120
370
     5
100
AcDbLine
 10
-3074.253972848596
 20
2798.999683277016
 30
0.0
 11
-2999.25397284861
 21
2873.999683277004
 31
0.0
  0
LINE
  5
353
330
1F
100
AcDbEntity
  8
0-C_ﾊｯﾁ
  6
JWW_DASHED1
 62
   120
370
     5
100
AcDbLine
 10
-3116.680379719791
 20
2798.999683277021
 30
0.0
 11
-3041.680379719801
 21
2873.999683277008
 31
0.0
  0
LINE
  5
354
330
1F
100
AcDbEntity
  8
0-C_ﾊｯﾁ
  6
JWW_DASHED1
 62
   120
370
     5
100
AcDbLine
 10
-3159.106786590987
 20
2798.999683277023
 30
0.0
 11
-3084.106786590998
 21
2873.999683277014
 31
0.0
  0
LINE
  5
355
330
1F
100
AcDbEntity
  8
0-C_ﾊｯﾁ
  6
JWW_DASHED1
 62
   120
370
     5
100
AcDbLine
 10
-3201.533193462191
 20
2798.999683277022
 30
0.0
 11
-3126.533193462196
 21
2873.999683277018
 31
0.0
  0
LINE
  5
356
330
1F
100
AcDbEntity
  8
0-C_ﾊｯﾁ
  6
JWW_DASHED1
 62
   120
370
     5
100
AcDbLine
 10
-3243.959600333384
 20
2798.999683277028
 30
0.0
 11
-3168.959600333391
 21
2873.999683277022
 31
0.0
  0
LINE
  5
357
330
1F
100
AcDbEntity
  8
0-C_ﾊｯﾁ
  6
JWW_DASHED1
 62
   120
370
     5
100
AcDbLine
 10
-3286.386007204611
 20
2798.999683277003
 30
0.0
 11
-3211.386007204598
 21
2873.999683277016
 31
0.0
  0
LINE
  5
358
330
1F
100
AcDbEntity
  8
0-C_ﾊｯﾁ
  6
JWW_DASHED1
 62
   120
370
     5
100
AcDbLine
 10
-3328.812414075805
 20
2798.999683277007
 30
0.0
 11
-3253.812414075791
 21
2873.999683277019
 31
0.0
  0
LWPOLYLINE
  5
359
330
1F
100
AcDbEntity
  8
0-B_寸法
  6
Continuous
 62
     7
370
     9
100
AcDbPolyline
 90
        4
 70
     1
 43
6.0
 10
-1739.551838630343
 20
2948.999683277018
 42
0.4142135623731
 10
-1742.551838630343
 20
2951.999683277018
 42
0.4142135623731
 10
-1745.551838630343
 20
2948.999683277018
 42
0.4142135623731
 10
-1742.551838630343
 20
2945.999683277018
 42
0.4142135623731
  0
LINE
  5
35A
330
1F
100
AcDbEntity
  8
0-B_寸法
  6
Continuous
 62
   120
370
     5
100
AcDbLine
 10
-1742.551838630343
 20
2948.999683277018
 30
0.0
 11
-1742.551838630343
 21
1928.999683277019
 31
0.0
  0
LINE
  5
35B
330
1F
100
AcDbEntity
  8
0-B_寸法
  6
Continuous
 62
   120
370
     5
100
AcDbLine
 10
-1742.551838630343
 20
2948.999683277018
 30
0.0
 11
-1949.683977453941
 21
2948.999683277018
 31
0.0
  0
LINE
  5
35C
330
1F
100
AcDbEntity
  8
0-C_ﾊｯﾁ
  6
JWW_DASHED1
 62
   120
370
     5
100
AcDbLine
 10
-2777.269124750296
 20
2798.999683277032
 30
0.0
 11
-2702.2691247503
 21
2873.999683277032
 31
0.0
  0
LINE
  5
35D
330
1F
100
AcDbEntity
  8
0-C_ﾊｯﾁ
  6
JWW_DASHED1
 62
   120
370
     5
100
AcDbLine
 10
-2819.695531621514
 20
2798.999683277015
 30
0.0
 11
-2744.6955316215
 21
2873.99968327703
 31
0.0
  0
LINE
  5
35E
330
1F
100
AcDbEntity
  8
0-C_ﾊｯﾁ
  6
JWW_DASHED1
 62
   120
370
     5
100
AcDbLine
 10
-2862.121938492714
 20
2798.999683277016
 30
0.0
 11
-2787.1219384927
 21
2873.999683277032
 31
0.0
  0
LINE
  5
35F
330
1F
100
AcDbEntity
  8
0-C_ﾊｯﾁ
  6
JWW_DASHED1
 62
   120
370
     5
100
AcDbLine
 10
-2904.548345363852
 20
2798.999683277022
 30
0.0
 11
-2829.548345363864
 21
2873.999683277015
 31
0.0
  0
LINE
  5
360
330
1F
100
AcDbEntity
  8
0-C_ﾊｯﾁ
  6
JWW_DASHED1
 62
   120
370
     5
100
AcDbLine
 10
-2659.842717879105
 20
2873.999683277029
 30
0.0
 11
-2734.842717879107
 21
2798.999683277003
 31
0.0
  0
LINE
  5
361
330
1F
100
AcDbEntity
  8
0-C_ﾊｯﾁ
  6
JWW_DASHED1
 62
   120
370
     5
100
AcDbLine
 10
-2617.416311007886
 20
2873.999683277025
 30
0.0
 11
-2692.416311007879
 21
2798.99968327703
 31
0.0
  0
LINE
  5
362
330
1F
100
AcDbEntity
  8
0-C_ﾊｯﾁ
  6
JWW_DASHED1
 62
   120
370
     5
100
AcDbLine
 10
-2574.989904136683
 20
2873.999683277028
 30
0.0
 11
-2649.989904136683
 21
2798.999683277029
 31
0.0
  0
LINE
  5
363
330
1F
100
AcDbEntity
  8
0-C_ﾊｯﾁ
  6
JWW_DASHED1
 62
   120
370
     5
100
AcDbLine
 10
-2532.563497265486
 20
2873.999683277023
 30
0.0
 11
-2607.563497265486
 21
2798.999683277025
 31
0.0
  0
LINE
  5
364
330
1F
100
AcDbEntity
  8
0-C_ﾊｯﾁ
  6
JWW_DASHED1
 62
   120
370
     5
100
AcDbLine
 10
-2490.137090394292
 20
2873.999683277022
 30
0.0
 11
-2565.137090394286
 21
2798.999683277025
 31
0.0
  0
LINE
  5
365
330
1F
100
AcDbEntity
  8
0-C_ﾊｯﾁ
  6
JWW_DASHED1
 62
   120
370
     5
100
AcDbLine
 10
-2447.710683523151
 20
2873.999683277015
 30
0.0
 11
-2522.710683523148
 21
2798.999683277018
 31
0.0
  0
LINE
  5
366
330
1F
100
AcDbEntity
  8
0-C_ﾊｯﾁ
  6
JWW_DASHED1
 62
   120
370
     5
100
AcDbLine
 10
-2405.284276651954
 20
2873.999683277011
 30
0.0
 11
-2480.284276651951
 21
2798.999683277015
 31
0.0
  0
LINE
  5
367
330
1F
100
AcDbEntity
  8
0-C_ﾊｯﾁ
  6
JWW_DASHED1
 62
   120
370
     5
100
AcDbLine
 10
-2362.857869780741
 20
2873.999683277025
 30
0.0
 11
-2437.857869780754
 21
2798.999683277011
 31
0.0
  0
LINE
  5
368
330
1F
100
AcDbEntity
  8
0-C_ﾊｯﾁ
  6
JWW_DASHED1
 62
   120
370
     5
100
AcDbLine
 10
-2320.431462909541
 20
2873.999683277025
 30
0.0
 11
-2395.431462909551
 21
2798.999683277015
 31
0.0
  0
LINE
  5
369
330
1F
100
AcDbEntity
  8
0-C_ﾊｯﾁ
  6
JWW_DASHED1
 62
   120
370
     5
100
AcDbLine
 10
-2278.005056038346
 20
2873.999683277022
 30
0.0
 11
-2353.005056038337
 21
2798.999683277028
 31
0.0
  0
LINE
  5
36A
330
1F
100
AcDbEntity
  8
0-C_ﾊｯﾁ
  6
JWW_DASHED1
 62
   120
370
     5
100
AcDbLine
 10
-2235.578649167134
 20
2873.999683277032
 30
0.0
 11
-2310.578649167132
 21
2798.999683277036
 31
0.0
  0
LINE
  5
36B
330
1F
100
AcDbEntity
  8
0-C_ﾊｯﾁ
  6
JWW_DASHED1
 62
   120
370
     5
100
AcDbLine
 10
-2195.081828316433
 20
2872.070097256535
 30
0.0
 11
-2268.152242295934
 21
2798.999683277032
 31
0.0
  0
LINE
  5
36C
330
1F
100
AcDbEntity
  8
0-C_ﾊｯﾁ
  6
JWW_DASHED1
 62
   120
370
     5
100
AcDbLine
 10
-2195.081828316433
 20
2829.643690385335
 30
0.0
 11
-2225.725835424737
 21
2798.999683277029
 31
0.0
  0
LINE
  5
36D
330
1F
100
AcDbEntity
  8
0-3_仕上
  6
Continuous
 62
    92
370
    13
100
AcDbLine
 10
-2246.081828316419
 20
2798.99968327703
 30
0.0
 11
-2246.081828316419
 21
2078.999683277025
 31
0.0
  0
LINE
  5
36E
330
1F
100
AcDbEntity
  8
0-3_仕上
  6
Continuous
 62
    92
370
    13
100
AcDbLine
 10
-2966.081828316419
 20
2798.999683277037
 30
0.0
 11
-2966.081828316419
 21
2078.999683277032
 31
0.0
  0
LINE
  5
36F
330
1F
100
AcDbEntity
  8
0-3_仕上
  6
Continuous
 62
     7
370
     9
100
AcDbLine
 10
-2246.081828316419
 20
2078.999683277025
 30
0.0
 11
-2966.081828316419
 21
2798.999683277037
 31
0.0
  0
LINE
  5
370
330
1F
100
AcDbEntity
  8
0-3_仕上
  6
Continuous
 62
     7
370
     9
100
AcDbLine
 10
-2966.081828316419
 20
2078.999683277032
 30
0.0
 11
-2246.081828316419
 21
2798.99968327703
 31
0.0
  0
LINE
  5
371
330
1F
100
AcDbEntity
  8
0-C_ﾊｯﾁ
  6
Continuous
 62
   120
370
     5
100
AcDbLine
 10
-2195.081828316419
 20
2473.705178566327
 30
0.0
 11
-2097.376211283158
 21
2375.999683277014
 31
0.0
  0
LINE
  5
372
330
1F
100
AcDbEntity
  8
0-C_ﾊｯﾁ
  6
Continuous
 62
   120
370
     5
100
AcDbLine
 10
-2195.081828316433
 20
2337.940861258663
 30
0.0
 11
-2099.339961114834
 21
2242.199683277014
 31
0.0
  0
LINE
  5
373
330
1F
100
AcDbEntity
  8
0-C_ﾊｯﾁ
  6
Continuous
 62
   120
370
     5
100
AcDbLine
 10
-2195.081828316419
 20
2405.822877886246
 30
0.0
 11
-2054.081393440928
 21
2264.822821360717
 31
0.0
  0
LINE
  5
374
330
1F
100
AcDbEntity
  8
0-4_枠
  6
Continuous
 62
    92
370
    13
100
AcDbLine
 10
-2054.081393440928
 20
2375.999683277014
 30
0.0
 11
-2054.081393440928
 21
2930.786044965926
 31
0.0
  0
LINE
  5
375
330
1F
100
AcDbEntity
  8
0-4_枠
  6
Continuous
 62
    92
370
    13
100
AcDbLine
 10
-2051.081828316417
 20
2932.029120528533
 30
0.0
 11
-2051.081828316417
 21
2375.999683277014
 31
0.0
  0
LINE
  5
376
330
1F
100
AcDbEntity
  8
0-4_枠
  6
Continuous
 62
    92
370
    13
100
AcDbLine
 10
-2054.081393440928
 20
1947.213321588094
 30
0.0
 11
-2054.081393440928
 21
2219.999683277013
 31
0.0
  0
LINE
  5
377
330
1F
100
AcDbEntity
  8
0-4_枠
  6
Continuous
 62
    92
370
    13
100
AcDbLine
 10
-2051.081828316417
 20
1945.970246025487
 30
0.0
 11
-2051.081828316417
 21
2219.999683277013
 31
0.0
  0
LINE
  5
378
330
1F
100
AcDbEntity
  8
0-C_ﾊｯﾁ
  6
Continuous
 62
   120
370
     5
100
AcDbLine
 10
-2195.081828316419
 20
2066.41169461629
 30
0.0
 11
-2064.982348626791
 21
1936.312366402234
 31
0.0
  0
LINE
  5
379
330
1F
100
AcDbEntity
  8
0-C_ﾊｯﾁ
  6
Continuous
 62
   120
370
     5
100
AcDbLine
 10
-2124.319213745486
 20
2946.00011815221
 30
0.0
 11
-2054.081393440928
 21
2875.761581317784
 31
0.0
  0
LINE
  5
37A
330
1F
100
AcDbEntity
  8
0-C_ﾊｯﾁ
  6
Continuous
 62
   120
370
     5
100
AcDbLine
 10
-2195.081828316419
 20
2948.882081100432
 30
0.0
 11
-2054.081393440928
 21
2807.879726306797
 31
0.0
  0
LINE
  5
37B
330
1F
100
AcDbEntity
  8
0-4_枠
  6
Continuous
 62
    92
370
    13
100
AcDbLine
 10
-2195.081828316419
 20
2948.999683277009
 30
0.0
 11
-2195.081828316419
 21
1928.999683277009
 31
0.0
  0
LINE
  5
37C
330
1F
100
AcDbEntity
  8
0-C_ﾊｯﾁ
  6
Continuous
 62
   120
370
     5
100
AcDbLine
 10
-2195.081828316419
 20
2270.055617156931
 30
0.0
 11
-2054.081393440928
 21
2129.058257953525
 31
0.0
  0
LINE
  5
37D
330
1F
100
AcDbEntity
  8
0-C_ﾊｯﾁ
  6
Continuous
 62
   120
370
     5
100
AcDbLine
 10
-2195.081828316419
 20
2541.587667245051
 30
0.0
 11
-2054.081393440928
 21
2400.586845294833
 31
0.0
  0
LINE
  5
37E
330
1F
100
AcDbEntity
  8
0-C_ﾊｯﾁ
  6
Continuous
 62
   120
370
     5
100
AcDbLine
 10
-2195.081828316419
 20
2813.117305925048
 30
0.0
 11
-2054.081393440928
 21
2672.115432636142
 31
0.0
  0
LINE
  5
37F
330
1F
100
AcDbEntity
  8
0-C_ﾊｯﾁ
  6
Continuous
 62
   120
370
     5
100
AcDbLine
 10
-2195.081828316419
 20
2745.235932418789
 30
0.0
 11
-2054.081393440928
 21
2604.233577625155
 31
0.0
  0
LINE
  5
380
330
1F
100
AcDbEntity
  8
0-C_ﾊｯﾁ
  6
Continuous
 62
   120
370
     5
100
AcDbLine
 10
-2195.081828316419
 20
2677.353012254394
 30
0.0
 11
-2054.081393440928
 21
2536.351138965488
 31
0.0
  0
LINE
  5
381
330
1F
100
AcDbEntity
  8
0-C_ﾊｯﾁ
  6
Continuous
 62
   120
370
     5
100
AcDbLine
 10
-2195.081828316419
 20
2609.470173954653
 30
0.0
 11
-2054.081393440928
 21
2468.469283954499
 31
0.0
  0
LINE
  5
382
330
1F
100
AcDbEntity
  8
0-C_ﾊｯﾁ
  6
Continuous
 62
   120
370
     5
100
AcDbLine
 10
-2195.081828316419
 20
2202.17579614083
 30
0.0
 11
-2054.081393440928
 21
2061.175807849764
 31
0.0
  0
LINE
  5
383
330
1F
100
AcDbEntity
  8
0-C_ﾊｯﾁ
  6
Continuous
 62
   120
370
     5
100
AcDbLine
 10
-2195.081828316419
 20
2134.293582788145
 30
0.0
 11
-2054.081393440928
 21
1993.293369190094
 31
0.0
  0
LINE
  5
384
330
1F
100
AcDbEntity
  8
0-4_枠
  6
Continuous
 62
    92
370
    13
100
AcDbLine
 10
-2069.294871534726
 20
1931.999843494296
 30
0.0
 11
-2054.081393440928
 21
1947.213321588094
 31
0.0
  0
LINE
  5
385
330
1F
100
AcDbEntity
  8
0-4_枠
  6
Continuous
 62
    92
370
    13
100
AcDbLine
 10
-2069.295466627215
 20
2946.00011815221
 30
0.0
 11
-2054.081393440928
 21
2930.786044965926
 31
0.0
  0
LINE
  5
386
330
1F
100
AcDbEntity
  8
0-4_枠
  6
Continuous
 62
    92
370
    13
100
AcDbLine
 10
-2068.052391064894
 20
1928.999683277009
 30
0.0
 11
-2051.081828316417
 21
1945.970246025487
 31
0.0
  0
LINE
  5
387
330
1F
100
AcDbEntity
  8
0-4_枠
  6
Continuous
 62
    92
370
    13
100
AcDbLine
 10
-2068.052391064894
 20
2948.999683277009
 30
0.0
 11
-2051.081828316417
 21
2932.029120528533
 31
0.0
  0
LINE
  5
388
330
1F
100
AcDbEntity
  8
0-4_枠
  6
Continuous
 62
    92
370
    13
100
AcDbLine
 10
-2068.052391064894
 20
2948.999683277009
 30
0.0
 11
-2195.081828316419
 21
2948.999683277009
 31
0.0
  0
LINE
  5
389
330
1F
100
AcDbEntity
  8
0-4_枠
  6
Continuous
 62
    92
370
    13
100
AcDbLine
 10
-2068.052391064894
 20
1928.999683277009
 30
0.0
 11
-2195.081828316419
 21
1928.999683277009
 31
0.0
  0
LINE
  5
38A
330
1F
100
AcDbEntity
  8
0-4_枠
  6
Continuous
 62
    92
370
    13
100
AcDbLine
 10
-2192.081828316419
 20
2018.999683277014
 30
0.0
 11
-2195.081828316419
 21
2018.999683277014
 31
0.0
  0
LINE
  5
38B
330
1F
100
AcDbEntity
  8
0-4_枠
  6
Continuous
 62
    92
370
    13
100
AcDbLine
 10
-2192.081828316419
 20
2018.999683277014
 30
0.0
 11
-2192.081828316419
 21
1931.9998434943
 31
0.0
  0
LINE
  5
38C
330
1F
100
AcDbEntity
  8
0-4_枠
  6
Continuous
 62
    92
370
    13
100
AcDbLine
 10
-2069.294871534726
 20
1931.999843494296
 30
0.0
 11
-2192.081828316419
 21
1931.999843494296
 31
0.0
  0
LINE
  5
38D
330
1F
100
AcDbEntity
  8
0-4_枠
  6
Continuous
 62
    92
370
    13
100
AcDbLine
 10
-2192.081828316419
 20
2858.999683277009
 30
0.0
 11
-2195.081828316419
 21
2858.999683277009
 31
0.0
  0
LINE
  5
38E
330
1F
100
AcDbEntity
  8
0-4_枠
  6
Continuous
 62
    92
370
    13
100
AcDbLine
 10
-2192.081828316419
 20
2858.999683277009
 30
0.0
 11
-2192.081828316419
 21
2946.000118152499
 31
0.0
  0
LINE
  5
38F
330
1F
100
AcDbEntity
  8
0-4_枠
  6
Continuous
 62
    92
370
    13
100
AcDbLine
 10
-2192.081828316419
 20
2946.00011815221
 30
0.0
 11
-2069.295466627215
 21
2946.00011815221
 31
0.0
  0
LINE
  5
390
330
1F
100
AcDbEntity
  8
0-C_ﾊｯﾁ
  6
Continuous
 62
   120
370
     5
100
AcDbLine
 10
-2192.081828316419
 20
2877.999130331589
 30
0.0
 11
-2054.081393440928
 21
2739.99728764713
 31
0.0
  0
LINE
  5
391
330
1F
100
AcDbEntity
  8
0-C_ﾊｯﾁ
  6
Continuous
 62
   120
370
     5
100
AcDbLine
 10
-2192.081828316419
 20
1995.529542281534
 30
0.0
 11
-2128.552055561103
 21
1931.999843494296
 31
0.0
  0
TEXT
  5
392
330
1F
100
AcDbEntity
  8
0-B_寸法
  6
Continuous
 62
     7
370
     0
100
AcDbText
 10
-1774.471838630343
 20
2303.999683277018
 30
0.0
 40
91.44
  1
170
 50
90.0
  7
ＭＳ ゴシック
100
AcDbText
  0
LINE
  5
393
330
1F
100
AcDbEntity
  8
0-6_扉
  6
Continuous
 62
   200
370
    20
100
AcDbLine
 10
-2021.081828316419
 20
1988.999683277019
 30
0.0
 11
-2021.081828316419
 21
2204.999683277018
 31
0.0
  0
LINE
  5
394
330
1F
100
AcDbEntity
  8
0-6_扉
  6
Continuous
 62
   200
370
    20
100
AcDbLine
 10
-2021.081828316419
 20
2204.999683277018
 30
0.0
 11
-563.3034642003222
 21
2204.999683277018
 31
0.0
  0
LINE
  5
395
330
1F
100
AcDbEntity
  8
0-6_扉
  6
Continuous
 62
   200
370
    20
100
AcDbLine
 10
-2021.081828316419
 20
1988.999683277019
 30
0.0
 11
-563.3034642003222
 21
1988.999683277019
 31
0.0
  0
LINE
  5
396
330
1F
100
AcDbEntity
  8
0-1_通り芯
  6
JWW_CENTER1
 62
   120
370
     5
100
AcDbLine
 10
3414.918171683583
 20
2438.999683277028
 30
0.0
 11
-3395.081828316421
 21
2438.999683277028
 31
0.0
  0
LINE
  5
397
330
1F
100
AcDbEntity
  8
0-0_補助線
  6
JWW_HOJO
 62
   120
370
     5
100
AcDbLine
 10
3414.918171683583
 20
2096.999683277019
 30
0.0
 11
-3395.081828316421
 21
2096.999683277019
 31
0.0
  0
TEXT
  5
398
330
1F
100
AcDbEntity
  8
0-B_寸法
  6
Continuous
 62
     7
370
   211
100
AcDbText
 10
-1440.94246754354
 20
2036.999683277016
 30
0.0
 40
91.44
  1
36
 50
90.0
  7
ＭＳ ゴシック
100
AcDbText
  0
LINE
  5
399
330
1F
100
AcDbEntity
  8
0-B_寸法
  6
Continuous
 62
   120
370
     5
100
AcDbLine
 10
-1409.02246754354
 20
2204.999683277018
 30
0.0
 11
-1409.02246754354
 21
1988.999683277016
 31
0.0
  0
LWPOLYLINE
  5
39A
330
1F
100
AcDbEntity
  8
0-B_寸法
  6
Continuous
 62
     7
370
     9
100
AcDbPolyline
 90
        4
 70
     1
 43
6.0
 10
-1406.02246754354
 20
2204.999683277018
 42
0.4142135623731
 10
-1409.02246754354
 20
2207.999683277018
 42
0.4142135623731
 10
-1412.02246754354
 20
2204.999683277018
 42
0.4142135623731
 10
-1409.02246754354
 20
2201.999683277018
 42
0.4142135623731
  0
LWPOLYLINE
  5
39B
330
1F
100
AcDbEntity
  8
0-B_寸法
  6
Continuous
 62
     7
370
     9
100
AcDbPolyline
 90
        4
 70
     1
 43
6.0
 10
-1406.02246754354
 20
1988.999683277016
 42
0.4142135623731
 10
-1409.02246754354
 20
1991.999683277016
 42
0.4142135623731
 10
-1412.02246754354
 20
1988.999683277016
 42
0.4142135623731
 10
-1409.02246754354
 20
1985.999683277016
 42
0.4142135623731
  0
TEXT
  5
39C
330
1F
100
AcDbEntity
  8
0-A_文字
  6
Continuous
 62
     7
370
     9
100
AcDbText
 10
-3395.081828316421
 20
3183.357783538335
 30
0.0
 40
91.44
  1
■横断面図
 41
1.1
  7
ＭＳ ゴシック
100
AcDbText
  0
LINE
  5
39D
330
1F
100
AcDbEntity
  8
0-0_補助線
  6
JWW_HOJO
 62
   120
370
     5
100
AcDbLine
 10
-3395.081828316421
 20
1748.999683277018
 30
0.0
 11
-3395.081828316421
 21
3128.999683277018
 31
0.0
  0
LINE
  5
39E
330
1F
100
AcDbEntity
  8
0-0_補助線
  6
JWW_HOJO
 62
   120
370
     5
100
AcDbLine
 10
3432.918171683585
 20
1748.999683277018
 30
0.0
 11
-3395.081828316421
 21
1748.999683277018
 31
0.0
  0
LINE
  5
39F
330
1F
100
AcDbEntity
  8
0-0_補助線
  6
JWW_HOJO
 62
   120
370
     5
100
AcDbLine
 10
3432.918171683585
 20
1748.999683277018
 30
0.0
 11
3432.918171683585
 21
3128.999683277018
 31
0.0
  0
LINE
  5
3A0
330
1F
100
AcDbEntity
  8
0-0_補助線
  6
JWW_HOJO
 62
   120
370
     5
100
AcDbLine
 10
3432.918171683585
 20
3128.999683277018
 30
0.0
 11
-3395.081828316421
 21
3128.999683277018
 31
0.0
  0
LINE
  5
3A1
330
1F
100
AcDbEntity
  8
0-C_ﾊｯﾁ
  6
Continuous
 62
   120
370
     5
100
AcDbLine
 10
-2075.176183621298
 20
2353.799683277015
 30
0.0
 11
-2054.081393440928
 21
2332.704919381345
 31
0.0
  0
LINE
  5
3A2
330
1F
100
AcDbEntity
  8
0-C_ﾊｯﾁ
  6
Continuous
 62
   120
370
     5
100
AcDbLine
 10
-2077.139801301853
 20
2219.999683277013
 30
0.0
 11
-2054.081393440928
 21
2196.941441407365
 31
0.0
  0
LINE
  5
3A3
330
1F
100
AcDbEntity
  8
0-4_枠
  6
Continuous
 62
    92
370
    13
100
AcDbLine
 10
-2051.081828316413
 20
2242.199683277014
 30
0.0
 11
-2051.081828316413
 21
2353.799683277015
 31
0.0
  0
LINE
  5
3A4
330
1F
100
AcDbEntity
  8
0-4_枠
  6
Continuous
 62
    92
370
    13
100
AcDbLine
 10
-2054.081393440928
 20
2242.199683277014
 30
0.0
 11
-2054.081393440928
 21
2353.799683277015
 31
0.0
  0
LINE
  5
3A5
330
1F
100
AcDbEntity
  8
0-4_枠
  6
Continuous
 62
    92
370
    13
100
AcDbLine
 10
-2102.081828316414
 20
2219.999683277013
 30
0.0
 11
-2102.081828316414
 21
2242.199683277014
 31
0.0
  0
LINE
  5
3A6
330
1F
100
AcDbEntity
  8
0-4_枠
  6
Continuous
 62
    92
370
    13
100
AcDbLine
 10
-2102.081828316414
 20
2353.799683277015
 30
0.0
 11
-2102.081828316414
 21
2375.999683277015
 31
0.0
  0
LINE
  5
3A7
330
1F
100
AcDbEntity
  8
0-4_枠
  6
Continuous
 62
    92
370
    13
100
AcDbLine
 10
-2102.081828316414
 20
2375.999683277015
 30
0.0
 11
-2051.081828316413
 21
2375.999683277015
 31
0.0
  0
LINE
  5
3A8
330
1F
100
AcDbEntity
  8
0-4_枠
  6
Continuous
 62
    92
370
    13
100
AcDbLine
 10
-2051.081828316413
 20
2353.799683277015
 30
0.0
 11
-2102.081828316414
 21
2353.799683277015
 31
0.0
  0
LINE
  5
3A9
330
1F
100
AcDbEntity
  8
0-4_枠
  6
Continuous
 62
    92
370
    13
100
AcDbLine
 10
-2051.081828316413
 20
2242.199683277014
 30
0.0
 11
-2102.081828316414
 21
2242.199683277014
 31
0.0
  0
LINE
  5
3AA
330
1F
100
AcDbEntity
  8
0-4_枠
  6
Continuous
 62
    92
370
    13
100
AcDbLine
 10
-2051.081828316413
 20
2219.999683277013
 30
0.0
 11
-2102.081828316414
 21
2219.999683277013
 31
0.0
  0
INSERT
  5
3AB
330
1F
100
AcDbEntity
  8
0-0_補助線
  6
Continuous
 62
     7
370
     9
100
AcDbBlockReference
  2
01@@SfigorgFlag@@4_0-0_
 10
-2050.204379079649
 20
2297.999683277014
 30
0.0
 41
30.0
 42
30.0
 50
90.0
  0
LINE
  5
3AC
330
1F
100
AcDbEntity
  8
0-B_寸法
  6
Continuous
 62
   120
370
     5
100
AcDbLine
 10
1551.590909873509
 20
-1772.877906267152
 30
0.0
 11
1551.590909873509
 21
-1592.877906267152
 31
0.0
  0
LINE
  5
3AD
330
1F
100
AcDbEntity
  8
0-B_寸法
  6
Continuous
 62
   120
370
     5
100
AcDbLine
 10
1497.590909873509
 20
-1772.877906267152
 30
0.0
 11
1497.590909873509
 21
-1592.877906267152
 31
0.0
  0
LINE
  5
3AE
330
1F
100
AcDbEntity
  8
0-B_寸法
  6
Continuous
 62
   120
370
     5
100
AcDbLine
 10
1203.59090987351
 20
-1772.877906267152
 30
0.0
 11
1203.59090987351
 21
-1592.877906267152
 31
0.0
  0
LINE
  5
3AF
330
1F
100
AcDbEntity
  8
0-B_寸法
  6
Continuous
 62
   120
370
     5
100
AcDbLine
 10
1149.59090987351
 20
-1772.877906267152
 30
0.0
 11
1149.59090987351
 21
-1592.877906267152
 31
0.0
  0
LWPOLYLINE
  5
3B0
330
1F
100
AcDbEntity
  8
0-B_寸法
  6
Continuous
 62
     7
370
     9
100
AcDbPolyline
 90
        4
 70
     1
 43
6.0
 10
1554.590909873509
 20
-1772.877906267152
 42
0.4142135623731
 10
1551.590909873509
 20
-1769.877906267152
 42
0.4142135623731
 10
1548.590909873509
 20
-1772.877906267152
 42
0.4142135623731
 10
1551.590909873509
 20
-1775.877906267152
 42
0.4142135623731
  0
LWPOLYLINE
  5
3B1
330
1F
100
AcDbEntity
  8
0-B_寸法
  6
Continuous
 62
     7
370
     9
100
AcDbPolyline
 90
        4
 70
     1
 43
6.0
 10
1500.590909873509
 20
-1772.877906267152
 42
0.4142135623731
 10
1497.590909873509
 20
-1769.877906267152
 42
0.4142135623731
 10
1494.590909873509
 20
-1772.877906267152
 42
0.4142135623731
 10
1497.590909873509
 20
-1775.877906267152
 42
0.4142135623731
  0
LWPOLYLINE
  5
3B2
330
1F
100
AcDbEntity
  8
0-B_寸法
  6
Continuous
 62
     7
370
     9
100
AcDbPolyline
 90
        4
 70
     1
 43
6.0
 10
1206.59090987351
 20
-1772.877906267152
 42
0.4142135623731
 10
1203.59090987351
 20
-1769.877906267152
 42
0.4142135623731
 10
1200.59090987351
 20
-1772.877906267152
 42
0.4142135623731
 10
1203.59090987351
 20
-1775.877906267152
 42
0.4142135623731
  0
LWPOLYLINE
  5
3B3
330
1F
100
AcDbEntity
  8
0-B_寸法
  6
Continuous
 62
     7
370
     9
100
AcDbPolyline
 90
        4
 70
     1
 43
6.0
 10
1152.59090987351
 20
-1772.877906267152
 42
0.4142135623731
 10
1149.59090987351
 20
-1769.877906267152
 42
0.4142135623731
 10
1146.590909873509
 20
-1772.877906267152
 42
0.4142135623731
 10
1149.59090987351
 20
-1775.877906267152
 42
0.4142135623731
  0
LWPOLYLINE
  5
3B4
330
1F
100
AcDbEntity
  8
0-B_寸法
  6
Continuous
 62
     7
370
     9
100
AcDbPolyline
 90
        4
 70
     1
 43
6.0
 10
1617.59090987351
 20
-1772.877906267152
 42
0.4142135623731
 10
1614.59090987351
 20
-1769.877906267152
 42
0.4142135623731
 10
1611.590909873509
 20
-1772.877906267152
 42
0.4142135623731
 10
1614.59090987351
 20
-1775.877906267152
 42
0.4142135623731
  0
LINE
  5
3B5
330
1F
100
AcDbEntity
  8
0-B_寸法
  6
Continuous
 62
   120
370
     5
100
AcDbLine
 10
1614.59090987351
 20
-1772.877906267152
 30
0.0
 11
1614.59090987351
 21
-1592.877906267152
 31
0.0
  0
LWPOLYLINE
  5
3B6
330
1F
100
AcDbEntity
  8
0-B_寸法
  6
Continuous
 62
     7
370
     9
100
AcDbPolyline
 90
        4
 70
     1
 43
6.0
 10
597.5909098735112
 20
-1772.877906267152
 42
0.4142135623731
 10
594.5909098735112
 20
-1769.877906267152
 42
0.4142135623731
 10
591.5909098735112
 20
-1772.877906267152
 42
0.4142135623731
 10
594.5909098735112
 20
-1775.877906267152
 42
0.4142135623731
  0
LINE
  5
3B7
330
1F
100
AcDbEntity
  8
0-B_寸法
  6
Continuous
 62
   120
370
     5
100
AcDbLine
 10
594.5909098735112
 20
-1772.877906267152
 30
0.0
 11
594.5909098735112
 21
-1592.877906267152
 31
0.0
  0
TEXT
  5
3B8
330
1F
100
AcDbEntity
  8
0-B_寸法
  6
Continuous
 62
     7
370
   211
100
AcDbText
 10
1290.590909873509
 20
-1740.957906267152
 30
0.0
 40
91.44
  1
49
  7
ＭＳ ゴシック
100
AcDbText
  0
TEXT
  5
3B9
330
1F
100
AcDbEntity
  8
0-B_寸法
  6
Continuous
 62
     7
370
   211
100
AcDbText
 10
791.0909098735103
 20
-1740.957906267152
 30
0.0
 40
91.44
  1
92.5
  7
ＭＳ ゴシック
100
AcDbText
  0
TEXT
  5
3BA
330
1F
100
AcDbEntity
  8
0-B_寸法
  6
Continuous
 62
     7
370
   211
100
AcDbText
 10
1623.539042597156
 20
-1740.957906267152
 30
0.0
 40
91.44
  1
10.5
  7
ＭＳ ゴシック
100
AcDbText
  0
LINE
  5
3BB
330
1F
100
AcDbEntity
  8
0-B_寸法
  6
Continuous
 62
   120
370
     5
100
AcDbLine
 10
1866.438322106293
 20
-1772.877906267152
 30
0.0
 11
594.5909098735112
 21
-1772.877906267152
 31
0.0
  0
TEXT
  5
3BC
330
1F
100
AcDbEntity
  8
0-B_寸法
  6
Continuous
 62
     7
370
   211
100
AcDbText
 10
1146.590909873507
 20
-1890.957906267152
 30
0.0
 40
91.44
  1
9
  7
ＭＳ ゴシック
100
AcDbText
  0
TEXT
  5
3BD
330
1F
100
AcDbEntity
  8
0-B_寸法
  6
Continuous
 62
     7
370
   211
100
AcDbText
 10
1494.59090987351
 20
-1890.957906267152
 30
0.0
 40
91.44
  1
9
  7
ＭＳ ゴシック
100
AcDbText
  0
ENDSEC
  0
SECTION
  2
OBJECTS
  0
DICTIONARY
  5
C
330
0
100
AcDbDictionary
281
     1
  3
ACAD_DETAILVIEWSTYLE
350
47B
  3
ACAD_GROUP
350
D
  3
ACAD_LAYOUT
350
1A
  3
ACAD_MATERIAL
350
43
  3
ACAD_MLEADERSTYLE
350
6B
  3
ACAD_MLINESTYLE
350
17
  3
ACAD_PLOTSETTINGS
350
19
  3
ACAD_PLOTSTYLENAME
350
E
  3
ACAD_SCALELIST
350
47
  3
ACAD_SECTIONVIEWSTYLE
350
47C
  3
ACAD_TABLESTYLE
350
69
  3
ACAD_VISUALSTYLE
350
2A
  3
ACDB_RECOMPOSE_DATA
350
478
  3
AcDbVariableDictionary
350
444
  0
SUN
  5
6D
330
29
100
AcDbSun
 90
        1
290
     0
 63
     7
421
 16777215
 40
1.0
291
     1
 91
  2455826
 92
 54000000
292
     0
 70
     2
 71
   256
280
     1
  0
DICTIONARY
  5
47B
102
{ACAD_REACTORS
330
C
102
}
330
C
100
AcDbDictionary
281
     1
  0
DICTIONARY
  5
D
102
{ACAD_REACTORS
330
C
102
}
330
C
100
AcDbDictionary
281
     1
  0
DICTIONARY
  5
1A
102
{ACAD_REACTORS
330
C
102
}
330
C
100
AcDbDictionary
281
     1
  3
Layout1
350
1E
  3
Layout2
350
26
  3
Model
350
22
  0
DICTIONARY
  5
43
102
{ACAD_REACTORS
330
C
102
}
330
C
100
AcDbDictionary
281
     1
  3
ByBlock
350
45
  3
ByLayer
350
44
  3
Global
350
46
  0
DICTIONARY
  5
6B
102
{ACAD_REACTORS
330
C
102
}
330
C
100
AcDbDictionary
281
     1
  3
Standard
350
6C
  0
DICTIONARY
  5
17
102
{ACAD_REACTORS
330
C
102
}
330
C
100
AcDbDictionary
281
     1
  3
Standard
350
18
  0
DICTIONARY
  5
19
102
{ACAD_REACTORS
330
C
102
}
330
C
100
AcDbDictionary
281
     1
  0
ACDBDICTIONARYWDFLT
  5
E
102
{ACAD_REACTORS
330
C
102
}
330
C
100
AcDbDictionary
281
     1
  3
Normal
350
F
100
AcDbDictionaryWithDefault
340
F
  0
DICTIONARY
  5
47
102
{ACAD_REACTORS
330
C
102
}
330
C
100
AcDbDictionary
281
     1
  3
A0
350
48
  3
A1
350
49
  3
A2
350
4A
  3
A3
350
4B
  3
A4
350
4C
  3
A5
350
4D
  3
A6
350
4E
  3
A7
350
4F
  3
A8
350
50
  3
A9
350
51
  3
B0
350
52
  3
B1
350
53
  3
B2
350
54
  3
B3
350
55
  3
B4
350
56
  3
B5
350
57
  3
B6
350
58
  3
B7
350
59
  3
B8
350
5A
  3
B9
350
5B
  3
C0
350
5C
  3
C1
350
5D
  3
C2
350
5E
  3
C3
350
5F
  3
C4
350
60
  3
C5
350
61
  3
C6
350
62
  3
C7
350
63
  3
C8
350
64
  3
C9
350
65
  3
D0
350
66
  3
D1
350
67
  3
D2
350
68
  0
DICTIONARY
  5
47C
102
{ACAD_REACTORS
330
C
102
}
330
C
100
AcDbDictionary
281
     1
  0
DICTIONARY
  5
69
102
{ACAD_REACTORS
330
C
102
}
330
C
100
AcDbDictionary
281
     1
  3
Standard
350
6A
  0
DICTIONARY
  5
2A
102
{ACAD_REACTORS
330
C
102
}
330
C
100
AcDbDictionary
281
     1
  3
2dWireframe
350
2F
  3
Basic
350
32
  3
Brighten
350
36
  3
ColorChange
350
3A
  3
Conceptual
350
34
  3
Dim
350
35
  3
EdgeColorOff
350
3D
  3
Facepattern
350
39
  3
Flat
350
2B
  3
FlatWithEdges
350
2C
  3
Gouraud
350
2D
  3
GouraudWithEdges
350
2E
  3
Hidden
350
31
  3
JitterOff
350
3B
  3
Linepattern
350
38
  3
OverhangOff
350
3C
  3
Realistic
350
33
  3
Shaded
350
42
  3
Shaded with edges
350
41
  3
Shades of Gray
350
3E
  3
Sketchy
350
3F
  3
Thicken
350
37
  3
Wireframe
350
30
  3
X-Ray
350
40
  0
XRECORD
  5
478
102
{ACAD_REACTORS
330
C
102
}
330
C
100
AcDbXrecord
280
     1
 90
        1
330
6A
  0
DICTIONARY
  5
444
102
{ACAD_REACTORS
330
C
102
}
330
C
100
AcDbDictionary
281
     1
  3
CANNOSCALE
350
445
  3
CENTEREXE
350
47D
  3
CENTERLTYPEFILE
350
47E
  3
CMLEADERSTYLE
350
47A
  3
CTABLESTYLE
350
479
  0
LAYOUT
  5
1E
102
{ACAD_REACTORS
330
1A
102
}
330
1A
100
AcDbPlotSettings
  1

  2
none_device
  4

  6

 40
0.0
 41
0.0
 42
0.0
 43
0.0
 44
0.0
 45
0.0
 46
0.0
 47
0.0
 48
0.0
 49
0.0
140
0.0
141
0.0
142
1.0
143
1.0
 70
   688
 72
     1
 73
     0
 74
     5
  7

 75
    16
 76
     0
 77
     5
 78
   300
147
1.0
148
0.0
149
0.0
100
AcDbLayout
  1
Layout1
 70
     1
 71
     1
 10
0.0
 20
0.0
 11
420.0
 21
297.0
 12
0.0
 22
0.0
 32
0.0
 14
1.000000000000000E+20
 24
1.000000000000000E+20
 34
1.000000000000000E+20
 15
-1.000000000000000E+20
 25
-1.000000000000000E+20
 35
-1.000000000000000E+20
146
0.0
 13
0.0
 23
0.0
 33
0.0
 16
1.0
 26
0.0
 36
0.0
 17
0.0
 27
1.0
 37
0.0
 76
     0
330
1B
  0
LAYOUT
  5
26
102
{ACAD_REACTORS
330
1A
102
}
330
1A
100
AcDbPlotSettings
  1

  2
none_device
  4

  6

 40
0.0
 41
0.0
 42
0.0
 43
0.0
 44
0.0
 45
0.0
 46
0.0
 47
0.0
 48
0.0
 49
0.0
140
0.0
141
0.0
142
1.0
143
1.0
 70
   688
 72
     1
 73
     0
 74
     5
  7

 75
    16
 76
     0
 77
     5
 78
   300
147
1.0
148
0.0
149
0.0
100
AcDbLayout
  1
Layout2
 70
     1
 71
     2
 10
0.0
 20
0.0
 11
0.0
 21
0.0
 12
0.0
 22
0.0
 32
0.0
 14
0.0
 24
0.0
 34
0.0
 15
0.0
 25
0.0
 35
0.0
146
0.0
 13
0.0
 23
0.0
 33
0.0
 16
1.0
 26
0.0
 36
0.0
 17
0.0
 27
1.0
 37
0.0
 76
     0
330
23
  0
LAYOUT
  5
22
102
{ACAD_REACTORS
330
1A
102
}
330
1A
100
AcDbPlotSettings
  1

  2
none_device
  4
Letter_(8.50_x_11.00_Inches)
  6

 40
6.35
 41
6.35
 42
6.35000508
 43
6.35000508
 44
215.9
 45
279.4
 46
0.0
 47
0.0
 48
0.0
 49
0.0
140
0.0
141
0.0
142
1.0
143
1.0
 70
  1712
 72
     1
 73
     0
 74
     0
  7

 75
     0
 76
     0
 77
     5
 78
   300
147
1.0
148
0.0
149
0.0
100
AcDbLayout
  1
Model
 70
     1
 71
     0
 10
-6300.0
 20
-4455.0
 11
6300.0
 21
4455.0
 12
0.0
 22
0.0
 32
0.0
 14
-6300.0
 24
-4455.0
 34
0.0
 15
6300.0
 25
4455.0
 35
0.0
146
0.0
 13
0.0
 23
0.0
 33
0.0
 16
1.0
 26
0.0
 36
0.0
 17
0.0
 27
1.0
 37
0.0
 76
     0
330
1F
331
29
  0
MATERIAL
  5
45
102
{ACAD_REACTORS
330
43
102
}
330
43
100
AcDbMaterial
  1
ByBlock
 72
     1
 94
      127
  0
MATERIAL
  5
44
102
{ACAD_REACTORS
330
43
102
}
330
43
100
AcDbMaterial
  1
ByLayer
 72
     1
 94
      127
  0
MATERIAL
  5
46
102
{ACAD_REACTORS
330
43
102
}
330
43
100
AcDbMaterial
  1
Global
 72
     1
 94
      127
  0
MLEADERSTYLE
  5
6C
102
{ACAD_REACTORS
330
6B
102
}
330
6B
100
AcDbMLeaderStyle
179
     2
170
     2
171
     1
172
     0
 90
        2
 40
0.0
 41
0.0
173
     1
 91
-1056964608
340
14
 92
       -2
290
     1
 42
2.0
291
     1
 43
8.0
  3
Standard
341
0
 44
4.0
300

342
11
174
     1
178
     6
175
     1
176
     0
 93
-1056964608
 45
4.0
292
     0
297
     0
 46
4.0
343
0
 94
-1056964608
 47
1.0
 49
1.0
140
1.0
293
     1
141
0.0
294
     1
177
     0
142
1.0
295
     0
296
     0
143
3.75
271
     0
272
     9
273
     9
  0
MLINESTYLE
  5
18
102
{ACAD_REACTORS
330
17
102
}
330
17
100
AcDbMlineStyle
  2
Standard
 70
     0
  3

 62
   256
 51
90.0
 52
90.0
 71
     2
 49
0.5
 62
   256
  6
BYLAYER
 49
-0.5
 62
   256
  6
BYLAYER
  0
ACDBPLACEHOLDER
  5
F
102
{ACAD_REACTORS
330
E
102
}
330
E
  0
SCALE
  5
48
102
{ACAD_REACTORS
330
47
102
}
330
47
100
AcDbScale
 70
     0
300
1:1
140
1.0
141
1.0
290
     1
  0
SCALE
  5
49
102
{ACAD_REACTORS
330
47
102
}
330
47
100
AcDbScale
 70
     0
300
1:2
140
1.0
141
2.0
290
     0
  0
SCALE
  5
4A
102
{ACAD_REACTORS
330
47
102
}
330
47
100
AcDbScale
 70
     0
300
1:4
140
1.0
141
4.0
290
     0
  0
SCALE
  5
4B
102
{ACAD_REACTORS
330
47
102
}
330
47
100
AcDbScale
 70
     0
300
1:5
140
1.0
141
5.0
290
     0
  0
SCALE
  5
4C
102
{ACAD_REACTORS
330
47
102
}
330
47
100
AcDbScale
 70
     0
300
1:8
140
1.0
141
8.0
290
     0
  0
SCALE
  5
4D
102
{ACAD_REACTORS
330
47
102
}
330
47
100
AcDbScale
 70
     0
300
1:10
140
1.0
141
10.0
290
     0
  0
SCALE
  5
4E
102
{ACAD_REACTORS
330
47
102
}
330
47
100
AcDbScale
 70
     0
300
1:16
140
1.0
141
16.0
290
     0
  0
SCALE
  5
4F
102
{ACAD_REACTORS
330
47
102
}
330
47
100
AcDbScale
 70
     0
300
1:20
140
1.0
141
20.0
290
     0
  0
SCALE
  5
50
102
{ACAD_REACTORS
330
47
102
}
330
47
100
AcDbScale
 70
     0
300
1:30
140
1.0
141
30.0
290
     0
  0
SCALE
  5
51
102
{ACAD_REACTORS
330
47
102
}
330
47
100
AcDbScale
 70
     0
300
1:40
140
1.0
141
40.0
290
     0
  0
SCALE
  5
52
102
{ACAD_REACTORS
330
47
102
}
330
47
100
AcDbScale
 70
     0
300
1:50
140
1.0
141
50.0
290
     0
  0
SCALE
  5
53
102
{ACAD_REACTORS
330
47
102
}
330
47
100
AcDbScale
 70
     0
300
1:100
140
1.0
141
100.0
290
     0
  0
SCALE
  5
54
102
{ACAD_REACTORS
330
47
102
}
330
47
100
AcDbScale
 70
     0
300
2:1
140
2.0
141
1.0
290
     0
  0
SCALE
  5
55
102
{ACAD_REACTORS
330
47
102
}
330
47
100
AcDbScale
 70
     0
300
4:1
140
4.0
141
1.0
290
     0
  0
SCALE
  5
56
102
{ACAD_REACTORS
330
47
102
}
330
47
100
AcDbScale
 70
     0
300
8:1
140
8.0
141
1.0
290
     0
  0
SCALE
  5
57
102
{ACAD_REACTORS
330
47
102
}
330
47
100
AcDbScale
 70
     0
300
10:1
140
10.0
141
1.0
290
     0
  0
SCALE
  5
58
102
{ACAD_REACTORS
330
47
102
}
330
47
100
AcDbScale
 70
     0
300
100:1
140
100.0
141
1.0
290
     0
  0
SCALE
  5
59
102
{ACAD_REACTORS
330
47
102
}
330
47
100
AcDbScale
 70
     0
300
1/128" = 1'-0"
140
0.0078125
141
12.0
290
     0
  0
SCALE
  5
5A
102
{ACAD_REACTORS
330
47
102
}
330
47
100
AcDbScale
 70
     0
300
1/64" = 1'-0"
140
0.015625
141
12.0
290
     0
  0
SCALE
  5
5B
102
{ACAD_REACTORS
330
47
102
}
330
47
100
AcDbScale
 70
     0
300
1/32" = 1'-0"
140
0.03125
141
12.0
290
     0
  0
SCALE
  5
5C
102
{ACAD_REACTORS
330
47
102
}
330
47
100
AcDbScale
 70
     0
300
1/16" = 1'-0"
140
0.0625
141
12.0
290
     0
  0
SCALE
  5
5D
102
{ACAD_REACTORS
330
47
102
}
330
47
100
AcDbScale
 70
     0
300
3/32" = 1'-0"
140
0.09375
141
12.0
290
     0
  0
SCALE
  5
5E
102
{ACAD_REACTORS
330
47
102
}
330
47
100
AcDbScale
 70
     0
300
1/8" = 1'-0"
140
0.125
141
12.0
290
     0
  0
SCALE
  5
5F
102
{ACAD_REACTORS
330
47
102
}
330
47
100
AcDbScale
 70
     0
300
3/16" = 1'-0"
140
0.1875
141
12.0
290
     0
  0
SCALE
  5
60
102
{ACAD_REACTORS
330
47
102
}
330
47
100
AcDbScale
 70
     0
300
1/4" = 1'-0"
140
0.25
141
12.0
290
     0
  0
SCALE
  5
61
102
{ACAD_REACTORS
330
47
102
}
330
47
100
AcDbScale
 70
     0
300
3/8" = 1'-0"
140
0.375
141
12.0
290
     0
  0
SCALE
  5
62
102
{ACAD_REACTORS
330
47
102
}
330
47
100
AcDbScale
 70
     0
300
1/2" = 1'-0"
140
0.5
141
12.0
290
     0
  0
SCALE
  5
63
102
{ACAD_REACTORS
330
47
102
}
330
47
100
AcDbScale
 70
     0
300
3/4" = 1'-0"
140
0.75
141
12.0
290
     0
  0
SCALE
  5
64
102
{ACAD_REACTORS
330
47
102
}
330
47
100
AcDbScale
 70
     0
300
1" = 1'-0"
140
1.0
141
12.0
290
     0
  0
SCALE
  5
65
102
{ACAD_REACTORS
330
47
102
}
330
47
100
AcDbScale
 70
     0
300
1-1/2" = 1'-0"
140
1.5
141
12.0
290
     0
  0
SCALE
  5
66
102
{ACAD_REACTORS
330
47
102
}
330
47
100
AcDbScale
 70
     0
300
3" = 1'-0"
140
3.0
141
12.0
290
     0
  0
SCALE
  5
67
102
{ACAD_REACTORS
330
47
102
}
330
47
100
AcDbScale
 70
     0
300
6" = 1'-0"
140
6.0
141
12.0
290
     0
  0
SCALE
  5
68
102
{ACAD_REACTORS
330
47
102
}
330
47
100
AcDbScale
 70
     0
300
1'-0" = 1'-0"
140
12.0
141
12.0
290
     0
  0
TABLESTYLE
  5
6A
102
{ACAD_REACTORS
330
69
102
}
102
{ACAD_XDICTIONARY
360
476
102
}
330
69
100
AcDbTableStyle
  3
Standard
 70
     0
 71
     0
 40
0.06
 41
0.06
280
     0
281
     0
  7
Standard
140
4.5
170
     2
 62
     0
 63
   257
283
     0
 90
        4
 91
        0
  1

274
    -2
284
     1
 64
     0
275
    -2
285
     1
 65
     0
276
    -2
286
     1
 66
     0
277
    -2
287
     1
 67
     0
278
    -2
288
     1
 68
     0
279
    -2
289
     1
 69
     0
  7
Standard
140
6.0
170
     5
 62
     0
 63
   257
283
     0
 90
        4
 91
        0
  1

274
    -2
284
     1
 64
     0
275
    -2
285
     1
 65
     0
276
    -2
286
     1
 66
     0
277
    -2
287
     1
 67
     0
278
    -2
288
     1
 68
     0
279
    -2
289
     1
 69
     0
  7
Standard
140
4.5
170
     5
 62
     0
 63
   257
283
     0
 90
        4
 91
        0
  1

274
    -2
284
     1
 64
     0
275
    -2
285
     1
 65
     0
276
    -2
286
     1
 66
     0
277
    -2
287
     1
 67
     0
278
    -2
288
     1
 68
     0
279
    -2
289
     1
 69
     0
  0
VISUALSTYLE
  5
2F
102
{ACAD_REACTORS
330
2A
102
}
102
{ACAD_XDICTIONARY
360
44E
102
}
330
2A
100
AcDbVisualStyle
  2
2dWireframe
 70
     4
177
     2
291
     0
 71
     0
176
     1
 72
     2
176
     1
 73
     0
176
     1
 90
        0
176
     1
 40
0.6
176
     1
 41
30.0
176
     1
 62
     5
 63
     7
421
 16777215
176
     1
 74
     1
176
     1
 91
        4
176
     1
 64
     7
176
     1
 65
   257
176
     1
 75
     1
176
     1
175
     1
176
     1
 42
1.0
176
     1
 92
        0
176
     1
 66
   257
176
     1
 43
1.0
176
     1
 76
     1
176
     1
 77
     6
176
     1
 78
     2
176
     1
 67
     7
176
     1
 79
     5
176
     1
170
     0
176
     1
171
     0
176
     1
290
     0
176
     1
 93
        1
176
     1
 44
0.0
176
     1
173
     0
176
     1
  0
VISUALSTYLE
  5
32
102
{ACAD_REACTORS
330
2A
102
}
102
{ACAD_XDICTIONARY
360
454
102
}
330
2A
100
AcDbVisualStyle
  2
Basic
 70
     7
177
     2
291
     1
 71
     1
176
     1
 72
     0
176
     1
 73
     1
176
     1
 90
        0
176
     1
 40
0.6
176
     1
 41
30.0
176
     1
 62
     5
 63
     7
421
 16777215
176
     1
 74
     0
176
     1
 91
        4
176
     1
 64
     7
176
     1
 65
   257
176
     1
 75
     1
176
     1
175
     1
176
     1
 42
1.0
176
     1
 92
        8
176
     1
 66
     7
176
     1
 43
1.0
176
     1
 76
     1
176
     1
 77
     6
176
     1
 78
     2
176
     1
 67
     7
176
     1
 79
     5
176
     1
170
     0
176
     1
171
     0
176
     1
290
     0
176
     1
 93
        1
176
     1
 44
0.0
176
     1
173
     0
176
     1
  0
VISUALSTYLE
  5
36
102
{ACAD_REACTORS
330
2A
102
}
102
{ACAD_XDICTIONARY
360
45C
102
}
330
2A
100
AcDbVisualStyle
  2
Brighten
 70
    12
177
     2
291
     1
 71
     2
176
     1
 72
     2
176
     1
 73
     0
176
     1
 90
        0
176
     1
 40
0.6
176
     1
 41
30.0
176
     1
 62
     5
 63
     7
421
 16777215
176
     1
 74
     1
176
     1
 91
        4
176
     1
 64
     7
176
     1
 65
   257
176
     1
 75
     1
176
     1
175
     1
176
     1
 42
1.0
176
     1
 92
        8
176
     1
 66
     7
176
     1
 43
1.0
176
     1
 76
     1
176
     1
 77
     6
176
     1
 78
     2
176
     1
 67
     7
176
     1
 79
     5
176
     1
170
     0
176
     1
171
     0
176
     1
290
     0
176
     1
 93
        1
176
     1
 44
50.0
176
     1
173
     0
176
     1
  0
VISUALSTYLE
  5
3A
102
{ACAD_REACTORS
330
2A
102
}
102
{ACAD_XDICTIONARY
360
464
102
}
330
2A
100
AcDbVisualStyle
  2
ColorChange
 70
    16
177
     2
291
     1
 71
     2
176
     1
 72
     2
176
     1
 73
     3
176
     1
 90
        0
176
     1
 40
0.6
176
     1
 41
30.0
176
     1
 62
     5
 63
     8
421
  8421504
176
     1
 74
     1
176
     1
 91
        4
176
     1
 64
     7
176
     1
 65
   257
176
     1
 75
     1
176
     1
175
     1
176
     1
 42
1.0
176
     1
 92
        8
176
     1
 66
     8
424
  8421504
176
     1
 43
1.0
176
     1
 76
     1
176
     1
 77
     6
176
     1
 78
     2
176
     1
 67
     7
176
     1
 79
     5
176
     1
170
     0
176
     1
171
     0
176
     1
290
     0
176
     1
 93
        1
176
     1
 44
0.0
176
     1
173
     0
176
     1
  0
VISUALSTYLE
  5
34
102
{ACAD_REACTORS
330
2A
102
}
102
{ACAD_XDICTIONARY
360
458
102
}
330
2A
100
AcDbVisualStyle
  2
Conceptual
 70
     9
177
     2
291
     0
 71
     3
176
     1
 72
     2
176
     1
 73
     0
176
     1
 90
        0
176
     1
 40
0.6
176
     1
 41
30.0
176
     1
 62
     5
 63
     7
421
 16777215
176
     1
 74
     2
176
     1
 91
        2
176
     1
 64
     7
176
     1
 65
   257
176
     1
 75
     1
176
     1
175
     1
176
     1
 42
179.0
176
     1
 92
        8
176
     1
 66
     7
176
     1
 43
1.0
176
     1
 76
     1
176
     1
 77
     6
176
     1
 78
     2
176
     1
 67
     7
176
     1
 79
     3
176
     1
170
     0
176
     1
171
     0
176
     1
290
     0
176
     1
 93
        1
176
     1
 44
0.0
176
     1
173
     0
176
     1
  0
VISUALSTYLE
  5
35
102
{ACAD_REACTORS
330
2A
102
}
102
{ACAD_XDICTIONARY
360
45A
102
}
330
2A
100
AcDbVisualStyle
  2
Dim
 70
    11
177
     2
291
     1
 71
     2
176
     1
 72
     2
176
     1
 73
     0
176
     1
 90
        0
176
     1
 40
0.6
176
     1
 41
30.0
176
     1
 62
     5
 63
     7
421
 16777215
176
     1
 74
     1
176
     1
 91
        4
176
     1
 64
     7
176
     1
 65
   257
176
     1
 75
     1
176
     1
175
     1
176
     1
 42
1.0
176
     1
 92
        8
176
     1
 66
     7
176
     1
 43
1.0
176
     1
 76
     1
176
     1
 77
     6
176
     1
 78
     2
176
     1
 67
     7
176
     1
 79
     5
176
     1
170
     0
176
     1
171
     0
176
     1
290
     0
176
     1
 93
        1
176
     1
 44
-50.0
176
     1
173
     0
176
     1
  0
VISUALSTYLE
  5
3D
102
{ACAD_REACTORS
330
2A
102
}
102
{ACAD_XDICTIONARY
360
46A
102
}
330
2A
100
AcDbVisualStyle
  2
EdgeColorOff
 70
    22
177
     2
291
     1
 71
     2
176
     0
 72
     2
176
     0
 73
     0
176
     0
 90
        0
176
     0
 40
0.6
176
     0
 41
30.0
176
     0
 62
     5
 63
     7
421
 16777215
176
     0
 74
     1
176
     0
 91
        4
176
     0
 64
     7
176
     0
 65
   257
176
     0
 75
     1
176
     0
175
     1
176
     0
 42
1.0
176
     0
 92
        8
176
     2
 66
     7
176
     0
 43
1.0
176
     0
 76
     1
176
     0
 77
     6
176
     0
 78
     2
176
     0
 67
     7
176
     0
 79
     5
176
     0
170
     0
176
     0
171
     0
176
     0
290
     0
176
     0
 93
        1
176
     0
 44
0.0
176
     0
173
     0
176
     0
  0
VISUALSTYLE
  5
39
102
{ACAD_REACTORS
330
2A
102
}
102
{ACAD_XDICTIONARY
360
462
102
}
330
2A
100
AcDbVisualStyle
  2
Facepattern
 70
    15
177
     2
291
     1
 71
     2
176
     1
 72
     2
176
     1
 73
     0
176
     1
 90
        0
176
     1
 40
0.6
176
     1
 41
30.0
176
     1
 62
     5
 63
     7
421
 16777215
176
     1
 74
     1
176
     1
 91
        4
176
     1
 64
     7
176
     1
 65
   257
176
     1
 75
     1
176
     1
175
     1
176
     1
 42
1.0
176
     1
 92
        8
176
     1
 66
     7
176
     1
 43
1.0
176
     1
 76
     1
176
     1
 77
     6
176
     1
 78
     2
176
     1
 67
     7
176
     1
 79
     5
176
     1
170
     0
176
     1
171
     0
176
     1
290
     0
176
     1
 93
        1
176
     1
 44
0.0
176
     1
173
     0
176
     1
  0
VISUALSTYLE
  5
2B
102
{ACAD_REACTORS
330
2A
102
}
102
{ACAD_XDICTIONARY
360
446
102
}
330
2A
100
AcDbVisualStyle
  2
Flat
 70
     0
177
     2
291
     1
 71
     2
176
     1
 72
     1
176
     1
 73
     1
176
     1
 90
        2
176
     1
 40
0.6
176
     1
 41
30.0
176
     1
 62
     5
 63
     7
421
 16777215
176
     1
 74
     0
176
     1
 91
        0
176
     1
 64
     7
176
     1
 65
   257
176
     1
 75
     1
176
     1
175
     1
176
     1
 42
1.0
176
     1
 92
        8
176
     1
 66
     7
176
     1
 43
1.0
176
     1
 76
     1
176
     1
 77
     6
176
     1
 78
     2
176
     1
 67
     7
176
     1
 79
     5
176
     1
170
     0
176
     1
171
     0
176
     1
290
     0
176
     1
 93
       13
176
     1
 44
0.0
176
     1
173
     0
176
     1
  0
VISUALSTYLE
  5
2C
102
{ACAD_REACTORS
330
2A
102
}
102
{ACAD_XDICTIONARY
360
448
102
}
330
2A
100
AcDbVisualStyle
  2
FlatWithEdges
 70
     1
177
     2
291
     1
 71
     2
176
     1
 72
     1
176
     1
 73
     1
176
     1
 90
        2
176
     1
 40
0.6
176
     1
 41
30.0
176
     1
 62
     5
 63
     7
421
 16777215
176
     1
 74
     1
176
     1
 91
        0
176
     1
 64
     7
176
     1
 65
   257
176
     1
 75
     1
176
     1
175
     1
176
     1
 42
1.0
176
     1
 92
        0
176
     1
 66
   257
176
     1
 43
1.0
176
     1
 76
     1
176
     1
 77
     6
176
     1
 78
     2
176
     1
 67
     7
176
     1
 79
     5
176
     1
170
     0
176
     1
171
     0
176
     1
290
     0
176
     1
 93
       13
176
     1
 44
0.0
176
     1
173
     0
176
     1
  0
VISUALSTYLE
  5
2D
102
{ACAD_REACTORS
330
2A
102
}
102
{ACAD_XDICTIONARY
360
44A
102
}
330
2A
100
AcDbVisualStyle
  2
Gouraud
 70
     2
177
     2
291
     1
 71
     2
176
     1
 72
     2
176
     1
 73
     1
176
     1
 90
        2
176
     1
 40
0.6
176
     1
 41
30.0
176
     1
 62
     5
 63
     7
421
 16777215
176
     1
 74
     0
176
     1
 91
        0
176
     1
 64
     7
176
     1
 65
   257
176
     1
 75
     1
176
     1
175
     1
176
     1
 42
1.0
176
     1
 92
        0
176
     1
 66
     7
176
     1
 43
1.0
176
     1
 76
     1
176
     1
 77
     6
176
     1
 78
     2
176
     1
 67
     7
176
     1
 79
     5
176
     1
170
     0
176
     1
171
     0
176
     1
290
     0
176
     1
 93
       13
176
     1
 44
0.0
176
     1
173
     0
176
     1
  0
VISUALSTYLE
  5
2E
102
{ACAD_REACTORS
330
2A
102
}
102
{ACAD_XDICTIONARY
360
44C
102
}
330
2A
100
AcDbVisualStyle
  2
GouraudWithEdges
 70
     3
177
     2
291
     1
 71
     2
176
     1
 72
     2
176
     1
 73
     1
176
     1
 90
        2
176
     1
 40
0.6
176
     1
 41
30.0
176
     1
 62
     5
 63
     7
421
 16777215
176
     1
 74
     1
176
     1
 91
        0
176
     1
 64
     7
176
     1
 65
   257
176
     1
 75
     1
176
     1
175
     1
176
     1
 42
1.0
176
     1
 92
        0
176
     1
 66
   257
176
     1
 43
1.0
176
     1
 76
     1
176
     1
 77
     6
176
     1
 78
     2
176
     1
 67
     7
176
     1
 79
     5
176
     1
170
     0
176
     1
171
     0
176
     1
290
     0
176
     1
 93
       13
176
     1
 44
0.0
176
     1
173
     0
176
     1
  0
VISUALSTYLE
  5
31
102
{ACAD_REACTORS
330
2A
102
}
102
{ACAD_XDICTIONARY
360
452
102
}
330
2A
100
AcDbVisualStyle
  2
Hidden
 70
     6
177
     2
291
     0
 71
     1
176
     1
 72
     2
176
     1
 73
     2
176
     1
 90
        0
176
     1
 40
0.6
176
     1
 41
30.0
176
     1
 62
     5
 63
     7
421
 16777215
176
     1
 74
     2
176
     1
 91
        2
176
     1
 64
     7
176
     1
 65
   257
176
     1
 75
     2
176
     1
175
     1
176
     1
 42
40.0
176
     1
 92
        0
176
     1
 66
   257
176
     1
 43
1.0
176
     1
 76
     1
176
     1
 77
     6
176
     1
 78
     2
176
     1
 67
     7
176
     1
 79
     3
176
     1
170
     0
176
     1
171
     0
176
     1
290
     0
176
     1
 93
        1
176
     1
 44
0.0
176
     1
173
     0
176
     1
  0
VISUALSTYLE
  5
3B
102
{ACAD_REACTORS
330
2A
102
}
102
{ACAD_XDICTIONARY
360
466
102
}
330
2A
100
AcDbVisualStyle
  2
JitterOff
 70
    20
177
     2
291
     1
 71
     2
176
     0
 72
     2
176
     0
 73
     0
176
     0
 90
        0
176
     0
 40
0.6
176
     0
 41
30.0
176
     0
 62
     5
 63
     7
421
 16777215
176
     0
 74
     1
176
     0
 91
        4
176
     0
 64
     7
176
     0
 65
   257
176
     0
 75
     1
176
     0
175
     1
176
     0
 42
1.0
176
     0
 92
       10
176
     2
 66
     7
176
     0
 43
1.0
176
     0
 76
     1
176
     0
 77
     6
176
     0
 78
     2
176
     0
 67
     7
176
     0
 79
     5
176
     0
170
     0
176
     0
171
     0
176
     0
290
     0
176
     0
 93
        1
176
     0
 44
0.0
176
     0
173
     0
176
     0
  0
VISUALSTYLE
  5
38
102
{ACAD_REACTORS
330
2A
102
}
102
{ACAD_XDICTIONARY
360
460
102
}
330
2A
100
AcDbVisualStyle
  2
Linepattern
 70
    14
177
     2
291
     1
 71
     2
176
     1
 72
     2
176
     1
 73
     0
176
     1
 90
        0
176
     1
 40
0.6
176
     1
 41
30.0
176
     1
 62
     5
 63
     7
421
 16777215
176
     1
 74
     1
176
     1
 91
        4
176
     1
 64
     7
176
     1
 65
   257
176
     1
 75
     7
176
     1
175
     7
176
     1
 42
1.0
176
     1
 92
        8
176
     1
 66
     7
176
     1
 43
1.0
176
     1
 76
     1
176
     1
 77
     6
176
     1
 78
     2
176
     1
 67
     7
176
     1
 79
     5
176
     1
170
     0
176
     1
171
     0
176
     1
290
     0
176
     1
 93
        1
176
     1
 44
0.0
176
     1
173
     0
176
     1
  0
VISUALSTYLE
  5
3C
102
{ACAD_REACTORS
330
2A
102
}
102
{ACAD_XDICTIONARY
360
468
102
}
330
2A
100
AcDbVisualStyle
  2
OverhangOff
 70
    21
177
     2
291
     1
 71
     2
176
     0
 72
     2
176
     0
 73
     0
176
     0
 90
        0
176
     0
 40
0.6
176
     0
 41
30.0
176
     0
 62
     5
 63
     7
421
 16777215
176
     0
 74
     1
176
     0
 91
        4
176
     0
 64
     7
176
     0
 65
   257
176
     0
 75
     1
176
     0
175
     1
176
     0
 42
1.0
176
     0
 92
        9
176
     2
 66
     7
176
     0
 43
1.0
176
     0
 76
     1
176
     0
 77
     6
176
     0
 78
     2
176
     0
 67
     7
176
     0
 79
     5
176
     0
170
     0
176
     0
171
     0
176
     0
290
     0
176
     0
 93
        1
176
     0
 44
0.0
176
     0
173
     0
176
     0
  0
VISUALSTYLE
  5
33
102
{ACAD_REACTORS
330
2A
102
}
102
{ACAD_XDICTIONARY
360
456
102
}
330
2A
100
AcDbVisualStyle
  2
Realistic
 70
     8
177
     2
291
     0
 71
     2
176
     1
 72
     3
176
     1
 73
     0
176
     1
 90
        2
176
     1
 40
0.6
176
     1
 41
30.0
176
     1
 62
     5
 63
     7
421
 16777215
176
     1
 74
     0
176
     1
 91
        0
176
     1
 64
     7
176
     1
 65
   257
176
     1
 75
     1
176
     1
175
     1
176
     1
 42
1.0
176
     1
 92
        8
176
     1
 66
   257
176
     1
 43
1.0
176
     1
 76
     1
176
     1
 77
     6
176
     1
 78
     2
176
     1
 67
     7
176
     1
 79
     3
176
     1
170
     0
176
     1
171
     0
176
     1
290
     0
176
     1
 93
       13
176
     1
 44
0.0
176
     1
173
     0
176
     1
  0
VISUALSTYLE
  5
42
102
{ACAD_REACTORS
330
2A
102
}
102
{ACAD_XDICTIONARY
360
474
102
}
330
2A
100
AcDbVisualStyle
  2
Shaded
 70
    27
177
     2
291
     0
 71
     2
176
     1
 72
     2
176
     1
 73
     1
176
     1
 90
        2
176
     1
 40
0.6
176
     1
 41
30.0
176
     1
 62
     5
 63
     7
421
 16777215
176
     1
 74
     0
176
     1
 91
        4
176
     1
 64
     7
176
     1
 65
   257
176
     1
 75
     1
176
     1
175
     1
176
     1
 42
1.0
176
     1
 92
        8
176
     1
 66
   257
176
     1
 43
1.0
176
     1
 76
     1
176
     1
 77
     6
176
     1
 78
     2
176
     1
 67
     8
425
  7895160
176
     1
 79
     3
176
     1
170
     0
176
     1
171
     0
176
     1
290
     0
176
     1
 93
        5
176
     1
 44
0.0
176
     1
173
     0
176
     1
  0
VISUALSTYLE
  5
41
102
{ACAD_REACTORS
330
2A
102
}
102
{ACAD_XDICTIONARY
360
472
102
}
330
2A
100
AcDbVisualStyle
  2
Shaded with edges
 70
    26
177
     2
291
     0
 71
     2
176
     1
 72
     2
176
     1
 73
     1
176
     1
 90
        2
176
     1
 40
0.6
176
     1
 41
30.0
176
     1
 62
     5
 63
     7
421
 16777215
176
     1
 74
     1
176
     1
 91
       10
176
     1
 64
     7
176
     1
 65
   257
176
     1
 75
     2
176
     1
175
     1
176
     1
 42
1.0
176
     1
 92
        8
176
     1
 66
   257
176
     1
 43
1.0
176
     1
 76
     1
176
     1
 77
     6
176
     1
 78
     2
176
     1
 67
     7
176
     1
 79
     3
176
     1
170
     0
176
     1
171
     0
176
     1
290
     0
176
     1
 93
        5
176
     1
 44
0.0
176
     1
173
     0
176
     1
  0
VISUALSTYLE
  5
3E
102
{ACAD_REACTORS
330
2A
102
}
102
{ACAD_XDICTIONARY
360
46C
102
}
330
2A
100
AcDbVisualStyle
  2
Shades of Gray
 70
    23
177
     2
291
     0
 71
     2
176
     1
 72
     2
176
     1
 73
     3
176
     1
 90
        0
176
     1
 40
0.6
176
     1
 41
30.0
176
     1
 62
     5
 63
     7
421
 16777215
176
     1
 74
     2
176
     1
 91
        2
176
     1
 64
     7
176
     1
 65
     7
176
     1
 75
     1
176
     1
175
     1
176
     1
 42
40.0
176
     1
 92
        8
176
     1
 66
     7
176
     1
 43
1.0
176
     1
 76
     1
176
     1
 77
     6
176
     1
 78
     2
176
     1
 67
     7
176
     1
 79
     3
176
     1
170
     0
176
     1
171
     0
176
     1
290
     0
176
     1
 93
        1
176
     1
 44
0.0
176
     1
173
     0
176
     1
  0
VISUALSTYLE
  5
3F
102
{ACAD_REACTORS
330
2A
102
}
102
{ACAD_XDICTIONARY
360
46E
102
}
330
2A
100
AcDbVisualStyle
  2
Sketchy
 70
    24
177
     2
291
     0
 71
     1
176
     1
 72
     2
176
     1
 73
     2
176
     1
 90
        0
176
     1
 40
0.6
176
     1
 41
30.0
176
     1
 62
     5
 63
     7
421
 16777215
176
     1
 74
     2
176
     1
 91
        2
176
     1
 64
     7
176
     1
 65
     7
176
     1
 75
     1
176
     1
175
     1
176
     1
 42
40.0
176
     1
 92
       11
176
     1
 66
     7
176
     1
 43
1.0
176
     1
 76
     1
176
     1
 77
     6
176
     1
 78
     2
176
     1
 67
     7
176
     1
 79
     6
176
     1
170
     0
176
     1
171
     0
176
     1
290
     0
176
     1
 93
        1
176
     1
 44
0.0
176
     1
173
     0
176
     1
  0
VISUALSTYLE
  5
37
102
{ACAD_REACTORS
330
2A
102
}
102
{ACAD_XDICTIONARY
360
45E
102
}
330
2A
100
AcDbVisualStyle
  2
Thicken
 70
    13
177
     2
291
     1
 71
     2
176
     1
 72
     2
176
     1
 73
     0
176
     1
 90
        0
176
     1
 40
0.6
176
     1
 41
30.0
176
     1
 62
     5
 63
     7
421
 16777215
176
     1
 74
     1
176
     1
 91
        4
176
     1
 64
     7
176
     1
 65
   257
176
     1
 75
     1
176
     1
175
     1
176
     1
 42
1.0
176
     1
 92
       12
176
     1
 66
     7
176
     1
 43
1.0
176
     1
 76
     1
176
     1
 77
     6
176
     1
 78
     2
176
     1
 67
     7
176
     1
 79
     5
176
     1
170
     0
176
     1
171
     0
176
     1
290
     0
176
     1
 93
        1
176
     1
 44
0.0
176
     1
173
     0
176
     1
  0
VISUALSTYLE
  5
30
102
{ACAD_REACTORS
330
2A
102
}
102
{ACAD_XDICTIONARY
360
450
102
}
330
2A
100
AcDbVisualStyle
  2
Wireframe
 70
     5
177
     2
291
     0
 71
     0
176
     1
 72
     2
176
     1
 73
     0
176
     1
 90
        0
176
     1
 40
0.6
176
     1
 41
30.0
176
     1
 62
     5
 63
     7
421
 16777215
176
     1
 74
     1
176
     1
 91
        4
176
     1
 64
     7
176
     1
 65
   257
176
     1
 75
     1
176
     1
175
     1
176
     1
 42
1.0
176
     1
 92
        0
176
     1
 66
   257
176
     1
 43
1.0
176
     1
 76
     1
176
     1
 77
     6
176
     1
 78
     2
176
     1
 67
     7
176
     1
 79
     3
176
     1
170
     0
176
     1
171
     0
176
     1
290
     0
176
     1
 93
        1
176
     1
 44
0.0
176
     1
173
     0
176
     1
  0
VISUALSTYLE
  5
40
102
{ACAD_REACTORS
330
2A
102
}
102
{ACAD_XDICTIONARY
360
470
102
}
330
2A
100
AcDbVisualStyle
  2
X-Ray
 70
    25
177
     2
291
     0
 71
     2
176
     1
 72
     2
176
     1
 73
     1
176
     1
 90
        1
176
     1
 40
0.5
176
     1
 41
30.0
176
     1
 62
     5
 63
     7
421
 16777215
176
     1
 74
     1
176
     1
 91
        0
176
     1
 64
     7
176
     1
 65
   257
176
     1
 75
     1
176
     1
175
     1
176
     1
 42
1.0
176
     1
 92
        8
176
     1
 66
     7
176
     1
 43
1.0
176
     1
 76
     1
176
     1
 77
     6
176
     1
 78
     2
176
     1
 67
     7
176
     1
 79
     3
176
     1
170
     0
176
     1
171
     0
176
     1
290
     0
176
     1
 93
       13
176
     1
 44
0.0
176
     1
173
     0
176
     1
  0
DICTIONARYVAR
  5
445
102
{ACAD_REACTORS
330
444
102
}
330
444
100
DictionaryVariables
280
     0
  1
1:1
  0
DICTIONARYVAR
  5
47D
102
{ACAD_REACTORS
330
444
102
}
330
444
100
DictionaryVariables
280
     0
  1
3.500000
  0
DICTIONARYVAR
  5
47E
102
{ACAD_REACTORS
330
444
102
}
330
444
100
DictionaryVariables
280
     0
  1
acadiso.lin
  0
DICTIONARYVAR
  5
47A
102
{ACAD_REACTORS
330
444
102
}
330
444
100
DictionaryVariables
280
     0
  1
Standard
  0
DICTIONARYVAR
  5
479
102
{ACAD_REACTORS
330
444
102
}
330
444
100
DictionaryVariables
280
     0
  1
Standard
  0
DICTIONARY
  5
476
330
6A
100
AcDbDictionary
280
     1
281
     1
  3
ACAD_ROUNDTRIP_2008_TABLESTYLE_CELLSTYLEMAP
360
477
  0
DICTIONARY
  5
44E
330
2F
100
AcDbDictionary
280
     1
281
     1
  3
ACAD_XREC_ROUNDTRIP
360
44F
  0
DICTIONARY
  5
454
330
32
100
AcDbDictionary
280
     1
281
     1
  3
ACAD_XREC_ROUNDTRIP
360
455
  0
DICTIONARY
  5
45C
330
36
100
AcDbDictionary
280
     1
281
     1
  3
ACAD_XREC_ROUNDTRIP
360
45D
  0
DICTIONARY
  5
464
330
3A
100
AcDbDictionary
280
     1
281
     1
  3
ACAD_XREC_ROUNDTRIP
360
465
  0
DICTIONARY
  5
458
330
34
100
AcDbDictionary
280
     1
281
     1
  3
ACAD_XREC_ROUNDTRIP
360
459
  0
DICTIONARY
  5
45A
330
35
100
AcDbDictionary
280
     1
281
     1
  3
ACAD_XREC_ROUNDTRIP
360
45B
  0
DICTIONARY
  5
46A
330
3D
100
AcDbDictionary
280
     1
281
     1
  3
ACAD_XREC_ROUNDTRIP
360
46B
  0
DICTIONARY
  5
462
330
39
100
AcDbDictionary
280
     1
281
     1
  3
ACAD_XREC_ROUNDTRIP
360
463
  0
DICTIONARY
  5
446
330
2B
100
AcDbDictionary
280
     1
281
     1
  3
ACAD_XREC_ROUNDTRIP
360
447
  0
DICTIONARY
  5
448
330
2C
100
AcDbDictionary
280
     1
281
     1
  3
ACAD_XREC_ROUNDTRIP
360
449
  0
DICTIONARY
  5
44A
330
2D
100
AcDbDictionary
280
     1
281
     1
  3
ACAD_XREC_ROUNDTRIP
360
44B
  0
DICTIONARY
  5
44C
330
2E
100
AcDbDictionary
280
     1
281
     1
  3
ACAD_XREC_ROUNDTRIP
360
44D
  0
DICTIONARY
  5
452
330
31
100
AcDbDictionary
280
     1
281
     1
  3
ACAD_XREC_ROUNDTRIP
360
453
  0
DICTIONARY
  5
466
330
3B
100
AcDbDictionary
280
     1
281
     1
  3
ACAD_XREC_ROUNDTRIP
360
467
  0
DICTIONARY
  5
460
330
38
100
AcDbDictionary
280
     1
281
     1
  3
ACAD_XREC_ROUNDTRIP
360
461
  0
DICTIONARY
  5
468
330
3C
100
AcDbDictionary
280
     1
281
     1
  3
ACAD_XREC_ROUNDTRIP
360
469
  0
DICTIONARY
  5
456
330
33
100
AcDbDictionary
280
     1
281
     1
  3
ACAD_XREC_ROUNDTRIP
360
457
  0
DICTIONARY
  5
474
330
42
100
AcDbDictionary
280
     1
281
     1
  3
ACAD_XREC_ROUNDTRIP
360
475
  0
DICTIONARY
  5
472
330
41
100
AcDbDictionary
280
     1
281
     1
  3
ACAD_XREC_ROUNDTRIP
360
473
  0
DICTIONARY
  5
46C
330
3E
100
AcDbDictionary
280
     1
281
     1
  3
ACAD_XREC_ROUNDTRIP
360
46D
  0
DICTIONARY
  5
46E
330
3F
100
AcDbDictionary
280
     1
281
     1
  3
ACAD_XREC_ROUNDTRIP
360
46F
  0
DICTIONARY
  5
45E
330
37
100
AcDbDictionary
280
     1
281
     1
  3
ACAD_XREC_ROUNDTRIP
360
45F
  0
DICTIONARY
  5
450
330
30
100
AcDbDictionary
280
     1
281
     1
  3
ACAD_XREC_ROUNDTRIP
360
451
  0
DICTIONARY
  5
470
330
40
100
AcDbDictionary
280
     1
281
     1
  3
ACAD_XREC_ROUNDTRIP
360
471
  0
CELLSTYLEMAP
  5
477
102
{ACAD_REACTORS
330
476
102
}
330
476
100
AcDbCellStyleMap
 90
        3
300
CELLSTYLE
  1
TABLEFORMAT_BEGIN
 90
        5
170
     1
 91
        0
 92
    32768
 62
   257
 93
        1
300
CONTENTFORMAT
  1
CONTENTFORMAT_BEGIN
 90
        0
 91
        0
 92
        4
 93
        0
300

 40
0.0
140
1.0
 94
        5
 62
     0
340
11
144
6.0
309
CONTENTFORMAT_END
171
     1
301
MARGIN
  1
CELLMARGIN_BEGIN
 40
1.5
 40
1.5
 40
1.5
 40
1.5
 40
1.5
 40
1.5
309
CELLMARGIN_END
 94
        6
 95
        1
302
GRIDFORMAT
  1
GRIDFORMAT_BEGIN
 90
        0
 91
        1
 62
     0
 92
       -2
340
14
 93
        0
 40
0.045
309
GRIDFORMAT_END
 95
        2
302
GRIDFORMAT
  1
GRIDFORMAT_BEGIN
 90
        0
 91
        1
 62
     0
 92
       -2
340
14
 93
        0
 40
0.045
309
GRIDFORMAT_END
 95
        4
302
GRIDFORMAT
  1
GRIDFORMAT_BEGIN
 90
        0
 91
        1
 62
     0
 92
       -2
340
14
 93
        0
 40
0.045
309
GRIDFORMAT_END
 95
        8
302
GRIDFORMAT
  1
GRIDFORMAT_BEGIN
 90
        0
 91
        1
 62
     0
 92
       -2
340
14
 93
        0
 40
0.045
309
GRIDFORMAT_END
 95
       16
302
GRIDFORMAT
  1
GRIDFORMAT_BEGIN
 90
        0
 91
        1
 62
     0
 92
       -2
340
14
 93
        0
 40
0.045
309
GRIDFORMAT_END
 95
       32
302
GRIDFORMAT
  1
GRIDFORMAT_BEGIN
 90
        0
 91
        1
 62
     0
 92
       -2
340
14
 93
        0
 40
0.045
309
GRIDFORMAT_END
309
TABLEFORMAT_END
  1
CELLSTYLE_BEGIN
 90
        1
 91
        1
300
_TITLE
309
CELLSTYLE_END
300
CELLSTYLE
  1
TABLEFORMAT_BEGIN
 90
        5
170
     1
 91
        0
 92
        0
 62
   257
 93
        1
300
CONTENTFORMAT
  1
CONTENTFORMAT_BEGIN
 90
        0
 91
        0
 92
        4
 93
        0
300

 40
0.0
140
1.0
 94
        5
 62
     0
340
11
144
4.5
309
CONTENTFORMAT_END
171
     1
301
MARGIN
  1
CELLMARGIN_BEGIN
 40
1.5
 40
1.5
 40
1.5
 40
1.5
 40
1.5
 40
1.5
309
CELLMARGIN_END
 94
        6
 95
        1
302
GRIDFORMAT
  1
GRIDFORMAT_BEGIN
 90
        0
 91
        1
 62
     0
 92
       -2
340
14
 93
        0
 40
0.045
309
GRIDFORMAT_END
 95
        2
302
GRIDFORMAT
  1
GRIDFORMAT_BEGIN
 90
        0
 91
        1
 62
     0
 92
       -2
340
14
 93
        0
 40
0.045
309
GRIDFORMAT_END
 95
        4
302
GRIDFORMAT
  1
GRIDFORMAT_BEGIN
 90
        0
 91
        1
 62
     0
 92
       -2
340
14
 93
        0
 40
0.045
309
GRIDFORMAT_END
 95
        8
302
GRIDFORMAT
  1
GRIDFORMAT_BEGIN
 90
        0
 91
        1
 62
     0
 92
       -2
340
14
 93
        0
 40
0.045
309
GRIDFORMAT_END
 95
       16
302
GRIDFORMAT
  1
GRIDFORMAT_BEGIN
 90
        0
 91
        1
 62
     0
 92
       -2
340
14
 93
        0
 40
0.045
309
GRIDFORMAT_END
 95
       32
302
GRIDFORMAT
  1
GRIDFORMAT_BEGIN
 90
        0
 91
        1
 62
     0
 92
       -2
340
14
 93
        0
 40
0.045
309
GRIDFORMAT_END
309
TABLEFORMAT_END
  1
CELLSTYLE_BEGIN
 90
        2
 91
        1
300
_HEADER
309
CELLSTYLE_END
300
CELLSTYLE
  1
TABLEFORMAT_BEGIN
 90
        5
170
     1
 91
        0
 92
        0
 62
   257
 93
        1
300
CONTENTFORMAT
  1
CONTENTFORMAT_BEGIN
 90
        0
 91
        0
 92
        4
 93
        0
300

 40
0.0
140
1.0
 94
        2
 62
     0
340
11
144
4.5
309
CONTENTFORMAT_END
171
     1
301
MARGIN
  1
CELLMARGIN_BEGIN
 40
1.5
 40
1.5
 40
1.5
 40
1.5
 40
1.5
 40
1.5
309
CELLMARGIN_END
 94
        6
 95
        1
302
GRIDFORMAT
  1
GRIDFORMAT_BEGIN
 90
        0
 91
        1
 62
     0
 92
       -2
340
14
 93
        0
 40
0.045
309
GRIDFORMAT_END
 95
        2
302
GRIDFORMAT
  1
GRIDFORMAT_BEGIN
 90
        0
 91
        1
 62
     0
 92
       -2
340
14
 93
        0
 40
0.045
309
GRIDFORMAT_END
 95
        4
302
GRIDFORMAT
  1
GRIDFORMAT_BEGIN
 90
        0
 91
        1
 62
     0
 92
       -2
340
14
 93
        0
 40
0.045
309
GRIDFORMAT_END
 95
        8
302
GRIDFORMAT
  1
GRIDFORMAT_BEGIN
 90
        0
 91
        1
 62
     0
 92
       -2
340
14
 93
        0
 40
0.045
309
GRIDFORMAT_END
 95
       16
302
GRIDFORMAT
  1
GRIDFORMAT_BEGIN
 90
        0
 91
        1
 62
     0
 92
       -2
340
14
 93
        0
 40
0.045
309
GRIDFORMAT_END
 95
       32
302
GRIDFORMAT
  1
GRIDFORMAT_BEGIN
 90
        0
 91
        1
 62
     0
 92
       -2
340
14
 93
        0
 40
0.045
309
GRIDFORMAT_END
309
TABLEFORMAT_END
  1
CELLSTYLE_BEGIN
 90
        3
 91
        2
300
_DATA
309
CELLSTYLE_END
  0
XRECORD
  5
44F
102
{ACAD_REACTORS
330
44E
102
}
330
44E
100
AcDbXrecord
280
     1
102
RTVSPost2010Prop28
280
     1
102
RTVSPost2010PropOp28
 70
     1
102
RTVSPost2010Prop29
280
     1
102
RTVSPost2010PropOp29
 70
     1
102
RTVSPost2010Prop30
280
     0
102
RTVSPost2010PropOp30
 70
     1
102
RTVSPost2010Prop31
280
     0
102
RTVSPost2010PropOp31
 70
     1
102
RTVSPost2010Prop32
280
     0
102
RTVSPost2010PropOp32
 70
     1
102
RTVSPost2010Prop33
280
     0
102
RTVSPost2010PropOp33
 70
     1
102
RTVSPost2010Prop34
280
     0
102
RTVSPost2010PropOp34
 70
     1
102
RTVSPost2010Prop35
280
     0
102
RTVSPost2010PropOp35
 70
     1
102
RTVSPost2010Prop36
280
     0
102
RTVSPost2010PropOp36
 70
     1
102
RTVSPost2010Prop37
 90
       50
102
RTVSPost2010PropOp37
 70
     1
102
RTVSPost2010Prop38
140
0.0
102
RTVSPost2010PropOp38
 70
     1
102
RTVSPost2010Prop39
140
1.0
102
RTVSPost2010PropOp39
 70
     1
102
RTVSPost2010Prop40
 90
        0
102
RTVSPost2010PropOp40
 70
     1
102
RTVSPost2010Prop41ColorIndex
 90
       18
102
RTVSPost2010Prop41ColorRGB
 90
        0
102
RTVSPost2010PropOp41
 70
     1
102
RTVSPost2010Prop42
 90
       50
102
RTVSPost2010PropOp42
 70
     1
102
RTVSPost2010Prop43
 90
        3
102
RTVSPost2010PropOp43
 70
     1
102
RTVSPost2010Prop44ColorIndex
 90
        5
102
RTVSPost2010Prop44ColorRGB
 90
      255
102
RTVSPost2010PropOp44
 70
     1
102
RTVSPost2010Prop45
280
     0
102
RTVSPost2010PropOp45
 70
     1
102
RTVSPost2010Prop46
 90
       50
102
RTVSPost2010PropOp46
 70
     1
102
RTVSPost2010Prop47
 90
       50
102
RTVSPost2010PropOp47
 70
     1
102
RTVSPost2010Prop48
 90
       50
102
RTVSPost2010PropOp48
 70
     1
102
RTVSPost2010Prop49
280
     0
102
RTVSPost2010PropOp49
 70
     1
102
RTVSPost2010Prop50
 90
       50
102
RTVSPost2010PropOp50
 70
     1
102
RTVSPost2010Prop51ColorIndex
 90
      256
102
RTVSPost2010Prop51ColorRGB
 90
-16777216
102
RTVSPost2010PropOp51
 70
     0
102
RTVSPost2010Prop52
140
1.0
102
RTVSPost2010PropOp52
 70
     0
102
RTVSPost2010Prop53
 90
        2
102
RTVSPost2010PropOp53
 70
     1
102
RTVSPost2010Prop54
  1
strokes_ogs.tif
102
RTVSPost2010PropOp54
 70
     1
102
RTVSPost2010Prop55
280
     0
102
RTVSPost2010PropOp55
 70
     1
102
RTVSPost2010Prop56
140
1.0
102
RTVSPost2010PropOp56
 70
     1
102
RTVSPost2010Prop57
140
1.0
102
RTVSPost2010PropOp57
 70
     1
  0
XRECORD
  5
455
102
{ACAD_REACTORS
330
454
102
}
330
454
100
AcDbXrecord
280
     1
102
RTVSPost2010Prop28
280
     0
102
RTVSPost2010PropOp28
 70
     1
102
RTVSPost2010Prop29
280
     1
102
RTVSPost2010PropOp29
 70
     1
102
RTVSPost2010Prop30
280
     1
102
RTVSPost2010PropOp30
 70
     1
102
RTVSPost2010Prop31
280
     0
102
RTVSPost2010PropOp31
 70
     1
102
RTVSPost2010Prop32
280
     0
102
RTVSPost2010PropOp32
 70
     1
102
RTVSPost2010Prop33
280
     0
102
RTVSPost2010PropOp33
 70
     1
102
RTVSPost2010Prop34
280
     0
102
RTVSPost2010PropOp34
 70
     1
102
RTVSPost2010Prop35
280
     0
102
RTVSPost2010PropOp35
 70
     1
102
RTVSPost2010Prop36
280
     0
102
RTVSPost2010PropOp36
 70
     1
102
RTVSPost2010Prop37
 90
       50
102
RTVSPost2010PropOp37
 70
     1
102
RTVSPost2010Prop38
140
0.0
102
RTVSPost2010PropOp38
 70
     1
102
RTVSPost2010Prop39
140
1.0
102
RTVSPost2010PropOp39
 70
     1
102
RTVSPost2010Prop40
 90
        0
102
RTVSPost2010PropOp40
 70
     1
102
RTVSPost2010Prop41ColorIndex
 90
       18
102
RTVSPost2010Prop41ColorRGB
 90
        0
102
RTVSPost2010PropOp41
 70
     1
102
RTVSPost2010Prop42
 90
       50
102
RTVSPost2010PropOp42
 70
     1
102
RTVSPost2010Prop43
 90
        3
102
RTVSPost2010PropOp43
 70
     1
102
RTVSPost2010Prop44ColorIndex
 90
        5
102
RTVSPost2010Prop44ColorRGB
 90
      255
102
RTVSPost2010PropOp44
 70
     1
102
RTVSPost2010Prop45
280
     0
102
RTVSPost2010PropOp45
 70
     1
102
RTVSPost2010Prop46
 90
       50
102
RTVSPost2010PropOp46
 70
     1
102
RTVSPost2010Prop47
 90
       50
102
RTVSPost2010PropOp47
 70
     1
102
RTVSPost2010Prop48
 90
       50
102
RTVSPost2010PropOp48
 70
     1
102
RTVSPost2010Prop49
280
     0
102
RTVSPost2010PropOp49
 70
     1
102
RTVSPost2010Prop50
 90
       50
102
RTVSPost2010PropOp50
 70
     1
102
RTVSPost2010Prop51ColorIndex
 90
      256
102
RTVSPost2010Prop51ColorRGB
 90
-16777216
102
RTVSPost2010PropOp51
 70
     0
102
RTVSPost2010Prop52
140
1.0
102
RTVSPost2010PropOp52
 70
     0
102
RTVSPost2010Prop53
 90
        2
102
RTVSPost2010PropOp53
 70
     1
102
RTVSPost2010Prop54
  1
strokes_ogs.tif
102
RTVSPost2010PropOp54
 70
     1
102
RTVSPost2010Prop55
280
     0
102
RTVSPost2010PropOp55
 70
     1
102
RTVSPost2010Prop56
140
1.0
102
RTVSPost2010PropOp56
 70
     1
102
RTVSPost2010Prop57
140
1.0
102
RTVSPost2010PropOp57
 70
     1
  0
XRECORD
  5
45D
102
{ACAD_REACTORS
330
45C
102
}
330
45C
100
AcDbXrecord
280
     1
102
RTVSPost2010Prop28
280
     0
102
RTVSPost2010PropOp28
 70
     1
102
RTVSPost2010Prop29
280
     1
102
RTVSPost2010PropOp29
 70
     1
102
RTVSPost2010Prop30
280
     1
102
RTVSPost2010PropOp30
 70
     1
102
RTVSPost2010Prop31
280
     0
102
RTVSPost2010PropOp31
 70
     1
102
RTVSPost2010Prop32
280
     0
102
RTVSPost2010PropOp32
 70
     1
102
RTVSPost2010Prop33
280
     0
102
RTVSPost2010PropOp33
 70
     1
102
RTVSPost2010Prop34
280
     0
102
RTVSPost2010PropOp34
 70
     1
102
RTVSPost2010Prop35
280
     0
102
RTVSPost2010PropOp35
 70
     1
102
RTVSPost2010Prop36
280
     0
102
RTVSPost2010PropOp36
 70
     1
102
RTVSPost2010Prop37
 90
       50
102
RTVSPost2010PropOp37
 70
     1
102
RTVSPost2010Prop38
140
0.0
102
RTVSPost2010PropOp38
 70
     1
102
RTVSPost2010Prop39
140
1.0
102
RTVSPost2010PropOp39
 70
     1
102
RTVSPost2010Prop40
 90
        0
102
RTVSPost2010PropOp40
 70
     1
102
RTVSPost2010Prop41ColorIndex
 90
       18
102
RTVSPost2010Prop41ColorRGB
 90
        0
102
RTVSPost2010PropOp41
 70
     1
102
RTVSPost2010Prop42
 90
       50
102
RTVSPost2010PropOp42
 70
     1
102
RTVSPost2010Prop43
 90
        3
102
RTVSPost2010PropOp43
 70
     1
102
RTVSPost2010Prop44ColorIndex
 90
        5
102
RTVSPost2010Prop44ColorRGB
 90
      255
102
RTVSPost2010PropOp44
 70
     1
102
RTVSPost2010Prop45
280
     0
102
RTVSPost2010PropOp45
 70
     1
102
RTVSPost2010Prop46
 90
       50
102
RTVSPost2010PropOp46
 70
     1
102
RTVSPost2010Prop47
 90
       50
102
RTVSPost2010PropOp47
 70
     1
102
RTVSPost2010Prop48
 90
       50
102
RTVSPost2010PropOp48
 70
     1
102
RTVSPost2010Prop49
280
     0
102
RTVSPost2010PropOp49
 70
     1
102
RTVSPost2010Prop50
 90
       50
102
RTVSPost2010PropOp50
 70
     1
102
RTVSPost2010Prop51ColorIndex
 90
      256
102
RTVSPost2010Prop51ColorRGB
 90
-16777216
102
RTVSPost2010PropOp51
 70
     0
102
RTVSPost2010Prop52
140
1.0
102
RTVSPost2010PropOp52
 70
     0
102
RTVSPost2010Prop53
 90
        2
102
RTVSPost2010PropOp53
 70
     1
102
RTVSPost2010Prop54
  1
strokes_ogs.tif
102
RTVSPost2010PropOp54
 70
     1
102
RTVSPost2010Prop55
280
     0
102
RTVSPost2010PropOp55
 70
     1
102
RTVSPost2010Prop56
140
1.0
102
RTVSPost2010PropOp56
 70
     1
102
RTVSPost2010Prop57
140
1.0
102
RTVSPost2010PropOp57
 70
     1
  0
XRECORD
  5
465
102
{ACAD_REACTORS
330
464
102
}
330
464
100
AcDbXrecord
280
     1
102
RTVSPost2010Prop28
280
     0
102
RTVSPost2010PropOp28
 70
     1
102
RTVSPost2010Prop29
280
     1
102
RTVSPost2010PropOp29
 70
     1
102
RTVSPost2010Prop30
280
     1
102
RTVSPost2010PropOp30
 70
     1
102
RTVSPost2010Prop31
280
     0
102
RTVSPost2010PropOp31
 70
     1
102
RTVSPost2010Prop32
280
     0
102
RTVSPost2010PropOp32
 70
     1
102
RTVSPost2010Prop33
280
     0
102
RTVSPost2010PropOp33
 70
     1
102
RTVSPost2010Prop34
280
     0
102
RTVSPost2010PropOp34
 70
     1
102
RTVSPost2010Prop35
280
     0
102
RTVSPost2010PropOp35
 70
     1
102
RTVSPost2010Prop36
280
     0
102
RTVSPost2010PropOp36
 70
     1
102
RTVSPost2010Prop37
 90
       50
102
RTVSPost2010PropOp37
 70
     1
102
RTVSPost2010Prop38
140
0.0
102
RTVSPost2010PropOp38
 70
     1
102
RTVSPost2010Prop39
140
1.0
102
RTVSPost2010PropOp39
 70
     1
102
RTVSPost2010Prop40
 90
        0
102
RTVSPost2010PropOp40
 70
     1
102
RTVSPost2010Prop41ColorIndex
 90
       18
102
RTVSPost2010Prop41ColorRGB
 90
        0
102
RTVSPost2010PropOp41
 70
     1
102
RTVSPost2010Prop42
 90
       50
102
RTVSPost2010PropOp42
 70
     1
102
RTVSPost2010Prop43
 90
        3
102
RTVSPost2010PropOp43
 70
     1
102
RTVSPost2010Prop44ColorIndex
 90
        5
102
RTVSPost2010Prop44ColorRGB
 90
      255
102
RTVSPost2010PropOp44
 70
     1
102
RTVSPost2010Prop45
280
     0
102
RTVSPost2010PropOp45
 70
     1
102
RTVSPost2010Prop46
 90
       50
102
RTVSPost2010PropOp46
 70
     1
102
RTVSPost2010Prop47
 90
       50
102
RTVSPost2010PropOp47
 70
     1
102
RTVSPost2010Prop48
 90
       50
102
RTVSPost2010PropOp48
 70
     1
102
RTVSPost2010Prop49
280
     0
102
RTVSPost2010PropOp49
 70
     1
102
RTVSPost2010Prop50
 90
       50
102
RTVSPost2010PropOp50
 70
     1
102
RTVSPost2010Prop51ColorIndex
 90
      256
102
RTVSPost2010Prop51ColorRGB
 90
-16777216
102
RTVSPost2010PropOp51
 70
     0
102
RTVSPost2010Prop52
140
1.0
102
RTVSPost2010PropOp52
 70
     0
102
RTVSPost2010Prop53
 90
        2
102
RTVSPost2010PropOp53
 70
     1
102
RTVSPost2010Prop54
  1
strokes_ogs.tif
102
RTVSPost2010PropOp54
 70
     1
102
RTVSPost2010Prop55
280
     0
102
RTVSPost2010PropOp55
 70
     1
102
RTVSPost2010Prop56
140
1.0
102
RTVSPost2010PropOp56
 70
     1
102
RTVSPost2010Prop57
140
1.0
102
RTVSPost2010PropOp57
 70
     1
  0
XRECORD
  5
459
102
{ACAD_REACTORS
330
458
102
}
330
458
100
AcDbXrecord
280
     1
102
RTVSPost2010Prop28
280
     0
102
RTVSPost2010PropOp28
 70
     1
102
RTVSPost2010Prop29
280
     1
102
RTVSPost2010PropOp29
 70
     1
102
RTVSPost2010Prop30
280
     1
102
RTVSPost2010PropOp30
 70
     1
102
RTVSPost2010Prop31
280
     0
102
RTVSPost2010PropOp31
 70
     1
102
RTVSPost2010Prop32
280
     0
102
RTVSPost2010PropOp32
 70
     1
102
RTVSPost2010Prop33
280
     0
102
RTVSPost2010PropOp33
 70
     1
102
RTVSPost2010Prop34
280
     0
102
RTVSPost2010PropOp34
 70
     1
102
RTVSPost2010Prop35
280
     0
102
RTVSPost2010PropOp35
 70
     1
102
RTVSPost2010Prop36
280
     0
102
RTVSPost2010PropOp36
 70
     1
102
RTVSPost2010Prop37
 90
       50
102
RTVSPost2010PropOp37
 70
     1
102
RTVSPost2010Prop38
140
0.0
102
RTVSPost2010PropOp38
 70
     1
102
RTVSPost2010Prop39
140
1.0
102
RTVSPost2010PropOp39
 70
     1
102
RTVSPost2010Prop40
 90
        0
102
RTVSPost2010PropOp40
 70
     1
102
RTVSPost2010Prop41ColorIndex
 90
       18
102
RTVSPost2010Prop41ColorRGB
 90
        0
102
RTVSPost2010PropOp41
 70
     1
102
RTVSPost2010Prop42
 90
       50
102
RTVSPost2010PropOp42
 70
     1
102
RTVSPost2010Prop43
 90
        3
102
RTVSPost2010PropOp43
 70
     1
102
RTVSPost2010Prop44ColorIndex
 90
        5
102
RTVSPost2010Prop44ColorRGB
 90
      255
102
RTVSPost2010PropOp44
 70
     1
102
RTVSPost2010Prop45
280
     0
102
RTVSPost2010PropOp45
 70
     1
102
RTVSPost2010Prop46
 90
       50
102
RTVSPost2010PropOp46
 70
     1
102
RTVSPost2010Prop47
 90
       50
102
RTVSPost2010PropOp47
 70
     1
102
RTVSPost2010Prop48
 90
       50
102
RTVSPost2010PropOp48
 70
     1
102
RTVSPost2010Prop49
280
     0
102
RTVSPost2010PropOp49
 70
     1
102
RTVSPost2010Prop50
 90
       50
102
RTVSPost2010PropOp50
 70
     1
102
RTVSPost2010Prop51ColorIndex
 90
      256
102
RTVSPost2010Prop51ColorRGB
 90
-16777216
102
RTVSPost2010PropOp51
 70
     0
102
RTVSPost2010Prop52
140
1.0
102
RTVSPost2010PropOp52
 70
     0
102
RTVSPost2010Prop53
 90
        2
102
RTVSPost2010PropOp53
 70
     1
102
RTVSPost2010Prop54
  1
strokes_ogs.tif
102
RTVSPost2010PropOp54
 70
     1
102
RTVSPost2010Prop55
280
     0
102
RTVSPost2010PropOp55
 70
     1
102
RTVSPost2010Prop56
140
1.0
102
RTVSPost2010PropOp56
 70
     1
102
RTVSPost2010Prop57
140
1.0
102
RTVSPost2010PropOp57
 70
     1
  0
XRECORD
  5
45B
102
{ACAD_REACTORS
330
45A
102
}
330
45A
100
AcDbXrecord
280
     1
102
RTVSPost2010Prop28
280
     0
102
RTVSPost2010PropOp28
 70
     1
102
RTVSPost2010Prop29
280
     1
102
RTVSPost2010PropOp29
 70
     1
102
RTVSPost2010Prop30
280
     1
102
RTVSPost2010PropOp30
 70
     1
102
RTVSPost2010Prop31
280
     0
102
RTVSPost2010PropOp31
 70
     1
102
RTVSPost2010Prop32
280
     0
102
RTVSPost2010PropOp32
 70
     1
102
RTVSPost2010Prop33
280
     0
102
RTVSPost2010PropOp33
 70
     1
102
RTVSPost2010Prop34
280
     0
102
RTVSPost2010PropOp34
 70
     1
102
RTVSPost2010Prop35
280
     0
102
RTVSPost2010PropOp35
 70
     1
102
RTVSPost2010Prop36
280
     0
102
RTVSPost2010PropOp36
 70
     1
102
RTVSPost2010Prop37
 90
       50
102
RTVSPost2010PropOp37
 70
     1
102
RTVSPost2010Prop38
140
0.0
102
RTVSPost2010PropOp38
 70
     1
102
RTVSPost2010Prop39
140
1.0
102
RTVSPost2010PropOp39
 70
     1
102
RTVSPost2010Prop40
 90
        0
102
RTVSPost2010PropOp40
 70
     1
102
RTVSPost2010Prop41ColorIndex
 90
       18
102
RTVSPost2010Prop41ColorRGB
 90
        0
102
RTVSPost2010PropOp41
 70
     1
102
RTVSPost2010Prop42
 90
       50
102
RTVSPost2010PropOp42
 70
     1
102
RTVSPost2010Prop43
 90
        3
102
RTVSPost2010PropOp43
 70
     1
102
RTVSPost2010Prop44ColorIndex
 90
        5
102
RTVSPost2010Prop44ColorRGB
 90
      255
102
RTVSPost2010PropOp44
 70
     1
102
RTVSPost2010Prop45
280
     0
102
RTVSPost2010PropOp45
 70
     1
102
RTVSPost2010Prop46
 90
       50
102
RTVSPost2010PropOp46
 70
     1
102
RTVSPost2010Prop47
 90
       50
102
RTVSPost2010PropOp47
 70
     1
102
RTVSPost2010Prop48
 90
       50
102
RTVSPost2010PropOp48
 70
     1
102
RTVSPost2010Prop49
280
     0
102
RTVSPost2010PropOp49
 70
     1
102
RTVSPost2010Prop50
 90
       50
102
RTVSPost2010PropOp50
 70
     1
102
RTVSPost2010Prop51ColorIndex
 90
      256
102
RTVSPost2010Prop51ColorRGB
 90
-16777216
102
RTVSPost2010PropOp51
 70
     0
102
RTVSPost2010Prop52
140
1.0
102
RTVSPost2010PropOp52
 70
     0
102
RTVSPost2010Prop53
 90
        2
102
RTVSPost2010PropOp53
 70
     1
102
RTVSPost2010Prop54
  1
strokes_ogs.tif
102
RTVSPost2010PropOp54
 70
     1
102
RTVSPost2010Prop55
280
     0
102
RTVSPost2010PropOp55
 70
     1
102
RTVSPost2010Prop56
140
1.0
102
RTVSPost2010PropOp56
 70
     1
102
RTVSPost2010Prop57
140
1.0
102
RTVSPost2010PropOp57
 70
     1
  0
XRECORD
  5
46B
102
{ACAD_REACTORS
330
46A
102
}
330
46A
100
AcDbXrecord
280
     1
102
RTVSPost2010Prop28
280
     0
102
RTVSPost2010PropOp28
 70
     0
102
RTVSPost2010Prop29
280
     1
102
RTVSPost2010PropOp29
 70
     0
102
RTVSPost2010Prop30
280
     1
102
RTVSPost2010PropOp30
 70
     0
102
RTVSPost2010Prop31
280
     0
102
RTVSPost2010PropOp31
 70
     0
102
RTVSPost2010Prop32
280
     0
102
RTVSPost2010PropOp32
 70
     0
102
RTVSPost2010Prop33
280
     0
102
RTVSPost2010PropOp33
 70
     0
102
RTVSPost2010Prop34
280
     0
102
RTVSPost2010PropOp34
 70
     0
102
RTVSPost2010Prop35
280
     0
102
RTVSPost2010PropOp35
 70
     0
102
RTVSPost2010Prop36
280
     0
102
RTVSPost2010PropOp36
 70
     0
102
RTVSPost2010Prop37
 90
       50
102
RTVSPost2010PropOp37
 70
     0
102
RTVSPost2010Prop38
140
0.0
102
RTVSPost2010PropOp38
 70
     0
102
RTVSPost2010Prop39
140
1.0
102
RTVSPost2010PropOp39
 70
     0
102
RTVSPost2010Prop40
 90
        0
102
RTVSPost2010PropOp40
 70
     0
102
RTVSPost2010Prop41ColorIndex
 90
       18
102
RTVSPost2010Prop41ColorRGB
 90
        0
102
RTVSPost2010PropOp41
 70
     0
102
RTVSPost2010Prop42
 90
       50
102
RTVSPost2010PropOp42
 70
     0
102
RTVSPost2010Prop43
 90
        3
102
RTVSPost2010PropOp43
 70
     0
102
RTVSPost2010Prop44ColorIndex
 90
        5
102
RTVSPost2010Prop44ColorRGB
 90
      255
102
RTVSPost2010PropOp44
 70
     0
102
RTVSPost2010Prop45
280
     0
102
RTVSPost2010PropOp45
 70
     0
102
RTVSPost2010Prop46
 90
       50
102
RTVSPost2010PropOp46
 70
     0
102
RTVSPost2010Prop47
 90
       50
102
RTVSPost2010PropOp47
 70
     0
102
RTVSPost2010Prop48
 90
       50
102
RTVSPost2010PropOp48
 70
     0
102
RTVSPost2010Prop49
280
     0
102
RTVSPost2010PropOp49
 70
     0
102
RTVSPost2010Prop50
 90
       50
102
RTVSPost2010PropOp50
 70
     0
102
RTVSPost2010Prop51ColorIndex
 90
      256
102
RTVSPost2010Prop51ColorRGB
 90
-16777216
102
RTVSPost2010PropOp51
 70
     0
102
RTVSPost2010Prop52
140
1.0
102
RTVSPost2010PropOp52
 70
     0
102
RTVSPost2010Prop53
 90
        2
102
RTVSPost2010PropOp53
 70
     0
102
RTVSPost2010Prop54
  1
strokes_ogs.tif
102
RTVSPost2010PropOp54
 70
     0
102
RTVSPost2010Prop55
280
     0
102
RTVSPost2010PropOp55
 70
     0
102
RTVSPost2010Prop56
140
1.0
102
RTVSPost2010PropOp56
 70
     0
102
RTVSPost2010Prop57
140
1.0
102
RTVSPost2010PropOp57
 70
     0
  0
XRECORD
  5
463
102
{ACAD_REACTORS
330
462
102
}
330
462
100
AcDbXrecord
280
     1
102
RTVSPost2010Prop28
280
     0
102
RTVSPost2010PropOp28
 70
     1
102
RTVSPost2010Prop29
280
     1
102
RTVSPost2010PropOp29
 70
     1
102
RTVSPost2010Prop30
280
     1
102
RTVSPost2010PropOp30
 70
     1
102
RTVSPost2010Prop31
280
     0
102
RTVSPost2010PropOp31
 70
     1
102
RTVSPost2010Prop32
280
     0
102
RTVSPost2010PropOp32
 70
     1
102
RTVSPost2010Prop33
280
     0
102
RTVSPost2010PropOp33
 70
     1
102
RTVSPost2010Prop34
280
     0
102
RTVSPost2010PropOp34
 70
     1
102
RTVSPost2010Prop35
280
     0
102
RTVSPost2010PropOp35
 70
     1
102
RTVSPost2010Prop36
280
     0
102
RTVSPost2010PropOp36
 70
     1
102
RTVSPost2010Prop37
 90
       50
102
RTVSPost2010PropOp37
 70
     1
102
RTVSPost2010Prop38
140
0.0
102
RTVSPost2010PropOp38
 70
     1
102
RTVSPost2010Prop39
140
1.0
102
RTVSPost2010PropOp39
 70
     1
102
RTVSPost2010Prop40
 90
        0
102
RTVSPost2010PropOp40
 70
     1
102
RTVSPost2010Prop41ColorIndex
 90
       18
102
RTVSPost2010Prop41ColorRGB
 90
        0
102
RTVSPost2010PropOp41
 70
     1
102
RTVSPost2010Prop42
 90
       50
102
RTVSPost2010PropOp42
 70
     1
102
RTVSPost2010Prop43
 90
        3
102
RTVSPost2010PropOp43
 70
     1
102
RTVSPost2010Prop44ColorIndex
 90
        5
102
RTVSPost2010Prop44ColorRGB
 90
      255
102
RTVSPost2010PropOp44
 70
     1
102
RTVSPost2010Prop45
280
     0
102
RTVSPost2010PropOp45
 70
     1
102
RTVSPost2010Prop46
 90
       50
102
RTVSPost2010PropOp46
 70
     1
102
RTVSPost2010Prop47
 90
       50
102
RTVSPost2010PropOp47
 70
     1
102
RTVSPost2010Prop48
 90
       50
102
RTVSPost2010PropOp48
 70
     1
102
RTVSPost2010Prop49
280
     0
102
RTVSPost2010PropOp49
 70
     1
102
RTVSPost2010Prop50
 90
       50
102
RTVSPost2010PropOp50
 70
     1
102
RTVSPost2010Prop51ColorIndex
 90
      256
102
RTVSPost2010Prop51ColorRGB
 90
-16777216
102
RTVSPost2010PropOp51
 70
     0
102
RTVSPost2010Prop52
140
1.0
102
RTVSPost2010PropOp52
 70
     0
102
RTVSPost2010Prop53
 90
        2
102
RTVSPost2010PropOp53
 70
     1
102
RTVSPost2010Prop54
  1
strokes_ogs.tif
102
RTVSPost2010PropOp54
 70
     1
102
RTVSPost2010Prop55
280
     0
102
RTVSPost2010PropOp55
 70
     1
102
RTVSPost2010Prop56
140
1.0
102
RTVSPost2010PropOp56
 70
     1
102
RTVSPost2010Prop57
140
1.0
102
RTVSPost2010PropOp57
 70
     1
  0
XRECORD
  5
447
102
{ACAD_REACTORS
330
446
102
}
330
446
100
AcDbXrecord
280
     1
102
RTVSPost2010Prop28
280
     0
102
RTVSPost2010PropOp28
 70
     1
102
RTVSPost2010Prop29
280
     1
102
RTVSPost2010PropOp29
 70
     1
102
RTVSPost2010Prop30
280
     1
102
RTVSPost2010PropOp30
 70
     1
102
RTVSPost2010Prop31
280
     0
102
RTVSPost2010PropOp31
 70
     1
102
RTVSPost2010Prop32
280
     0
102
RTVSPost2010PropOp32
 70
     1
102
RTVSPost2010Prop33
280
     0
102
RTVSPost2010PropOp33
 70
     1
102
RTVSPost2010Prop34
280
     0
102
RTVSPost2010PropOp34
 70
     1
102
RTVSPost2010Prop35
280
     0
102
RTVSPost2010PropOp35
 70
     1
102
RTVSPost2010Prop36
280
     0
102
RTVSPost2010PropOp36
 70
     1
102
RTVSPost2010Prop37
 90
       50
102
RTVSPost2010PropOp37
 70
     1
102
RTVSPost2010Prop38
140
0.0
102
RTVSPost2010PropOp38
 70
     1
102
RTVSPost2010Prop39
140
1.0
102
RTVSPost2010PropOp39
 70
     1
102
RTVSPost2010Prop40
 90
        0
102
RTVSPost2010PropOp40
 70
     1
102
RTVSPost2010Prop41ColorIndex
 90
       18
102
RTVSPost2010Prop41ColorRGB
 90
        0
102
RTVSPost2010PropOp41
 70
     1
102
RTVSPost2010Prop42
 90
       50
102
RTVSPost2010PropOp42
 70
     1
102
RTVSPost2010Prop43
 90
        3
102
RTVSPost2010PropOp43
 70
     1
102
RTVSPost2010Prop44ColorIndex
 90
        5
102
RTVSPost2010Prop44ColorRGB
 90
      255
102
RTVSPost2010PropOp44
 70
     1
102
RTVSPost2010Prop45
280
     0
102
RTVSPost2010PropOp45
 70
     1
102
RTVSPost2010Prop46
 90
       50
102
RTVSPost2010PropOp46
 70
     1
102
RTVSPost2010Prop47
 90
       50
102
RTVSPost2010PropOp47
 70
     1
102
RTVSPost2010Prop48
 90
       50
102
RTVSPost2010PropOp48
 70
     1
102
RTVSPost2010Prop49
280
     0
102
RTVSPost2010PropOp49
 70
     1
102
RTVSPost2010Prop50
 90
       50
102
RTVSPost2010PropOp50
 70
     1
102
RTVSPost2010Prop51ColorIndex
 90
      256
102
RTVSPost2010Prop51ColorRGB
 90
-16777216
102
RTVSPost2010PropOp51
 70
     0
102
RTVSPost2010Prop52
140
1.0
102
RTVSPost2010PropOp52
 70
     0
102
RTVSPost2010Prop53
 90
        2
102
RTVSPost2010PropOp53
 70
     1
102
RTVSPost2010Prop54
  1
strokes_ogs.tif
102
RTVSPost2010PropOp54
 70
     1
102
RTVSPost2010Prop55
280
     0
102
RTVSPost2010PropOp55
 70
     1
102
RTVSPost2010Prop56
140
1.0
102
RTVSPost2010PropOp56
 70
     1
102
RTVSPost2010Prop57
140
1.0
102
RTVSPost2010PropOp57
 70
     1
  0
XRECORD
  5
449
102
{ACAD_REACTORS
330
448
102
}
330
448
100
AcDbXrecord
280
     1
102
RTVSPost2010Prop28
280
     0
102
RTVSPost2010PropOp28
 70
     1
102
RTVSPost2010Prop29
280
     1
102
RTVSPost2010PropOp29
 70
     1
102
RTVSPost2010Prop30
280
     1
102
RTVSPost2010PropOp30
 70
     1
102
RTVSPost2010Prop31
280
     0
102
RTVSPost2010PropOp31
 70
     1
102
RTVSPost2010Prop32
280
     0
102
RTVSPost2010PropOp32
 70
     1
102
RTVSPost2010Prop33
280
     0
102
RTVSPost2010PropOp33
 70
     1
102
RTVSPost2010Prop34
280
     0
102
RTVSPost2010PropOp34
 70
     1
102
RTVSPost2010Prop35
280
     0
102
RTVSPost2010PropOp35
 70
     1
102
RTVSPost2010Prop36
280
     0
102
RTVSPost2010PropOp36
 70
     1
102
RTVSPost2010Prop37
 90
       50
102
RTVSPost2010PropOp37
 70
     1
102
RTVSPost2010Prop38
140
0.0
102
RTVSPost2010PropOp38
 70
     1
102
RTVSPost2010Prop39
140
1.0
102
RTVSPost2010PropOp39
 70
     1
102
RTVSPost2010Prop40
 90
        0
102
RTVSPost2010PropOp40
 70
     1
102
RTVSPost2010Prop41ColorIndex
 90
       18
102
RTVSPost2010Prop41ColorRGB
 90
        0
102
RTVSPost2010PropOp41
 70
     1
102
RTVSPost2010Prop42
 90
       50
102
RTVSPost2010PropOp42
 70
     1
102
RTVSPost2010Prop43
 90
        3
102
RTVSPost2010PropOp43
 70
     1
102
RTVSPost2010Prop44ColorIndex
 90
        5
102
RTVSPost2010Prop44ColorRGB
 90
      255
102
RTVSPost2010PropOp44
 70
     1
102
RTVSPost2010Prop45
280
     0
102
RTVSPost2010PropOp45
 70
     1
102
RTVSPost2010Prop46
 90
       50
102
RTVSPost2010PropOp46
 70
     1
102
RTVSPost2010Prop47
 90
       50
102
RTVSPost2010PropOp47
 70
     1
102
RTVSPost2010Prop48
 90
       50
102
RTVSPost2010PropOp48
 70
     1
102
RTVSPost2010Prop49
280
     0
102
RTVSPost2010PropOp49
 70
     1
102
RTVSPost2010Prop50
 90
       50
102
RTVSPost2010PropOp50
 70
     1
102
RTVSPost2010Prop51ColorIndex
 90
      256
102
RTVSPost2010Prop51ColorRGB
 90
-16777216
102
RTVSPost2010PropOp51
 70
     0
102
RTVSPost2010Prop52
140
1.0
102
RTVSPost2010PropOp52
 70
     0
102
RTVSPost2010Prop53
 90
        2
102
RTVSPost2010PropOp53
 70
     1
102
RTVSPost2010Prop54
  1
strokes_ogs.tif
102
RTVSPost2010PropOp54
 70
     1
102
RTVSPost2010Prop55
280
     0
102
RTVSPost2010PropOp55
 70
     1
102
RTVSPost2010Prop56
140
1.0
102
RTVSPost2010PropOp56
 70
     1
102
RTVSPost2010Prop57
140
1.0
102
RTVSPost2010PropOp57
 70
     1
  0
XRECORD
  5
44B
102
{ACAD_REACTORS
330
44A
102
}
330
44A
100
AcDbXrecord
280
     1
102
RTVSPost2010Prop28
280
     0
102
RTVSPost2010PropOp28
 70
     1
102
RTVSPost2010Prop29
280
     1
102
RTVSPost2010PropOp29
 70
     1
102
RTVSPost2010Prop30
280
     1
102
RTVSPost2010PropOp30
 70
     1
102
RTVSPost2010Prop31
280
     0
102
RTVSPost2010PropOp31
 70
     1
102
RTVSPost2010Prop32
280
     0
102
RTVSPost2010PropOp32
 70
     1
102
RTVSPost2010Prop33
280
     0
102
RTVSPost2010PropOp33
 70
     1
102
RTVSPost2010Prop34
280
     0
102
RTVSPost2010PropOp34
 70
     1
102
RTVSPost2010Prop35
280
     0
102
RTVSPost2010PropOp35
 70
     1
102
RTVSPost2010Prop36
280
     0
102
RTVSPost2010PropOp36
 70
     1
102
RTVSPost2010Prop37
 90
       50
102
RTVSPost2010PropOp37
 70
     1
102
RTVSPost2010Prop38
140
0.0
102
RTVSPost2010PropOp38
 70
     1
102
RTVSPost2010Prop39
140
1.0
102
RTVSPost2010PropOp39
 70
     1
102
RTVSPost2010Prop40
 90
        0
102
RTVSPost2010PropOp40
 70
     1
102
RTVSPost2010Prop41ColorIndex
 90
       18
102
RTVSPost2010Prop41ColorRGB
 90
        0
102
RTVSPost2010PropOp41
 70
     1
102
RTVSPost2010Prop42
 90
       50
102
RTVSPost2010PropOp42
 70
     1
102
RTVSPost2010Prop43
 90
        3
102
RTVSPost2010PropOp43
 70
     1
102
RTVSPost2010Prop44ColorIndex
 90
        5
102
RTVSPost2010Prop44ColorRGB
 90
      255
102
RTVSPost2010PropOp44
 70
     1
102
RTVSPost2010Prop45
280
     0
102
RTVSPost2010PropOp45
 70
     1
102
RTVSPost2010Prop46
 90
       50
102
RTVSPost2010PropOp46
 70
     1
102
RTVSPost2010Prop47
 90
       50
102
RTVSPost2010PropOp47
 70
     1
102
RTVSPost2010Prop48
 90
       50
102
RTVSPost2010PropOp48
 70
     1
102
RTVSPost2010Prop49
280
     0
102
RTVSPost2010PropOp49
 70
     1
102
RTVSPost2010Prop50
 90
       50
102
RTVSPost2010PropOp50
 70
     1
102
RTVSPost2010Prop51ColorIndex
 90
      256
102
RTVSPost2010Prop51ColorRGB
 90
-16777216
102
RTVSPost2010PropOp51
 70
     0
102
RTVSPost2010Prop52
140
1.0
102
RTVSPost2010PropOp52
 70
     0
102
RTVSPost2010Prop53
 90
        2
102
RTVSPost2010PropOp53
 70
     1
102
RTVSPost2010Prop54
  1
strokes_ogs.tif
102
RTVSPost2010PropOp54
 70
     1
102
RTVSPost2010Prop55
280
     0
102
RTVSPost2010PropOp55
 70
     1
102
RTVSPost2010Prop56
140
1.0
102
RTVSPost2010PropOp56
 70
     1
102
RTVSPost2010Prop57
140
1.0
102
RTVSPost2010PropOp57
 70
     1
  0
XRECORD
  5
44D
102
{ACAD_REACTORS
330
44C
102
}
330
44C
100
AcDbXrecord
280
     1
102
RTVSPost2010Prop28
280
     0
102
RTVSPost2010PropOp28
 70
     1
102
RTVSPost2010Prop29
280
     1
102
RTVSPost2010PropOp29
 70
     1
102
RTVSPost2010Prop30
280
     1
102
RTVSPost2010PropOp30
 70
     1
102
RTVSPost2010Prop31
280
     0
102
RTVSPost2010PropOp31
 70
     1
102
RTVSPost2010Prop32
280
     0
102
RTVSPost2010PropOp32
 70
     1
102
RTVSPost2010Prop33
280
     0
102
RTVSPost2010PropOp33
 70
     1
102
RTVSPost2010Prop34
280
     0
102
RTVSPost2010PropOp34
 70
     1
102
RTVSPost2010Prop35
280
     0
102
RTVSPost2010PropOp35
 70
     1
102
RTVSPost2010Prop36
280
     0
102
RTVSPost2010PropOp36
 70
     1
102
RTVSPost2010Prop37
 90
       50
102
RTVSPost2010PropOp37
 70
     1
102
RTVSPost2010Prop38
140
0.0
102
RTVSPost2010PropOp38
 70
     1
102
RTVSPost2010Prop39
140
1.0
102
RTVSPost2010PropOp39
 70
     1
102
RTVSPost2010Prop40
 90
        0
102
RTVSPost2010PropOp40
 70
     1
102
RTVSPost2010Prop41ColorIndex
 90
       18
102
RTVSPost2010Prop41ColorRGB
 90
        0
102
RTVSPost2010PropOp41
 70
     1
102
RTVSPost2010Prop42
 90
       50
102
RTVSPost2010PropOp42
 70
     1
102
RTVSPost2010Prop43
 90
        3
102
RTVSPost2010PropOp43
 70
     1
102
RTVSPost2010Prop44ColorIndex
 90
        5
102
RTVSPost2010Prop44ColorRGB
 90
      255
102
RTVSPost2010PropOp44
 70
     1
102
RTVSPost2010Prop45
280
     0
102
RTVSPost2010PropOp45
 70
     1
102
RTVSPost2010Prop46
 90
       50
102
RTVSPost2010PropOp46
 70
     1
102
RTVSPost2010Prop47
 90
       50
102
RTVSPost2010PropOp47
 70
     1
102
RTVSPost2010Prop48
 90
       50
102
RTVSPost2010PropOp48
 70
     1
102
RTVSPost2010Prop49
280
     0
102
RTVSPost2010PropOp49
 70
     1
102
RTVSPost2010Prop50
 90
       50
102
RTVSPost2010PropOp50
 70
     1
102
RTVSPost2010Prop51ColorIndex
 90
      256
102
RTVSPost2010Prop51ColorRGB
 90
-16777216
102
RTVSPost2010PropOp51
 70
     0
102
RTVSPost2010Prop52
140
1.0
102
RTVSPost2010PropOp52
 70
     0
102
RTVSPost2010Prop53
 90
        2
102
RTVSPost2010PropOp53
 70
     1
102
RTVSPost2010Prop54
  1
strokes_ogs.tif
102
RTVSPost2010PropOp54
 70
     1
102
RTVSPost2010Prop55
280
     0
102
RTVSPost2010PropOp55
 70
     1
102
RTVSPost2010Prop56
140
1.0
102
RTVSPost2010PropOp56
 70
     1
102
RTVSPost2010Prop57
140
1.0
102
RTVSPost2010PropOp57
 70
     1
  0
XRECORD
  5
453
102
{ACAD_REACTORS
330
452
102
}
330
452
100
AcDbXrecord
280
     1
102
RTVSPost2010Prop28
280
     0
102
RTVSPost2010PropOp28
 70
     1
102
RTVSPost2010Prop29
280
     1
102
RTVSPost2010PropOp29
 70
     1
102
RTVSPost2010Prop30
280
     1
102
RTVSPost2010PropOp30
 70
     1
102
RTVSPost2010Prop31
280
     0
102
RTVSPost2010PropOp31
 70
     1
102
RTVSPost2010Prop32
280
     0
102
RTVSPost2010PropOp32
 70
     1
102
RTVSPost2010Prop33
280
     0
102
RTVSPost2010PropOp33
 70
     1
102
RTVSPost2010Prop34
280
     0
102
RTVSPost2010PropOp34
 70
     1
102
RTVSPost2010Prop35
280
     0
102
RTVSPost2010PropOp35
 70
     1
102
RTVSPost2010Prop36
280
     0
102
RTVSPost2010PropOp36
 70
     1
102
RTVSPost2010Prop37
 90
       50
102
RTVSPost2010PropOp37
 70
     1
102
RTVSPost2010Prop38
140
0.0
102
RTVSPost2010PropOp38
 70
     1
102
RTVSPost2010Prop39
140
1.0
102
RTVSPost2010PropOp39
 70
     1
102
RTVSPost2010Prop40
 90
        0
102
RTVSPost2010PropOp40
 70
     1
102
RTVSPost2010Prop41ColorIndex
 90
       18
102
RTVSPost2010Prop41ColorRGB
 90
        0
102
RTVSPost2010PropOp41
 70
     1
102
RTVSPost2010Prop42
 90
       50
102
RTVSPost2010PropOp42
 70
     1
102
RTVSPost2010Prop43
 90
        3
102
RTVSPost2010PropOp43
 70
     1
102
RTVSPost2010Prop44ColorIndex
 90
        5
102
RTVSPost2010Prop44ColorRGB
 90
      255
102
RTVSPost2010PropOp44
 70
     1
102
RTVSPost2010Prop45
280
     0
102
RTVSPost2010PropOp45
 70
     1
102
RTVSPost2010Prop46
 90
       50
102
RTVSPost2010PropOp46
 70
     1
102
RTVSPost2010Prop47
 90
       50
102
RTVSPost2010PropOp47
 70
     1
102
RTVSPost2010Prop48
 90
       50
102
RTVSPost2010PropOp48
 70
     1
102
RTVSPost2010Prop49
280
     0
102
RTVSPost2010PropOp49
 70
     1
102
RTVSPost2010Prop50
 90
       50
102
RTVSPost2010PropOp50
 70
     1
102
RTVSPost2010Prop51ColorIndex
 90
      256
102
RTVSPost2010Prop51ColorRGB
 90
-16777216
102
RTVSPost2010PropOp51
 70
     0
102
RTVSPost2010Prop52
140
1.0
102
RTVSPost2010PropOp52
 70
     0
102
RTVSPost2010Prop53
 90
        2
102
RTVSPost2010PropOp53
 70
     1
102
RTVSPost2010Prop54
  1
strokes_ogs.tif
102
RTVSPost2010PropOp54
 70
     1
102
RTVSPost2010Prop55
280
     0
102
RTVSPost2010PropOp55
 70
     1
102
RTVSPost2010Prop56
140
1.0
102
RTVSPost2010PropOp56
 70
     1
102
RTVSPost2010Prop57
140
1.0
102
RTVSPost2010PropOp57
 70
     1
  0
XRECORD
  5
467
102
{ACAD_REACTORS
330
466
102
}
330
466
100
AcDbXrecord
280
     1
102
RTVSPost2010Prop28
280
     0
102
RTVSPost2010PropOp28
 70
     0
102
RTVSPost2010Prop29
280
     1
102
RTVSPost2010PropOp29
 70
     0
102
RTVSPost2010Prop30
280
     1
102
RTVSPost2010PropOp30
 70
     0
102
RTVSPost2010Prop31
280
     0
102
RTVSPost2010PropOp31
 70
     0
102
RTVSPost2010Prop32
280
     0
102
RTVSPost2010PropOp32
 70
     0
102
RTVSPost2010Prop33
280
     0
102
RTVSPost2010PropOp33
 70
     0
102
RTVSPost2010Prop34
280
     0
102
RTVSPost2010PropOp34
 70
     0
102
RTVSPost2010Prop35
280
     0
102
RTVSPost2010PropOp35
 70
     0
102
RTVSPost2010Prop36
280
     0
102
RTVSPost2010PropOp36
 70
     0
102
RTVSPost2010Prop37
 90
       50
102
RTVSPost2010PropOp37
 70
     0
102
RTVSPost2010Prop38
140
0.0
102
RTVSPost2010PropOp38
 70
     0
102
RTVSPost2010Prop39
140
1.0
102
RTVSPost2010PropOp39
 70
     0
102
RTVSPost2010Prop40
 90
        0
102
RTVSPost2010PropOp40
 70
     0
102
RTVSPost2010Prop41ColorIndex
 90
       18
102
RTVSPost2010Prop41ColorRGB
 90
        0
102
RTVSPost2010PropOp41
 70
     0
102
RTVSPost2010Prop42
 90
       50
102
RTVSPost2010PropOp42
 70
     0
102
RTVSPost2010Prop43
 90
        3
102
RTVSPost2010PropOp43
 70
     0
102
RTVSPost2010Prop44ColorIndex
 90
        5
102
RTVSPost2010Prop44ColorRGB
 90
      255
102
RTVSPost2010PropOp44
 70
     0
102
RTVSPost2010Prop45
280
     0
102
RTVSPost2010PropOp45
 70
     0
102
RTVSPost2010Prop46
 90
       50
102
RTVSPost2010PropOp46
 70
     0
102
RTVSPost2010Prop47
 90
       50
102
RTVSPost2010PropOp47
 70
     0
102
RTVSPost2010Prop48
 90
       50
102
RTVSPost2010PropOp48
 70
     0
102
RTVSPost2010Prop49
280
     0
102
RTVSPost2010PropOp49
 70
     0
102
RTVSPost2010Prop50
 90
       50
102
RTVSPost2010PropOp50
 70
     0
102
RTVSPost2010Prop51ColorIndex
 90
      256
102
RTVSPost2010Prop51ColorRGB
 90
-16777216
102
RTVSPost2010PropOp51
 70
     0
102
RTVSPost2010Prop52
140
1.0
102
RTVSPost2010PropOp52
 70
     0
102
RTVSPost2010Prop53
 90
        2
102
RTVSPost2010PropOp53
 70
     0
102
RTVSPost2010Prop54
  1
strokes_ogs.tif
102
RTVSPost2010PropOp54
 70
     0
102
RTVSPost2010Prop55
280
     0
102
RTVSPost2010PropOp55
 70
     0
102
RTVSPost2010Prop56
140
1.0
102
RTVSPost2010PropOp56
 70
     0
102
RTVSPost2010Prop57
140
1.0
102
RTVSPost2010PropOp57
 70
     0
  0
XRECORD
  5
461
102
{ACAD_REACTORS
330
460
102
}
330
460
100
AcDbXrecord
280
     1
102
RTVSPost2010Prop28
280
     0
102
RTVSPost2010PropOp28
 70
     1
102
RTVSPost2010Prop29
280
     1
102
RTVSPost2010PropOp29
 70
     1
102
RTVSPost2010Prop30
280
     1
102
RTVSPost2010PropOp30
 70
     1
102
RTVSPost2010Prop31
280
     0
102
RTVSPost2010PropOp31
 70
     1
102
RTVSPost2010Prop32
280
     0
102
RTVSPost2010PropOp32
 70
     1
102
RTVSPost2010Prop33
280
     0
102
RTVSPost2010PropOp33
 70
     1
102
RTVSPost2010Prop34
280
     0
102
RTVSPost2010PropOp34
 70
     1
102
RTVSPost2010Prop35
280
     0
102
RTVSPost2010PropOp35
 70
     1
102
RTVSPost2010Prop36
280
     0
102
RTVSPost2010PropOp36
 70
     1
102
RTVSPost2010Prop37
 90
       50
102
RTVSPost2010PropOp37
 70
     1
102
RTVSPost2010Prop38
140
0.0
102
RTVSPost2010PropOp38
 70
     1
102
RTVSPost2010Prop39
140
1.0
102
RTVSPost2010PropOp39
 70
     1
102
RTVSPost2010Prop40
 90
        0
102
RTVSPost2010PropOp40
 70
     1
102
RTVSPost2010Prop41ColorIndex
 90
       18
102
RTVSPost2010Prop41ColorRGB
 90
        0
102
RTVSPost2010PropOp41
 70
     1
102
RTVSPost2010Prop42
 90
       50
102
RTVSPost2010PropOp42
 70
     1
102
RTVSPost2010Prop43
 90
        3
102
RTVSPost2010PropOp43
 70
     1
102
RTVSPost2010Prop44ColorIndex
 90
        5
102
RTVSPost2010Prop44ColorRGB
 90
      255
102
RTVSPost2010PropOp44
 70
     1
102
RTVSPost2010Prop45
280
     0
102
RTVSPost2010PropOp45
 70
     1
102
RTVSPost2010Prop46
 90
       50
102
RTVSPost2010PropOp46
 70
     1
102
RTVSPost2010Prop47
 90
       50
102
RTVSPost2010PropOp47
 70
     1
102
RTVSPost2010Prop48
 90
       50
102
RTVSPost2010PropOp48
 70
     1
102
RTVSPost2010Prop49
280
     0
102
RTVSPost2010PropOp49
 70
     1
102
RTVSPost2010Prop50
 90
       50
102
RTVSPost2010PropOp50
 70
     1
102
RTVSPost2010Prop51ColorIndex
 90
      256
102
RTVSPost2010Prop51ColorRGB
 90
-16777216
102
RTVSPost2010PropOp51
 70
     0
102
RTVSPost2010Prop52
140
1.0
102
RTVSPost2010PropOp52
 70
     0
102
RTVSPost2010Prop53
 90
        2
102
RTVSPost2010PropOp53
 70
     1
102
RTVSPost2010Prop54
  1
strokes_ogs.tif
102
RTVSPost2010PropOp54
 70
     1
102
RTVSPost2010Prop55
280
     0
102
RTVSPost2010PropOp55
 70
     1
102
RTVSPost2010Prop56
140
1.0
102
RTVSPost2010PropOp56
 70
     1
102
RTVSPost2010Prop57
140
1.0
102
RTVSPost2010PropOp57
 70
     1
  0
XRECORD
  5
469
102
{ACAD_REACTORS
330
468
102
}
330
468
100
AcDbXrecord
280
     1
102
RTVSPost2010Prop28
280
     0
102
RTVSPost2010PropOp28
 70
     0
102
RTVSPost2010Prop29
280
     1
102
RTVSPost2010PropOp29
 70
     0
102
RTVSPost2010Prop30
280
     1
102
RTVSPost2010PropOp30
 70
     0
102
RTVSPost2010Prop31
280
     0
102
RTVSPost2010PropOp31
 70
     0
102
RTVSPost2010Prop32
280
     0
102
RTVSPost2010PropOp32
 70
     0
102
RTVSPost2010Prop33
280
     0
102
RTVSPost2010PropOp33
 70
     0
102
RTVSPost2010Prop34
280
     0
102
RTVSPost2010PropOp34
 70
     0
102
RTVSPost2010Prop35
280
     0
102
RTVSPost2010PropOp35
 70
     0
102
RTVSPost2010Prop36
280
     0
102
RTVSPost2010PropOp36
 70
     0
102
RTVSPost2010Prop37
 90
       50
102
RTVSPost2010PropOp37
 70
     0
102
RTVSPost2010Prop38
140
0.0
102
RTVSPost2010PropOp38
 70
     0
102
RTVSPost2010Prop39
140
1.0
102
RTVSPost2010PropOp39
 70
     0
102
RTVSPost2010Prop40
 90
        0
102
RTVSPost2010PropOp40
 70
     0
102
RTVSPost2010Prop41ColorIndex
 90
       18
102
RTVSPost2010Prop41ColorRGB
 90
        0
102
RTVSPost2010PropOp41
 70
     0
102
RTVSPost2010Prop42
 90
       50
102
RTVSPost2010PropOp42
 70
     0
102
RTVSPost2010Prop43
 90
        3
102
RTVSPost2010PropOp43
 70
     0
102
RTVSPost2010Prop44ColorIndex
 90
        5
102
RTVSPost2010Prop44ColorRGB
 90
      255
102
RTVSPost2010PropOp44
 70
     0
102
RTVSPost2010Prop45
280
     0
102
RTVSPost2010PropOp45
 70
     0
102
RTVSPost2010Prop46
 90
       50
102
RTVSPost2010PropOp46
 70
     0
102
RTVSPost2010Prop47
 90
       50
102
RTVSPost2010PropOp47
 70
     0
102
RTVSPost2010Prop48
 90
       50
102
RTVSPost2010PropOp48
 70
     0
102
RTVSPost2010Prop49
280
     0
102
RTVSPost2010PropOp49
 70
     0
102
RTVSPost2010Prop50
 90
       50
102
RTVSPost2010PropOp50
 70
     0
102
RTVSPost2010Prop51ColorIndex
 90
      256
102
RTVSPost2010Prop51ColorRGB
 90
-16777216
102
RTVSPost2010PropOp51
 70
     0
102
RTVSPost2010Prop52
140
1.0
102
RTVSPost2010PropOp52
 70
     0
102
RTVSPost2010Prop53
 90
        2
102
RTVSPost2010PropOp53
 70
     0
102
RTVSPost2010Prop54
  1
strokes_ogs.tif
102
RTVSPost2010PropOp54
 70
     0
102
RTVSPost2010Prop55
280
     0
102
RTVSPost2010PropOp55
 70
     0
102
RTVSPost2010Prop56
140
1.0
102
RTVSPost2010PropOp56
 70
     0
102
RTVSPost2010Prop57
140
1.0
102
RTVSPost2010PropOp57
 70
     0
  0
XRECORD
  5
457
102
{ACAD_REACTORS
330
456
102
}
330
456
100
AcDbXrecord
280
     1
102
RTVSPost2010Prop28
280
     0
102
RTVSPost2010PropOp28
 70
     1
102
RTVSPost2010Prop29
280
     1
102
RTVSPost2010PropOp29
 70
     1
102
RTVSPost2010Prop30
280
     1
102
RTVSPost2010PropOp30
 70
     1
102
RTVSPost2010Prop31
280
     0
102
RTVSPost2010PropOp31
 70
     1
102
RTVSPost2010Prop32
280
     0
102
RTVSPost2010PropOp32
 70
     1
102
RTVSPost2010Prop33
280
     0
102
RTVSPost2010PropOp33
 70
     1
102
RTVSPost2010Prop34
280
     0
102
RTVSPost2010PropOp34
 70
     1
102
RTVSPost2010Prop35
280
     0
102
RTVSPost2010PropOp35
 70
     1
102
RTVSPost2010Prop36
280
     0
102
RTVSPost2010PropOp36
 70
     1
102
RTVSPost2010Prop37
 90
       50
102
RTVSPost2010PropOp37
 70
     1
102
RTVSPost2010Prop38
140
0.0
102
RTVSPost2010PropOp38
 70
     1
102
RTVSPost2010Prop39
140
1.0
102
RTVSPost2010PropOp39
 70
     1
102
RTVSPost2010Prop40
 90
        0
102
RTVSPost2010PropOp40
 70
     1
102
RTVSPost2010Prop41ColorIndex
 90
       18
102
RTVSPost2010Prop41ColorRGB
 90
        0
102
RTVSPost2010PropOp41
 70
     1
102
RTVSPost2010Prop42
 90
       50
102
RTVSPost2010PropOp42
 70
     1
102
RTVSPost2010Prop43
 90
        3
102
RTVSPost2010PropOp43
 70
     1
102
RTVSPost2010Prop44ColorIndex
 90
        5
102
RTVSPost2010Prop44ColorRGB
 90
      255
102
RTVSPost2010PropOp44
 70
     1
102
RTVSPost2010Prop45
280
     0
102
RTVSPost2010PropOp45
 70
     1
102
RTVSPost2010Prop46
 90
       50
102
RTVSPost2010PropOp46
 70
     1
102
RTVSPost2010Prop47
 90
       50
102
RTVSPost2010PropOp47
 70
     1
102
RTVSPost2010Prop48
 90
       50
102
RTVSPost2010PropOp48
 70
     1
102
RTVSPost2010Prop49
280
     0
102
RTVSPost2010PropOp49
 70
     1
102
RTVSPost2010Prop50
 90
       50
102
RTVSPost2010PropOp50
 70
     1
102
RTVSPost2010Prop51ColorIndex
 90
      256
102
RTVSPost2010Prop51ColorRGB
 90
-16777216
102
RTVSPost2010PropOp51
 70
     0
102
RTVSPost2010Prop52
140
1.0
102
RTVSPost2010PropOp52
 70
     0
102
RTVSPost2010Prop53
 90
        2
102
RTVSPost2010PropOp53
 70
     1
102
RTVSPost2010Prop54
  1
strokes_ogs.tif
102
RTVSPost2010PropOp54
 70
     1
102
RTVSPost2010Prop55
280
     0
102
RTVSPost2010PropOp55
 70
     1
102
RTVSPost2010Prop56
140
1.0
102
RTVSPost2010PropOp56
 70
     1
102
RTVSPost2010Prop57
140
1.0
102
RTVSPost2010PropOp57
 70
     1
  0
XRECORD
  5
475
102
{ACAD_REACTORS
330
474
102
}
330
474
100
AcDbXrecord
280
     1
102
RTVSPost2010Prop28
280
     0
102
RTVSPost2010PropOp28
 70
     1
102
RTVSPost2010Prop29
280
     1
102
RTVSPost2010PropOp29
 70
     1
102
RTVSPost2010Prop30
280
     1
102
RTVSPost2010PropOp30
 70
     1
102
RTVSPost2010Prop31
280
     0
102
RTVSPost2010PropOp31
 70
     1
102
RTVSPost2010Prop32
280
     0
102
RTVSPost2010PropOp32
 70
     1
102
RTVSPost2010Prop33
280
     0
102
RTVSPost2010PropOp33
 70
     1
102
RTVSPost2010Prop34
280
     0
102
RTVSPost2010PropOp34
 70
     1
102
RTVSPost2010Prop35
280
     0
102
RTVSPost2010PropOp35
 70
     1
102
RTVSPost2010Prop36
280
     0
102
RTVSPost2010PropOp36
 70
     1
102
RTVSPost2010Prop37
 90
       50
102
RTVSPost2010PropOp37
 70
     1
102
RTVSPost2010Prop38
140
0.0
102
RTVSPost2010PropOp38
 70
     1
102
RTVSPost2010Prop39
140
1.0
102
RTVSPost2010PropOp39
 70
     1
102
RTVSPost2010Prop40
 90
        0
102
RTVSPost2010PropOp40
 70
     1
102
RTVSPost2010Prop41ColorIndex
 90
       18
102
RTVSPost2010Prop41ColorRGB
 90
        0
102
RTVSPost2010PropOp41
 70
     1
102
RTVSPost2010Prop42
 90
       50
102
RTVSPost2010PropOp42
 70
     1
102
RTVSPost2010Prop43
 90
        3
102
RTVSPost2010PropOp43
 70
     1
102
RTVSPost2010Prop44ColorIndex
 90
        5
102
RTVSPost2010Prop44ColorRGB
 90
      255
102
RTVSPost2010PropOp44
 70
     1
102
RTVSPost2010Prop45
280
     0
102
RTVSPost2010PropOp45
 70
     1
102
RTVSPost2010Prop46
 90
       50
102
RTVSPost2010PropOp46
 70
     1
102
RTVSPost2010Prop47
 90
       50
102
RTVSPost2010PropOp47
 70
     1
102
RTVSPost2010Prop48
 90
       50
102
RTVSPost2010PropOp48
 70
     1
102
RTVSPost2010Prop49
280
     0
102
RTVSPost2010PropOp49
 70
     1
102
RTVSPost2010Prop50
 90
       50
102
RTVSPost2010PropOp50
 70
     1
102
RTVSPost2010Prop51ColorIndex
 90
      256
102
RTVSPost2010Prop51ColorRGB
 90
-16777216
102
RTVSPost2010PropOp51
 70
     0
102
RTVSPost2010Prop52
140
1.0
102
RTVSPost2010PropOp52
 70
     0
102
RTVSPost2010Prop53
 90
        2
102
RTVSPost2010PropOp53
 70
     1
102
RTVSPost2010Prop54
  1
strokes_ogs.tif
102
RTVSPost2010PropOp54
 70
     1
102
RTVSPost2010Prop55
280
     0
102
RTVSPost2010PropOp55
 70
     1
102
RTVSPost2010Prop56
140
1.0
102
RTVSPost2010PropOp56
 70
     1
102
RTVSPost2010Prop57
140
1.0
102
RTVSPost2010PropOp57
 70
     1
  0
XRECORD
  5
473
102
{ACAD_REACTORS
330
472
102
}
330
472
100
AcDbXrecord
280
     1
102
RTVSPost2010Prop28
280
     0
102
RTVSPost2010PropOp28
 70
     1
102
RTVSPost2010Prop29
280
     1
102
RTVSPost2010PropOp29
 70
     1
102
RTVSPost2010Prop30
280
     1
102
RTVSPost2010PropOp30
 70
     1
102
RTVSPost2010Prop31
280
     0
102
RTVSPost2010PropOp31
 70
     1
102
RTVSPost2010Prop32
280
     0
102
RTVSPost2010PropOp32
 70
     1
102
RTVSPost2010Prop33
280
     0
102
RTVSPost2010PropOp33
 70
     1
102
RTVSPost2010Prop34
280
     0
102
RTVSPost2010PropOp34
 70
     1
102
RTVSPost2010Prop35
280
     0
102
RTVSPost2010PropOp35
 70
     1
102
RTVSPost2010Prop36
280
     0
102
RTVSPost2010PropOp36
 70
     1
102
RTVSPost2010Prop37
 90
       50
102
RTVSPost2010PropOp37
 70
     1
102
RTVSPost2010Prop38
140
0.0
102
RTVSPost2010PropOp38
 70
     1
102
RTVSPost2010Prop39
140
1.0
102
RTVSPost2010PropOp39
 70
     1
102
RTVSPost2010Prop40
 90
        0
102
RTVSPost2010PropOp40
 70
     1
102
RTVSPost2010Prop41ColorIndex
 90
       18
102
RTVSPost2010Prop41ColorRGB
 90
        0
102
RTVSPost2010PropOp41
 70
     1
102
RTVSPost2010Prop42
 90
       50
102
RTVSPost2010PropOp42
 70
     1
102
RTVSPost2010Prop43
 90
        3
102
RTVSPost2010PropOp43
 70
     1
102
RTVSPost2010Prop44ColorIndex
 90
        5
102
RTVSPost2010Prop44ColorRGB
 90
      255
102
RTVSPost2010PropOp44
 70
     1
102
RTVSPost2010Prop45
280
     0
102
RTVSPost2010PropOp45
 70
     1
102
RTVSPost2010Prop46
 90
       50
102
RTVSPost2010PropOp46
 70
     1
102
RTVSPost2010Prop47
 90
       50
102
RTVSPost2010PropOp47
 70
     1
102
RTVSPost2010Prop48
 90
       50
102
RTVSPost2010PropOp48
 70
     1
102
RTVSPost2010Prop49
280
     0
102
RTVSPost2010PropOp49
 70
     1
102
RTVSPost2010Prop50
 90
       50
102
RTVSPost2010PropOp50
 70
     1
102
RTVSPost2010Prop51ColorIndex
 90
      256
102
RTVSPost2010Prop51ColorRGB
 90
-16777216
102
RTVSPost2010PropOp51
 70
     0
102
RTVSPost2010Prop52
140
1.0
102
RTVSPost2010PropOp52
 70
     0
102
RTVSPost2010Prop53
 90
        2
102
RTVSPost2010PropOp53
 70
     1
102
RTVSPost2010Prop54
  1
strokes_ogs.tif
102
RTVSPost2010PropOp54
 70
     1
102
RTVSPost2010Prop55
280
     0
102
RTVSPost2010PropOp55
 70
     1
102
RTVSPost2010Prop56
140
1.0
102
RTVSPost2010PropOp56
 70
     1
102
RTVSPost2010Prop57
140
1.0
102
RTVSPost2010PropOp57
 70
     1
  0
XRECORD
  5
46D
102
{ACAD_REACTORS
330
46C
102
}
330
46C
100
AcDbXrecord
280
     1
102
RTVSPost2010Prop28
280
     0
102
RTVSPost2010PropOp28
 70
     1
102
RTVSPost2010Prop29
280
     1
102
RTVSPost2010PropOp29
 70
     1
102
RTVSPost2010Prop30
280
     1
102
RTVSPost2010PropOp30
 70
     1
102
RTVSPost2010Prop31
280
     0
102
RTVSPost2010PropOp31
 70
     1
102
RTVSPost2010Prop32
280
     0
102
RTVSPost2010PropOp32
 70
     1
102
RTVSPost2010Prop33
280
     0
102
RTVSPost2010PropOp33
 70
     1
102
RTVSPost2010Prop34
280
     0
102
RTVSPost2010PropOp34
 70
     1
102
RTVSPost2010Prop35
280
     0
102
RTVSPost2010PropOp35
 70
     1
102
RTVSPost2010Prop36
280
     0
102
RTVSPost2010PropOp36
 70
     1
102
RTVSPost2010Prop37
 90
       50
102
RTVSPost2010PropOp37
 70
     1
102
RTVSPost2010Prop38
140
0.0
102
RTVSPost2010PropOp38
 70
     1
102
RTVSPost2010Prop39
140
1.0
102
RTVSPost2010PropOp39
 70
     1
102
RTVSPost2010Prop40
 90
        0
102
RTVSPost2010PropOp40
 70
     1
102
RTVSPost2010Prop41ColorIndex
 90
       18
102
RTVSPost2010Prop41ColorRGB
 90
        0
102
RTVSPost2010PropOp41
 70
     1
102
RTVSPost2010Prop42
 90
       50
102
RTVSPost2010PropOp42
 70
     1
102
RTVSPost2010Prop43
 90
        3
102
RTVSPost2010PropOp43
 70
     1
102
RTVSPost2010Prop44ColorIndex
 90
        5
102
RTVSPost2010Prop44ColorRGB
 90
      255
102
RTVSPost2010PropOp44
 70
     1
102
RTVSPost2010Prop45
280
     0
102
RTVSPost2010PropOp45
 70
     1
102
RTVSPost2010Prop46
 90
       50
102
RTVSPost2010PropOp46
 70
     1
102
RTVSPost2010Prop47
 90
       50
102
RTVSPost2010PropOp47
 70
     1
102
RTVSPost2010Prop48
 90
       50
102
RTVSPost2010PropOp48
 70
     1
102
RTVSPost2010Prop49
280
     0
102
RTVSPost2010PropOp49
 70
     1
102
RTVSPost2010Prop50
 90
       50
102
RTVSPost2010PropOp50
 70
     1
102
RTVSPost2010Prop51ColorIndex
 90
      256
102
RTVSPost2010Prop51ColorRGB
 90
-16777216
102
RTVSPost2010PropOp51
 70
     0
102
RTVSPost2010Prop52
140
1.0
102
RTVSPost2010PropOp52
 70
     0
102
RTVSPost2010Prop53
 90
        2
102
RTVSPost2010PropOp53
 70
     1
102
RTVSPost2010Prop54
  1
strokes_ogs.tif
102
RTVSPost2010PropOp54
 70
     1
102
RTVSPost2010Prop55
280
     0
102
RTVSPost2010PropOp55
 70
     1
102
RTVSPost2010Prop56
140
1.0
102
RTVSPost2010PropOp56
 70
     1
102
RTVSPost2010Prop57
140
1.0
102
RTVSPost2010PropOp57
 70
     1
  0
XRECORD
  5
46F
102
{ACAD_REACTORS
330
46E
102
}
330
46E
100
AcDbXrecord
280
     1
102
RTVSPost2010Prop28
280
     0
102
RTVSPost2010PropOp28
 70
     1
102
RTVSPost2010Prop29
280
     1
102
RTVSPost2010PropOp29
 70
     1
102
RTVSPost2010Prop30
280
     1
102
RTVSPost2010PropOp30
 70
     1
102
RTVSPost2010Prop31
280
     0
102
RTVSPost2010PropOp31
 70
     1
102
RTVSPost2010Prop32
280
     0
102
RTVSPost2010PropOp32
 70
     1
102
RTVSPost2010Prop33
280
     0
102
RTVSPost2010PropOp33
 70
     1
102
RTVSPost2010Prop34
280
     0
102
RTVSPost2010PropOp34
 70
     1
102
RTVSPost2010Prop35
280
     0
102
RTVSPost2010PropOp35
 70
     1
102
RTVSPost2010Prop36
280
     0
102
RTVSPost2010PropOp36
 70
     1
102
RTVSPost2010Prop37
 90
       50
102
RTVSPost2010PropOp37
 70
     1
102
RTVSPost2010Prop38
140
0.0
102
RTVSPost2010PropOp38
 70
     1
102
RTVSPost2010Prop39
140
1.0
102
RTVSPost2010PropOp39
 70
     1
102
RTVSPost2010Prop40
 90
        0
102
RTVSPost2010PropOp40
 70
     1
102
RTVSPost2010Prop41ColorIndex
 90
       18
102
RTVSPost2010Prop41ColorRGB
 90
        0
102
RTVSPost2010PropOp41
 70
     1
102
RTVSPost2010Prop42
 90
       50
102
RTVSPost2010PropOp42
 70
     1
102
RTVSPost2010Prop43
 90
        3
102
RTVSPost2010PropOp43
 70
     1
102
RTVSPost2010Prop44ColorIndex
 90
        5
102
RTVSPost2010Prop44ColorRGB
 90
      255
102
RTVSPost2010PropOp44
 70
     1
102
RTVSPost2010Prop45
280
     0
102
RTVSPost2010PropOp45
 70
     1
102
RTVSPost2010Prop46
 90
       50
102
RTVSPost2010PropOp46
 70
     1
102
RTVSPost2010Prop47
 90
       50
102
RTVSPost2010PropOp47
 70
     1
102
RTVSPost2010Prop48
 90
       50
102
RTVSPost2010PropOp48
 70
     1
102
RTVSPost2010Prop49
280
     0
102
RTVSPost2010PropOp49
 70
     1
102
RTVSPost2010Prop50
 90
       50
102
RTVSPost2010PropOp50
 70
     1
102
RTVSPost2010Prop51ColorIndex
 90
      256
102
RTVSPost2010Prop51ColorRGB
 90
-16777216
102
RTVSPost2010PropOp51
 70
     0
102
RTVSPost2010Prop52
140
1.0
102
RTVSPost2010PropOp52
 70
     0
102
RTVSPost2010Prop53
 90
        2
102
RTVSPost2010PropOp53
 70
     1
102
RTVSPost2010Prop54
  1
strokes_ogs.tif
102
RTVSPost2010PropOp54
 70
     1
102
RTVSPost2010Prop55
280
     0
102
RTVSPost2010PropOp55
 70
     1
102
RTVSPost2010Prop56
140
1.0
102
RTVSPost2010PropOp56
 70
     1
102
RTVSPost2010Prop57
140
1.0
102
RTVSPost2010PropOp57
 70
     1
  0
XRECORD
  5
45F
102
{ACAD_REACTORS
330
45E
102
}
330
45E
100
AcDbXrecord
280
     1
102
RTVSPost2010Prop28
280
     0
102
RTVSPost2010PropOp28
 70
     1
102
RTVSPost2010Prop29
280
     1
102
RTVSPost2010PropOp29
 70
     1
102
RTVSPost2010Prop30
280
     1
102
RTVSPost2010PropOp30
 70
     1
102
RTVSPost2010Prop31
280
     0
102
RTVSPost2010PropOp31
 70
     1
102
RTVSPost2010Prop32
280
     0
102
RTVSPost2010PropOp32
 70
     1
102
RTVSPost2010Prop33
280
     0
102
RTVSPost2010PropOp33
 70
     1
102
RTVSPost2010Prop34
280
     0
102
RTVSPost2010PropOp34
 70
     1
102
RTVSPost2010Prop35
280
     0
102
RTVSPost2010PropOp35
 70
     1
102
RTVSPost2010Prop36
280
     0
102
RTVSPost2010PropOp36
 70
     1
102
RTVSPost2010Prop37
 90
       50
102
RTVSPost2010PropOp37
 70
     1
102
RTVSPost2010Prop38
140
0.0
102
RTVSPost2010PropOp38
 70
     1
102
RTVSPost2010Prop39
140
1.0
102
RTVSPost2010PropOp39
 70
     1
102
RTVSPost2010Prop40
 90
        0
102
RTVSPost2010PropOp40
 70
     1
102
RTVSPost2010Prop41ColorIndex
 90
       18
102
RTVSPost2010Prop41ColorRGB
 90
        0
102
RTVSPost2010PropOp41
 70
     1
102
RTVSPost2010Prop42
 90
       50
102
RTVSPost2010PropOp42
 70
     1
102
RTVSPost2010Prop43
 90
        3
102
RTVSPost2010PropOp43
 70
     1
102
RTVSPost2010Prop44ColorIndex
 90
        5
102
RTVSPost2010Prop44ColorRGB
 90
      255
102
RTVSPost2010PropOp44
 70
     1
102
RTVSPost2010Prop45
280
     0
102
RTVSPost2010PropOp45
 70
     1
102
RTVSPost2010Prop46
 90
       50
102
RTVSPost2010PropOp46
 70
     1
102
RTVSPost2010Prop47
 90
       50
102
RTVSPost2010PropOp47
 70
     1
102
RTVSPost2010Prop48
 90
       50
102
RTVSPost2010PropOp48
 70
     1
102
RTVSPost2010Prop49
280
     0
102
RTVSPost2010PropOp49
 70
     1
102
RTVSPost2010Prop50
 90
       50
102
RTVSPost2010PropOp50
 70
     1
102
RTVSPost2010Prop51ColorIndex
 90
      256
102
RTVSPost2010Prop51ColorRGB
 90
-16777216
102
RTVSPost2010PropOp51
 70
     0
102
RTVSPost2010Prop52
140
1.0
102
RTVSPost2010PropOp52
 70
     0
102
RTVSPost2010Prop53
 90
        2
102
RTVSPost2010PropOp53
 70
     1
102
RTVSPost2010Prop54
  1
strokes_ogs.tif
102
RTVSPost2010PropOp54
 70
     1
102
RTVSPost2010Prop55
280
     0
102
RTVSPost2010PropOp55
 70
     1
102
RTVSPost2010Prop56
140
1.0
102
RTVSPost2010PropOp56
 70
     1
102
RTVSPost2010Prop57
140
1.0
102
RTVSPost2010PropOp57
 70
     1
  0
XRECORD
  5
451
102
{ACAD_REACTORS
330
450
102
}
330
450
100
AcDbXrecord
280
     1
102
RTVSPost2010Prop28
280
     0
102
RTVSPost2010PropOp28
 70
     1
102
RTVSPost2010Prop29
280
     1
102
RTVSPost2010PropOp29
 70
     1
102
RTVSPost2010Prop30
280
     1
102
RTVSPost2010PropOp30
 70
     1
102
RTVSPost2010Prop31
280
     0
102
RTVSPost2010PropOp31
 70
     1
102
RTVSPost2010Prop32
280
     0
102
RTVSPost2010PropOp32
 70
     1
102
RTVSPost2010Prop33
280
     0
102
RTVSPost2010PropOp33
 70
     1
102
RTVSPost2010Prop34
280
     0
102
RTVSPost2010PropOp34
 70
     1
102
RTVSPost2010Prop35
280
     0
102
RTVSPost2010PropOp35
 70
     1
102
RTVSPost2010Prop36
280
     0
102
RTVSPost2010PropOp36
 70
     1
102
RTVSPost2010Prop37
 90
       50
102
RTVSPost2010PropOp37
 70
     1
102
RTVSPost2010Prop38
140
0.0
102
RTVSPost2010PropOp38
 70
     1
102
RTVSPost2010Prop39
140
1.0
102
RTVSPost2010PropOp39
 70
     1
102
RTVSPost2010Prop40
 90
        0
102
RTVSPost2010PropOp40
 70
     1
102
RTVSPost2010Prop41ColorIndex
 90
       18
102
RTVSPost2010Prop41ColorRGB
 90
        0
102
RTVSPost2010PropOp41
 70
     1
102
RTVSPost2010Prop42
 90
       50
102
RTVSPost2010PropOp42
 70
     1
102
RTVSPost2010Prop43
 90
        3
102
RTVSPost2010PropOp43
 70
     1
102
RTVSPost2010Prop44ColorIndex
 90
        5
102
RTVSPost2010Prop44ColorRGB
 90
      255
102
RTVSPost2010PropOp44
 70
     1
102
RTVSPost2010Prop45
280
     0
102
RTVSPost2010PropOp45
 70
     1
102
RTVSPost2010Prop46
 90
       50
102
RTVSPost2010PropOp46
 70
     1
102
RTVSPost2010Prop47
 90
       50
102
RTVSPost2010PropOp47
 70
     1
102
RTVSPost2010Prop48
 90
       50
102
RTVSPost2010PropOp48
 70
     1
102
RTVSPost2010Prop49
280
     0
102
RTVSPost2010PropOp49
 70
     1
102
RTVSPost2010Prop50
 90
       50
102
RTVSPost2010PropOp50
 70
     1
102
RTVSPost2010Prop51ColorIndex
 90
      256
102
RTVSPost2010Prop51ColorRGB
 90
-16777216
102
RTVSPost2010PropOp51
 70
     0
102
RTVSPost2010Prop52
140
1.0
102
RTVSPost2010PropOp52
 70
     0
102
RTVSPost2010Prop53
 90
        2
102
RTVSPost2010PropOp53
 70
     1
102
RTVSPost2010Prop54
  1
strokes_ogs.tif
102
RTVSPost2010PropOp54
 70
     1
102
RTVSPost2010Prop55
280
     0
102
RTVSPost2010PropOp55
 70
     1
102
RTVSPost2010Prop56
140
1.0
102
RTVSPost2010PropOp56
 70
     1
102
RTVSPost2010Prop57
140
1.0
102
RTVSPost2010PropOp57
 70
     1
  0
XRECORD
  5
471
102
{ACAD_REACTORS
330
470
102
}
330
470
100
AcDbXrecord
280
     1
102
RTVSPost2010Prop28
280
     0
102
RTVSPost2010PropOp28
 70
     1
102
RTVSPost2010Prop29
280
     1
102
RTVSPost2010PropOp29
 70
     1
102
RTVSPost2010Prop30
280
     1
102
RTVSPost2010PropOp30
 70
     1
102
RTVSPost2010Prop31
280
     0
102
RTVSPost2010PropOp31
 70
     1
102
RTVSPost2010Prop32
280
     0
102
RTVSPost2010PropOp32
 70
     1
102
RTVSPost2010Prop33
280
     0
102
RTVSPost2010PropOp33
 70
     1
102
RTVSPost2010Prop34
280
     0
102
RTVSPost2010PropOp34
 70
     1
102
RTVSPost2010Prop35
280
     0
102
RTVSPost2010PropOp35
 70
     1
102
RTVSPost2010Prop36
280
     0
102
RTVSPost2010PropOp36
 70
     1
102
RTVSPost2010Prop37
 90
       50
102
RTVSPost2010PropOp37
 70
     1
102
RTVSPost2010Prop38
140
0.0
102
RTVSPost2010PropOp38
 70
     1
102
RTVSPost2010Prop39
140
1.0
102
RTVSPost2010PropOp39
 70
     1
102
RTVSPost2010Prop40
 90
        0
102
RTVSPost2010PropOp40
 70
     1
102
RTVSPost2010Prop41ColorIndex
 90
       18
102
RTVSPost2010Prop41ColorRGB
 90
        0
102
RTVSPost2010PropOp41
 70
     1
102
RTVSPost2010Prop42
 90
       50
102
RTVSPost2010PropOp42
 70
     1
102
RTVSPost2010Prop43
 90
        3
102
RTVSPost2010PropOp43
 70
     1
102
RTVSPost2010Prop44ColorIndex
 90
        5
102
RTVSPost2010Prop44ColorRGB
 90
      255
102
RTVSPost2010PropOp44
 70
     1
102
RTVSPost2010Prop45
280
     0
102
RTVSPost2010PropOp45
 70
     1
102
RTVSPost2010Prop46
 90
       50
102
RTVSPost2010PropOp46
 70
     1
102
RTVSPost2010Prop47
 90
       50
102
RTVSPost2010PropOp47
 70
     1
102
RTVSPost2010Prop48
 90
       50
102
RTVSPost2010PropOp48
 70
     1
102
RTVSPost2010Prop49
280
     0
102
RTVSPost2010PropOp49
 70
     1
102
RTVSPost2010Prop50
 90
       50
102
RTVSPost2010PropOp50
 70
     1
102
RTVSPost2010Prop51ColorIndex
 90
      256
102
RTVSPost2010Prop51ColorRGB
 90
-16777216
102
RTVSPost2010PropOp51
 70
     0
102
RTVSPost2010Prop52
140
1.0
102
RTVSPost2010PropOp52
 70
     0
102
RTVSPost2010Prop53
 90
        2
102
RTVSPost2010PropOp53
 70
     1
102
RTVSPost2010Prop54
  1
strokes_ogs.tif
102
RTVSPost2010PropOp54
 70
     1
102
RTVSPost2010Prop55
280
     0
102
RTVSPost2010PropOp55
 70
     1
102
RTVSPost2010Prop56
140
1.0
102
RTVSPost2010PropOp56
 70
     1
102
RTVSPost2010Prop57
140
1.0
102
RTVSPost2010PropOp57
 70
     1
  0
ENDSEC
  0
EOF
