  0
SECTION
  2
HEADER
  9
$ACADVER
  1
AC1024
  9
$ACADMAINTVER
 70
     6
  9
$DWGCODEPAGE
  3
ANSI_932
  9
$INSBASE
 10
0.0
 20
0.0
 30
0.0
  9
$EXTMIN
 10
-8910.0
 20
-6300.0
 30
0.0
  9
$EXTMAX
 10
8910.0
 20
6300.0
 30
0.0
  9
$LIMMIN
 10
-8910.0
 20
-6300.0
  9
$LIMMAX
 10
8910.0
 20
6300.0
  9
$ORTHOMODE
 70
     0
  9
$REGENMODE
 70
     1
  9
$FILLMODE
 70
     1
  9
$QTEXTMODE
 70
     0
  9
$MIRRTEXT
 70
     1
  9
$LTSCALE
 40
30.0
  9
$ATTMODE
 70
     1
  9
$TEXTSIZE
 40
2.5
  9
$TRACEWID
 40
1.0
  9
$TEXTSTYLE
  7
Standard
  9
$CLAYER
  8
0
  9
$CELTYPE
  6
ByLayer
  9
$CECOLOR
 62
   256
  9
$CELTSCALE
 40
1.0
  9
$DISPSILH
 70
     0
  9
$DIMSCALE
 40
1.0
  9
$DIMASZ
 40
2.5
  9
$DIMEXO
 40
0.625
  9
$DIMDLI
 40
3.75
  9
$DIMRND
 40
0.0
  9
$DIMDLE
 40
0.0
  9
$DIMEXE
 40
1.25
  9
$DIMTP
 40
0.0
  9
$DIMTM
 40
0.0
  9
$DIMTXT
 40
2.5
  9
$DIMCEN
 40
2.5
  9
$DIMTSZ
 40
0.0
  9
$DIMTOL
 70
     0
  9
$DIMLIM
 70
     0
  9
$DIMTIH
 70
     0
  9
$DIMTOH
 70
     0
  9
$DIMSE1
 70
     0
  9
$DIMSE2
 70
     0
  9
$DIMTAD
 70
     1
  9
$DIMZIN
 70
     8
  9
$DIMBLK
  1

  9
$DIMASO
 70
     1
  9
$DIMSHO
 70
     1
  9
$DIMPOST
  1

  9
$DIMAPOST
  1

  9
$DIMALT
 70
     0
  9
$DIMALTD
 70
     3
  9
$DIMALTF
 40
0.03937007874016
  9
$DIMLFAC
 40
1.0
  9
$DIMTOFL
 70
     1
  9
$DIMTVP
 40
0.0
  9
$DIMTIX
 70
     0
  9
$DIMSOXD
 70
     0
  9
$DIMSAH
 70
     0
  9
$DIMBLK1
  1

  9
$DIMBLK2
  1

  9
$DIMSTYLE
  2
ISO-25
  9
$DIMCLRD
 70
     0
  9
$DIMCLRE
 70
     0
  9
$DIMCLRT
 70
     0
  9
$DIMTFAC
 40
1.0
  9
$DIMGAP
 40
0.625
  9
$DIMJUST
 70
     0
  9
$DIMSD1
 70
     0
  9
$DIMSD2
 70
     0
  9
$DIMTOLJ
 70
     0
  9
$DIMTZIN
 70
     8
  9
$DIMALTZ
 70
     0
  9
$DIMALTTZ
 70
     0
  9
$DIMUPT
 70
     0
  9
$DIMDEC
 70
     2
  9
$DIMTDEC
 70
     2
  9
$DIMALTU
 70
     2
  9
$DIMALTTD
 70
     3
  9
$DIMTXSTY
  7
Standard
  9
$DIMAUNIT
 70
     0
  9
$DIMADEC
 70
     0
  9
$DIMALTRND
 40
0.0
  9
$DIMAZIN
 70
     0
  9
$DIMDSEP
 70
    44
  9
$DIMATFIT
 70
     3
  9
$DIMFRAC
 70
     0
  9
$DIMLDRBLK
  1

  9
$DIMLUNIT
 70
     2
  9
$DIMLWD
 70
    -2
  9
$DIMLWE
 70
    -2
  9
$DIMTMOVE
 70
     0
  9
$DIMFXL
 40
1.0
  9
$DIMFXLON
 70
     0
  9
$DIMJOGANG
 40
0.7853981633974483
  9
$DIMTFILL
 70
     0
  9
$DIMTFILLCLR
 70
     0
  9
$DIMARCSYM
 70
     0
  9
$DIMLTYPE
  6

  9
$DIMLTEX1
  6

  9
$DIMLTEX2
  6

  9
$DIMTXTDIRECTION
 70
     0
  9
$LUNITS
 70
     2
  9
$LUPREC
 70
     4
  9
$SKETCHINC
 40
1.0
  9
$FILLETRAD
 40
10.0
  9
$AUNITS
 70
     0
  9
$AUPREC
 70
     0
  9
$MENU
  1
.
  9
$ELEVATION
 40
0.0
  9
$PELEVATION
 40
0.0
  9
$THICKNESS
 40
0.0
  9
$LIMCHECK
 70
     0
  9
$CHAMFERA
 40
10.0
  9
$CHAMFERB
 40
10.0
  9
$CHAMFERC
 40
20.0
  9
$CHAMFERD
 40
0.0
  9
$SKPOLY
 70
     0
  9
$TDCREATE
 40
2459682.469624653
  9
$TDUCREATE
 40
2459682.094624653
  9
$TDUPDATE
 40
2459682.469624664
  9
$TDUUPDATE
 40
2459682.094624664
  9
$TDINDWG
 40
0.0000000116
  9
$TDUSRTIMER
 40
0.0000000116
  9
$USRTIMER
 70
     1
  9
$ANGBASE
 50
0.0
  9
$ANGDIR
 70
     0
  9
$PDMODE
 70
     0
  9
$PDSIZE
 40
0.0
  9
$PLINEWID
 40
0.0
  9
$SPLFRAME
 70
     0
  9
$SPLINETYPE
 70
     6
  9
$SPLINESEGS
 70
     8
  9
$HANDSEED
  5
577
  9
$SURFTAB1
 70
     6
  9
$SURFTAB2
 70
     6
  9
$SURFTYPE
 70
     6
  9
$SURFU
 70
     6
  9
$SURFV
 70
     6
  9
$UCSBASE
  2

  9
$UCSNAME
  2

  9
$UCSORG
 10
0.0
 20
0.0
 30
0.0
  9
$UCSXDIR
 10
1.0
 20
0.0
 30
0.0
  9
$UCSYDIR
 10
0.0
 20
1.0
 30
0.0
  9
$UCSORTHOREF
  2

  9
$UCSORTHOVIEW
 70
     0
  9
$UCSORGTOP
 10
0.0
 20
0.0
 30
0.0
  9
$UCSORGBOTTOM
 10
0.0
 20
0.0
 30
0.0
  9
$UCSORGLEFT
 10
0.0
 20
0.0
 30
0.0
  9
$UCSORGRIGHT
 10
0.0
 20
0.0
 30
0.0
  9
$UCSORGFRONT
 10
0.0
 20
0.0
 30
0.0
  9
$UCSORGBACK
 10
0.0
 20
0.0
 30
0.0
  9
$PUCSBASE
  2

  9
$PUCSNAME
  2

  9
$PUCSORG
 10
0.0
 20
0.0
 30
0.0
  9
$PUCSXDIR
 10
1.0
 20
0.0
 30
0.0
  9
$PUCSYDIR
 10
0.0
 20
1.0
 30
0.0
  9
$PUCSORTHOREF
  2

  9
$PUCSORTHOVIEW
 70
     0
  9
$PUCSORGTOP
 10
0.0
 20
0.0
 30
0.0
  9
$PUCSORGBOTTOM
 10
0.0
 20
0.0
 30
0.0
  9
$PUCSORGLEFT
 10
0.0
 20
0.0
 30
0.0
  9
$PUCSORGRIGHT
 10
0.0
 20
0.0
 30
0.0
  9
$PUCSORGFRONT
 10
0.0
 20
0.0
 30
0.0
  9
$PUCSORGBACK
 10
0.0
 20
0.0
 30
0.0
  9
$USERI1
 70
     0
  9
$USERI2
 70
     0
  9
$USERI3
 70
     0
  9
$USERI4
 70
     0
  9
$USERI5
 70
     0
  9
$USERR1
 40
0.0
  9
$USERR2
 40
0.0
  9
$USERR3
 40
0.0
  9
$USERR4
 40
0.0
  9
$USERR5
 40
0.0
  9
$WORLDVIEW
 70
     1
  9
$SHADEDGE
 70
     3
  9
$SHADEDIF
 70
    70
  9
$TILEMODE
 70
     1
  9
$MAXACTVP
 70
    64
  9
$PINSBASE
 10
0.0
 20
0.0
 30
0.0
  9
$PLIMCHECK
 70
     0
  9
$PEXTMIN
 10
1.000000000000000E+20
 20
1.000000000000000E+20
 30
1.000000000000000E+20
  9
$PEXTMAX
 10
-1.000000000000000E+20
 20
-1.000000000000000E+20
 30
-1.000000000000000E+20
  9
$PLIMMIN
 10
0.0
 20
0.0
  9
$PLIMMAX
 10
420.0
 20
297.0
  9
$UNITMODE
 70
     0
  9
$VISRETAIN
 70
     1
  9
$PLINEGEN
 70
     0
  9
$PSLTSCALE
 70
     1
  9
$TREEDEPTH
 70
  3020
  9
$CMLSTYLE
  2
Standard
  9
$CMLJUST
 70
     0
  9
$CMLSCALE
 40
20.0
  9
$PROXYGRAPHICS
 70
     1
  9
$MEASUREMENT
 70
     1
  9
$CELWEIGHT
370
    -1
  9
$ENDCAPS
280
     0
  9
$JOINSTYLE
280
     0
  9
$LWDISPLAY
290
     0
  9
$INSUNITS
 70
     4
  9
$HYPERLINKBASE
  1

  9
$STYLESHEET
  1

  9
$XEDIT
290
     1
  9
$CEPSNTYPE
380
     0
  9
$PSTYLEMODE
290
     1
  9
$FINGERPRINTGUID
  2
{59331B77-874D-4772-97C4-1FA5BC1C143A}
  9
$VERSIONGUID
  2
{FAEB1C32-E019-11D5-929B-00C0DF256EC4}
  9
$EXTNAMES
290
     1
  9
$PSVPSCALE
 40
0.0
  9
$OLESTARTUP
290
     0
  9
$SORTENTS
280
   127
  9
$INDEXCTL
280
     0
  9
$HIDETEXT
280
     1
  9
$XCLIPFRAME
280
     2
  9
$HALOGAP
280
     0
  9
$OBSCOLOR
 70
   257
  9
$OBSLTYPE
280
     0
  9
$INTERSECTIONDISPLAY
280
     0
  9
$INTERSECTIONCOLOR
 70
   257
  9
$DIMASSOC
280
     2
  9
$PROJECTNAME
  1

  9
$CAMERADISPLAY
290
     0
  9
$LENSLENGTH
 40
50.0
  9
$CAMERAHEIGHT
 40
0.0
  9
$STEPSPERSEC
 40
2.0
  9
$STEPSIZE
 40
6.0
  9
$3DDWFPREC
 40
2.0
  9
$PSOLWIDTH
 40
5.0
  9
$PSOLHEIGHT
 40
80.0
  9
$LOFTANG1
 40
1.570796326794897
  9
$LOFTANG2
 40
1.570796326794897
  9
$LOFTMAG1
 40
0.0
  9
$LOFTMAG2
 40
0.0
  9
$LOFTPARAM
 70
     7
  9
$LOFTNORMALS
280
     1
  9
$LATITUDE
 40
37.795
  9
$LONGITUDE
 40
-122.394
  9
$NORTHDIRECTION
 40
0.0
  9
$TIMEZONE
 70
 -8000
  9
$LIGHTGLYPHDISPLAY
280
     1
  9
$TILEMODELIGHTSYNCH
280
     1
  9
$SOLIDHIST
280
     1
  9
$SHOWHIST
280
     1
  9
$DWFFRAME
280
     2
  9
$DGNFRAME
280
     2
  9
$REALWORLDSCALE
290
     1
  9
$INTERFERECOLOR
 62
   256
  9
$CSHADOW
280
     0
  9
$SHADOWPLANELOCATION
 40
0.0
  0
ENDSEC
  0
SECTION
  2
CLASSES
  0
CLASS
  1
ACDBDICTIONARYWDFLT
  2
AcDbDictionaryWithDefault
  3
ObjectDBX Classes
 90
        0
 91
        4
280
     0
281
     0
  0
CLASS
  1
VISUALSTYLE
  2
AcDbVisualStyle
  3
ObjectDBX Classes
 90
     4095
 91
        4
280
     0
281
     0
  0
CLASS
  1
MATERIAL
  2
AcDbMaterial
  3
ObjectDBX Classes
 90
     1153
 91
        4
280
     0
281
     0
  0
ENDSEC
  0
SECTION
  2
TABLES
  0
TABLE
  2
VPORT
  5
8
330
0
100
AcDbSymbolTable
 70
     1
  0
VPORT
  5
29
330
8
100
AcDbSymbolTableRecord
100
AcDbViewportTableRecord
  2
*Active
 70
     0
 10
0.0
 20
0.0
 11
1.0
 21
1.0
 12
0.0
 22
0.0
 13
0.0
 23
0.0
 14
10.0
 24
10.0
 15
10.0
 25
10.0
 16
0.0
 26
0.0
 36
1.0
 17
0.0
 27
0.0
 37
0.0
 40
13860.0
 41
1.414285714285714
 42
50.0
 43
0.0
 44
0.0
 50
0.0
 51
0.0
 71
     0
 72
 10000
 73
     1
 74
     3
 75
     0
 76
     0
 77
     0
 78
     0
281
     0
 65
     1
110
0.0
120
0.0
130
0.0
111
1.0
121
0.0
131
0.0
112
0.0
122
1.0
132
0.0
 79
     0
146
0.0
 60
     3
 61
     5
292
     1
282
     1
141
0.0
142
0.0
 63
   250
  0
ENDTAB
  0
TABLE
  2
LTYPE
  5
5
330
0
100
AcDbSymbolTable
 70
     5
  0
LTYPE
  5
14
330
5
100
AcDbSymbolTableRecord
100
AcDbLinetypeTableRecord
  2
ByBlock
 70
     0
  3

 72
    65
 73
     0
 40
0.0
  0
LTYPE
  5
15
330
5
100
AcDbSymbolTableRecord
100
AcDbLinetypeTableRecord
  2
ByLayer
 70
     0
  3

 72
    65
 73
     0
 40
0.0
  0
LTYPE
  5
16
330
5
100
AcDbSymbolTableRecord
100
AcDbLinetypeTableRecord
  2
Continuous
 70
     0
  3
Solid line
 72
    65
 73
     0
 40
0.0
  0
LTYPE
  5
3F
330
5
100
AcDbSymbolTableRecord
100
AcDbLinetypeTableRecord
  2
JWW_HOJO
 70
     0
  3
  -   -   -   -   -   -   -   - 
 72
    65
 73
     2
 40
1.693333333333333
 49
-1.27
 74
     0
 49
0.4233333333333333
 74
     0
  0
LTYPE
  5
40
330
5
100
AcDbSymbolTableRecord
100
AcDbLinetypeTableRecord
  2
JWW_CENTER1
 70
     0
  3
-----  --  ----------  --  -----
 72
    65
 73
     4
 40
6.773333333333333
 49
4.233333333333333
 74
     0
 49
-0.8466666666666667
 74
     0
 49
0.8466666666666667
 74
     0
 49
-0.8466666666666667
 74
     0
  0
LTYPE
  5
41
330
5
100
AcDbSymbolTableRecord
100
AcDbLinetypeTableRecord
  2
JWW_DASHED1
 70
     0
  3
-  --  --  --  --  --  --  --  -
 72
    65
 73
     2
 40
1.693333333333333
 49
0.8466666666666667
 74
     0
 49
-0.8466666666666667
 74
     0
  0
LTYPE
  5
42
330
5
100
AcDbSymbolTableRecord
100
AcDbLinetypeTableRecord
  2
JWW_DASHED2
 70
     0
  3
--    ----    ----    ----    --
 72
    65
 73
     2
 40
3.386666666666667
 49
1.693333333333333
 74
     0
 49
-1.693333333333333
 74
     0
  0
ENDTAB
  0
TABLE
  2
LAYER
  5
2
330
0
100
AcDbSymbolTable
 70
    22
  0
LAYER
  5
10
330
2
100
AcDbSymbolTableRecord
100
AcDbLayerTableRecord
  2
0
 70
     0
 62
     7
  6
Continuous
370
    -3
390
F
347
3E
  0
LAYER
  5
43
330
2
100
AcDbSymbolTableRecord
100
AcDbLayerTableRecord
  2
0-B_寸法
 70
     0
 62
     7
  6
Continuous
370
    -3
390
F
347
3E
  0
LAYER
  5
44
330
2
100
AcDbSymbolTableRecord
100
AcDbLayerTableRecord
  2
0-A_文字
 70
     0
 62
     7
  6
Continuous
370
    -3
390
F
347
3E
  0
LAYER
  5
45
330
2
100
AcDbSymbolTableRecord
100
AcDbLayerTableRecord
  2
0-0_補助線
 70
     0
 62
     7
  6
Continuous
370
    -3
390
F
347
3E
  0
LAYER
  5
46
330
2
100
AcDbSymbolTableRecord
100
AcDbLayerTableRecord
  2
0-6_扉
 70
     0
 62
     7
  6
Continuous
370
    -3
390
F
347
3E
  0
LAYER
  5
47
330
2
100
AcDbSymbolTableRecord
100
AcDbLayerTableRecord
  2
0-7_金物
 70
     0
 62
     7
  6
Continuous
370
    -3
390
F
347
3E
  0
LAYER
  5
48
330
2
100
AcDbSymbolTableRecord
100
AcDbLayerTableRecord
  2
0-C_ハッチ
 70
     0
 62
     7
  6
Continuous
370
    -3
390
F
347
3E
  0
LAYER
  5
49
330
2
100
AcDbSymbolTableRecord
100
AcDbLayerTableRecord
  2
0-4_枠
 70
     0
 62
     7
  6
Continuous
370
    -3
390
F
347
3E
  0
LAYER
  5
4A
330
2
100
AcDbSymbolTableRecord
100
AcDbLayerTableRecord
  2
0-1_通り芯
 70
     0
 62
     7
  6
Continuous
370
    -3
390
F
347
3E
  0
LAYER
  5
4B
330
2
100
AcDbSymbolTableRecord
100
AcDbLayerTableRecord
  2
0-3_仕上げ
 70
     0
 62
     7
  6
Continuous
370
    -3
390
F
347
3E
  0
LAYER
  5
4C
330
2
100
AcDbSymbolTableRecord
100
AcDbLayerTableRecord
  2
0-2_柱
 70
     0
 62
     7
  6
Continuous
370
    -3
390
F
347
3E
  0
LAYER
  5
4D
330
2
100
AcDbSymbolTableRecord
100
AcDbLayerTableRecord
  2
1-6_扉
 70
     0
 62
     7
  6
Continuous
370
    -3
390
F
347
3E
  0
LAYER
  5
4E
330
2
100
AcDbSymbolTableRecord
100
AcDbLayerTableRecord
  2
1-4_枠
 70
     0
 62
     7
  6
Continuous
370
    -3
390
F
347
3E
  0
LAYER
  5
4F
330
2
100
AcDbSymbolTableRecord
100
AcDbLayerTableRecord
  2
1-B_寸法
 70
     0
 62
     7
  6
Continuous
370
    -3
390
F
347
3E
  0
LAYER
  5
50
330
2
100
AcDbSymbolTableRecord
100
AcDbLayerTableRecord
  2
1-A_文字
 70
     0
 62
     7
  6
Continuous
370
    -3
390
F
347
3E
  0
LAYER
  5
51
330
2
100
AcDbSymbolTableRecord
100
AcDbLayerTableRecord
  2
1-7_金物
 70
     0
 62
     7
  6
Continuous
370
    -3
390
F
347
3E
  0
LAYER
  5
52
330
2
100
AcDbSymbolTableRecord
100
AcDbLayerTableRecord
  2
1-0_補助線
 70
     0
 62
     7
  6
Continuous
370
    -3
390
F
347
3E
  0
LAYER
  5
53
330
2
100
AcDbSymbolTableRecord
100
AcDbLayerTableRecord
  2
1-3_仕上げ
 70
     0
 62
     7
  6
Continuous
370
    -3
390
F
347
3E
  0
LAYER
  5
54
330
2
100
AcDbSymbolTableRecord
100
AcDbLayerTableRecord
  2
1-1_通り芯
 70
     0
 62
     7
  6
Continuous
370
    -3
390
F
347
3E
  0
LAYER
  5
55
330
2
100
AcDbSymbolTableRecord
100
AcDbLayerTableRecord
  2
F-1_枠
 70
     0
 62
     7
  6
Continuous
370
    -3
390
F
347
3E
  0
LAYER
  5
56
330
2
100
AcDbSymbolTableRecord
100
AcDbLayerTableRecord
  2
戸当り
 70
     0
 62
     7
  6
Continuous
370
    -3
390
F
347
3E
  0
LAYER
  5
57
330
2
100
AcDbSymbolTableRecord
100
AcDbLayerTableRecord
  2
0-5_ケーシング
 70
     0
 62
     7
  6
Continuous
370
    -3
390
F
347
3E
  0
ENDTAB
  0
TABLE
  2
STYLE
  5
3
330
0
100
AcDbSymbolTable
 70
     1
  0
STYLE
  5
11
330
3
100
AcDbSymbolTableRecord
100
AcDbTextStyleTableRecord
  2
Standard
 70
     0
 40
0.0
 41
1.0
 50
0.0
 71
     0
 42
2.5
  3
txt
  4

  0
ENDTAB
  0
TABLE
  2
VIEW
  5
6
330
0
100
AcDbSymbolTable
 70
     0
  0
ENDTAB
  0
TABLE
  2
UCS
  5
7
330
0
100
AcDbSymbolTable
 70
     0
  0
ENDTAB
  0
TABLE
  2
APPID
  5
9
330
0
100
AcDbSymbolTable
 70
     1
  0
APPID
  5
12
330
9
100
AcDbSymbolTableRecord
100
AcDbRegAppTableRecord
  2
ACAD
 70
     0
  0
ENDTAB
  0
TABLE
  2
DIMSTYLE
  5
A
330
0
100
AcDbSymbolTable
 70
     1
100
AcDbDimStyleTable
  0
DIMSTYLE
105
27
330
A
100
AcDbSymbolTableRecord
100
AcDbDimStyleTableRecord
  2
ISO-25
 70
     0
 41
2.5
 42
0.625
 43
3.75
 44
1.25
 73
     0
 74
     0
 77
     1
 78
     8
140
2.5
141
2.5
143
0.03937007874016
147
0.625
171
     3
172
     1
178
     0
271
     2
272
     2
274
     3
278
    44
283
     0
284
     8
340
11
  0
ENDTAB
  0
TABLE
  2
BLOCK_RECORD
  5
1
330
0
100
AcDbSymbolTable
 70
     1
  0
BLOCK_RECORD
  5
1F
330
1
100
AcDbSymbolTableRecord
100
AcDbBlockTableRecord
  2
*Model_Space
340
22
 70
     0
280
     1
281
     0
  0
BLOCK_RECORD
  5
1B
330
1
100
AcDbSymbolTableRecord
100
AcDbBlockTableRecord
  2
*Paper_Space
340
1E
 70
     0
280
     1
281
     0
  0
BLOCK_RECORD
  5
23
330
1
100
AcDbSymbolTableRecord
100
AcDbBlockTableRecord
  2
*Paper_Space0
340
26
 70
     0
280
     1
281
     0
  0
ENDTAB
  0
ENDSEC
  0
SECTION
  2
BLOCKS
  0
BLOCK
  5
20
330
1F
100
AcDbEntity
  8
0
100
AcDbBlockBegin
  2
*Model_Space
 70
     0
 10
0.0
 20
0.0
 30
0.0
  3
*Model_Space
  1

  0
ENDBLK
  5
21
330
1F
100
AcDbEntity
  8
0
100
AcDbBlockEnd
  0
BLOCK
  5
1C
330
1B
100
AcDbEntity
 67
     1
  8
0
100
AcDbBlockBegin
  2
*Paper_Space
 70
     0
 10
0.0
 20
0.0
 30
0.0
  3
*Paper_Space
  1

  0
ENDBLK
  5
1D
330
1B
100
AcDbEntity
 67
     1
  8
0
100
AcDbBlockEnd
  0
BLOCK
  5
24
330
23
100
AcDbEntity
  8
0
100
AcDbBlockBegin
  2
*Paper_Space0
 70
     0
 10
0.0
 20
0.0
 30
0.0
  3
*Paper_Space0
  1

  0
ENDBLK
  5
25
330
23
100
AcDbEntity
  8
0
100
AcDbBlockEnd
  0
ENDSEC
  0
SECTION
  2
ENTITIES
  0
MTEXT
  5
58
330
1F
100
AcDbEntity
  8
0-B_寸法
  6
Continuous
 62
     7
370
   211
100
AcDbMText
 10
-1723.217896424571
 20
-3409.771213271376
 30
0.0
 40
97.15499999999999
 41
127.5
 46
0.0
 71
     7
 72
     1
  1
{\fＭＳ ゴシック|b0|i0|c128|p49;12}
 11
6.123031769111886E-17
 21
1.0
 31
0.0
 73
     1
 44
1.0
  0
MTEXT
  5
59
330
1F
100
AcDbEntity
  8
0-B_寸法
  6
Continuous
 62
     7
370
   211
100
AcDbMText
 10
-2143.217896424571
 20
-3134.318713271375
 30
0.0
 40
99.06
 41
195.0
 46
0.0
 71
     7
 72
     1
  1
{\fＭＳ ゴシック|b0|i0|c128|p49;8.5}
 11
6.123031769111886E-17
 21
1.0
 31
0.0
 73
     1
 44
1.0
  0
MTEXT
  5
5A
330
1F
100
AcDbEntity
  8
0-B_寸法
  6
Continuous
 62
     7
370
   211
100
AcDbMText
 10
-1723.217896424571
 20
-2321.433258725941
 30
0.0
 40
101.8309090909091
 41
735.0
 46
0.0
 71
     7
 72
     1
  1
{\fＭＳ ゴシック|b0|i0|c128|p49;枠外＝2,035}
 11
6.123031769111886E-17
 21
1.0
 31
0.0
 73
     1
 44
1.0
  0
MTEXT
  5
5B
330
1F
100
AcDbEntity
  8
0-B_寸法
  6
Continuous
 62
     7
370
   211
100
AcDbMText
 10
-1933.217896424571
 20
-2321.433258725941
 30
0.0
 40
101.8309090909091
 41
735.0
 46
0.0
 71
     7
 72
     1
  1
{\fＭＳ ゴシック|b0|i0|c128|p49;枠内＝2,005}
 11
6.123031769111886E-17
 21
1.0
 31
0.0
 73
     1
 44
1.0
  0
MTEXT
  5
5C
330
1F
100
AcDbEntity
  8
0-B_寸法
  6
Continuous
 62
     7
370
   211
100
AcDbMText
 10
-2143.217896424571
 20
-2321.433258725941
 30
0.0
 40
101.8309090909091
 41
735.0
 46
0.0
 71
     7
 72
     1
  1
{\fＭＳ ゴシック|b0|i0|c128|p49;ＤＨ＝1,983}
 11
6.123031769111886E-17
 21
1.0
 31
0.0
 73
     1
 44
1.0
  0
MTEXT
  5
5D
330
1F
100
AcDbEntity
  8
0-B_寸法
  6
Continuous
 62
     7
370
   211
100
AcDbMText
 10
-2143.217896424571
 20
-1110.342462638992
 30
0.0
 40
100.0125
 41
262.5
 46
0.0
 71
     7
 72
     1
  1
{\fＭＳ ゴシック|b0|i0|c128|p49;13.5}
 11
6.123031769111886E-17
 21
1.0
 31
0.0
 73
     1
 44
1.0
  0
MTEXT
  5
5E
330
1F
100
AcDbEntity
  8
0-B_寸法
  6
Continuous
 62
     7
370
   211
100
AcDbMText
 10
-2353.217896424571
 20
-1043.318712638993
 30
0.0
 40
99.06
 41
195.0
 46
0.0
 71
     7
 72
     1
  1
{\fＭＳ ゴシック|b0|i0|c128|p49;6.3}
 11
6.123031769111886E-17
 21
1.0
 31
0.0
 73
     1
 44
1.0
  0
MTEXT
  5
5F
330
1F
100
AcDbEntity
  8
0-B_寸法
  6
Continuous
 62
     7
370
   211
100
AcDbMText
 10
-1933.217896424571
 20
-724.021213271399
 30
0.0
 40
97.15499999999967
 41
127.4999999999996
 46
0.0
 71
     7
 72
     1
  1
{\fＭＳ ゴシック|b0|i0|c128|p49;30}
 11
6.123031769111886E-17
 21
1.0
 31
0.0
 73
     1
 44
1.0
  0
LINE
  5
60
330
1F
100
AcDbEntity
  8
0-B_寸法
  6
Continuous
 62
   120
370
     5
100
AcDbLine
 10
-2128.217896424571
 20
-3135.848713271376
 30
0.0
 11
-2128.217896424571
 21
-3186.848713271375
 31
0.0
  0
LWPOLYLINE
  5
61
330
1F
100
AcDbEntity
  8
0-B_寸法
  6
Continuous
 62
     7
370
     9
100
AcDbPolyline
 90
        4
 70
     1
 43
3.0
 10
-2126.717896424571
 20
-3186.848713271375
 42
0.4142135623731
 10
-2128.217896424571
 20
-3185.348713271375
 42
0.4142135623731
 10
-2129.717896424571
 20
-3186.848713271375
 42
0.4142135623731
 10
-2128.217896424571
 20
-3188.348713271375
 42
0.4142135623731
  0
LWPOLYLINE
  5
62
330
1F
100
AcDbEntity
  8
0-B_寸法
  6
Continuous
 62
     7
370
     9
100
AcDbPolyline
 90
        4
 70
     1
 43
3.0
 10
-2126.717896424571
 20
-3135.848713271376
 42
0.4142135623731
 10
-2128.217896424571
 20
-3134.348713271376
 42
0.4142135623731
 10
-2129.717896424571
 20
-3135.848713271376
 42
0.4142135623731
 10
-2128.217896424571
 20
-3137.348713271375
 42
0.4142135623731
  0
LINE
  5
63
330
1F
100
AcDbEntity
  8
0-B_寸法
  6
Continuous
 62
   120
370
     5
100
AcDbLine
 10
-2128.217896424571
 20
-3135.848713271376
 30
0.0
 11
-2548.217896424571
 21
-3135.848713271376
 31
0.0
  0
LINE
  5
64
330
1F
100
AcDbEntity
  8
0-B_寸法
  6
Continuous
 62
   120
370
     5
100
AcDbLine
 10
-2128.217896424571
 20
-819.8487126389922
 30
0.0
 11
-2128.217896424571
 21
-3135.848713271376
 31
0.0
  0
LWPOLYLINE
  5
65
330
1F
100
AcDbEntity
  8
0-B_寸法
  6
Continuous
 62
     7
370
     9
100
AcDbPolyline
 90
        4
 70
     1
 43
3.0
 10
-2126.717896424571
 20
-819.8487126389922
 42
0.4142135623731
 10
-2128.217896424571
 20
-818.3487126389922
 42
0.4142135623731
 10
-2129.717896424571
 20
-819.8487126389922
 42
0.4142135623731
 10
-2128.217896424571
 20
-821.3487126389922
 42
0.4142135623731
  0
LINE
  5
66
330
1F
100
AcDbEntity
  8
0-B_寸法
  6
Continuous
 62
   120
370
     5
100
AcDbLine
 10
-2128.217896424571
 20
-738.8487132713989
 30
0.0
 11
-2128.217896424571
 21
-819.8487126389922
 31
0.0
  0
LINE
  5
67
330
1F
100
AcDbEntity
  8
0-B_寸法
  6
Continuous
 62
   120
370
     5
100
AcDbLine
 10
-2128.217896424571
 20
-819.8487126389922
 30
0.0
 11
-2548.217896424571
 21
-819.8487126389922
 31
0.0
  0
LWPOLYLINE
  5
68
330
1F
100
AcDbEntity
  8
0-B_寸法
  6
Continuous
 62
     7
370
     9
100
AcDbPolyline
 90
        4
 70
     1
 43
3.0
 10
-2336.717896424571
 20
-819.8487126389922
 42
0.4142135623731
 10
-2338.217896424571
 20
-818.3487126389922
 42
0.4142135623731
 10
-2339.717896424571
 20
-819.8487126389922
 42
0.4142135623731
 10
-2338.217896424571
 20
-821.3487126389922
 42
0.4142135623731
  0
LINE
  5
69
330
1F
100
AcDbEntity
  8
0-B_寸法
  6
Continuous
 62
   120
370
     5
100
AcDbLine
 10
-2338.217896424571
 20
-782.0487129868154
 30
0.0
 11
-2338.217896424571
 21
-819.8487126389922
 31
0.0
  0
LINE
  5
6A
330
1F
100
AcDbEntity
  8
0-B_寸法
  6
Continuous
 62
   120
370
     5
100
AcDbLine
 10
-2338.217896424571
 20
-782.0487129868154
 30
0.0
 11
-2548.217896424571
 21
-782.0487129868154
 31
0.0
  0
LWPOLYLINE
  5
6B
330
1F
100
AcDbEntity
  8
0-B_寸法
  6
Continuous
 62
     7
370
     9
100
AcDbPolyline
 90
        4
 70
     1
 43
3.0
 10
-2336.717896424571
 20
-782.0487129868154
 42
0.4142135623731
 10
-2338.217896424571
 20
-780.5487129868154
 42
0.4142135623731
 10
-2339.717896424571
 20
-782.0487129868154
 42
0.4142135623731
 10
-2338.217896424571
 20
-783.5487129868154
 42
0.4142135623731
  0
LWPOLYLINE
  5
6C
330
1F
100
AcDbEntity
  8
0-B_寸法
  6
Continuous
 62
     7
370
     9
100
AcDbPolyline
 90
        4
 70
     1
 43
3.0
 10
-1706.717896424571
 20
-558.8487132713985
 42
0.4142135623731
 10
-1708.217896424571
 20
-557.3487132713984
 42
0.4142135623731
 10
-1709.717896424571
 20
-558.8487132713985
 42
0.4142135623731
 10
-1708.217896424571
 20
-560.3487132713985
 42
0.4142135623731
  0
LINE
  5
6D
330
1F
100
AcDbEntity
  8
0-B_寸法
  6
Continuous
 62
   120
370
     5
100
AcDbLine
 10
-1708.217896424571
 20
-3186.848713271375
 30
0.0
 11
-1708.217896424571
 21
-558.8487132713985
 31
0.0
  0
LINE
  5
6E
330
1F
100
AcDbEntity
  8
0-B_寸法
  6
Continuous
 62
   120
370
     5
100
AcDbLine
 10
-1708.217896424571
 20
-3258.848713271375
 30
0.0
 11
-2548.217896424571
 21
-3258.848713271375
 31
0.0
  0
LWPOLYLINE
  5
6F
330
1F
100
AcDbEntity
  8
0-B_寸法
  6
Continuous
 62
     7
370
     9
100
AcDbPolyline
 90
        4
 70
     1
 43
3.0
 10
-1706.717896424571
 20
-3186.848713271375
 42
0.4142135623731
 10
-1708.217896424571
 20
-3185.348713271375
 42
0.4142135623731
 10
-1709.717896424571
 20
-3186.848713271375
 42
0.4142135623731
 10
-1708.217896424571
 20
-3188.348713271375
 42
0.4142135623731
  0
LWPOLYLINE
  5
70
330
1F
100
AcDbEntity
  8
0-B_寸法
  6
Continuous
 62
     7
370
     9
100
AcDbPolyline
 90
        4
 70
     1
 43
3.0
 10
-1706.717896424571
 20
-3258.848713271375
 42
0.4142135623731
 10
-1708.217896424571
 20
-3257.348713271375
 42
0.4142135623731
 10
-1709.717896424571
 20
-3258.848713271375
 42
0.4142135623731
 10
-1708.217896424571
 20
-3260.348713271375
 42
0.4142135623731
  0
LINE
  5
71
330
1F
100
AcDbEntity
  8
0-B_寸法
  6
Continuous
 62
   120
370
     5
100
AcDbLine
 10
-1708.217896424571
 20
-3258.848713271375
 30
0.0
 11
-1708.217896424571
 21
-3186.848713271375
 31
0.0
  0
LINE
  5
72
330
1F
100
AcDbEntity
  8
0-B_寸法
  6
Continuous
 62
   120
370
     5
100
AcDbLine
 10
-1708.217896424571
 20
-558.8487132713985
 30
0.0
 11
-2548.217896424571
 21
-558.8487132713985
 31
0.0
  0
LWPOLYLINE
  5
73
330
1F
100
AcDbEntity
  8
0-B_寸法
  6
Continuous
 62
     7
370
     9
100
AcDbPolyline
 90
        4
 70
     1
 43
3.0
 10
-1916.717896424571
 20
-558.8487132713985
 42
0.4142135623731
 10
-1918.217896424571
 20
-557.3487132713984
 42
0.4142135623731
 10
-1919.717896424571
 20
-558.8487132713985
 42
0.4142135623731
 10
-1918.217896424571
 20
-560.3487132713985
 42
0.4142135623731
  0
LINE
  5
74
330
1F
100
AcDbEntity
  8
0-B_寸法
  6
Continuous
 62
   120
370
     5
100
AcDbLine
 10
-1918.217896424571
 20
-558.8487132713985
 30
0.0
 11
-1918.217896424571
 21
-738.8487132713989
 31
0.0
  0
LWPOLYLINE
  5
75
330
1F
100
AcDbEntity
  8
0-B_寸法
  6
Continuous
 62
     7
370
     9
100
AcDbPolyline
 90
        4
 70
     1
 43
3.0
 10
-1916.717896424571
 20
-738.8487132713989
 42
0.4142135623731
 10
-1918.217896424571
 20
-737.3487132713989
 42
0.4142135623731
 10
-1919.717896424571
 20
-738.8487132713989
 42
0.4142135623731
 10
-1918.217896424571
 20
-740.3487132713989
 42
0.4142135623731
  0
LINE
  5
76
330
1F
100
AcDbEntity
  8
0-B_寸法
  6
Continuous
 62
   120
370
     5
100
AcDbLine
 10
-1708.217896424571
 20
-3186.848713271375
 30
0.0
 11
-2548.217896424571
 21
-3186.848713271375
 31
0.0
  0
LWPOLYLINE
  5
77
330
1F
100
AcDbEntity
  8
0-B_寸法
  6
Continuous
 62
     7
370
     9
100
AcDbPolyline
 90
        4
 70
     1
 43
3.0
 10
-1916.717896424571
 20
-3186.848713271375
 42
0.4142135623731
 10
-1918.217896424571
 20
-3185.348713271375
 42
0.4142135623731
 10
-1919.717896424571
 20
-3186.848713271375
 42
0.4142135623731
 10
-1918.217896424571
 20
-3188.348713271375
 42
0.4142135623731
  0
LINE
  5
78
330
1F
100
AcDbEntity
  8
0-B_寸法
  6
Continuous
 62
   120
370
     5
100
AcDbLine
 10
-1918.217896424571
 20
-738.8487132713989
 30
0.0
 11
-2548.217896424571
 21
-738.8487132713989
 31
0.0
  0
LWPOLYLINE
  5
79
330
1F
100
AcDbEntity
  8
0-B_寸法
  6
Continuous
 62
     7
370
     9
100
AcDbPolyline
 90
        4
 70
     1
 43
3.0
 10
-2126.717896424571
 20
-738.8487132713989
 42
0.4142135623731
 10
-2128.217896424571
 20
-737.3487132713989
 42
0.4142135623731
 10
-2129.717896424571
 20
-738.8487132713989
 42
0.4142135623731
 10
-2128.217896424571
 20
-740.3487132713989
 42
0.4142135623731
  0
LINE
  5
7A
330
1F
100
AcDbEntity
  8
0-B_寸法
  6
Continuous
 62
   120
370
     5
100
AcDbLine
 10
-1918.217896424571
 20
-3186.848713271375
 30
0.0
 11
-1918.217896424571
 21
-3168.848713271375
 31
0.0
  0
LINE
  5
7B
330
1F
100
AcDbEntity
  8
0-B_寸法
  6
Continuous
 62
   120
370
     5
100
AcDbLine
 10
-1918.217896424571
 20
-3168.848713271375
 30
0.0
 11
-1918.217896424571
 21
-738.8487132713989
 31
0.0
  0
MTEXT
  5
7C
330
1F
100
AcDbEntity
  8
0-A_文字
  6
Continuous
 62
     7
370
     9
100
AcDbMText
 10
-3870.387860862061
 20
-64.21185141956076
 30
0.0
 40
91.44
 41
600.0
 46
0.0
 71
     7
 72
     1
  1
{\fＭＳ ゴシック|b0|i0|c128|p49;■縦断面図}
 73
     1
 44
1.0
  0
MTEXT
  5
7D
330
1F
100
AcDbEntity
  8
0-B_寸法
  6
Continuous
 62
     7
370
   211
100
AcDbMText
 10
-3319.217896424573
 20
-3190.36905022569
 30
0.0
 40
91.44
 41
120.0
 46
0.0
 71
     7
 72
     1
  1
{\fＭＳ ゴシック|b0|i0|c128|p49;20}
 11
6.123031769111886E-17
 21
1.0
 31
0.0
 73
     1
 44
1.0
  0
MTEXT
  5
7E
330
1F
100
AcDbEntity
  8
0-B_寸法
  6
Continuous
 62
     7
370
   211
100
AcDbMText
 10
-2809.21789642458
 20
-3156.128713271376
 30
0.0
 40
91.44
 41
120.0
 46
0.0
 71
     7
 72
     1
  1
{\fＭＳ ゴシック|b0|i0|c128|p49;18}
 11
6.123031769111886E-17
 21
1.0
 31
0.0
 73
     1
 44
1.0
  0
MTEXT
  5
7F
330
1F
100
AcDbEntity
  8
0-B_寸法
  6
Continuous
 62
     7
370
   211
100
AcDbMText
 10
-3142.217896424567
 20
-2929.748713271375
 30
0.0
 40
76.19999999999999
 41
150.0
 46
0.0
 71
     7
 72
     1
  1
{\fＭＳ ゴシック|b0|i0|c128|p49;4.5}
 73
     1
 44
1.0
  0
LINE
  5
80
330
1F
100
AcDbEntity
  8
0-0_補助線
  6
JWW_HOJO
 62
   120
370
     5
100
AcDbLine
 10
-3113.717896424555
 20
-2997.848713271375
 30
0.0
 11
-3113.717896424555
 21
-3261.848900736786
 31
0.0
  0
LINE
  5
81
330
1F
100
AcDbEntity
  8
0-B_寸法
  6
Continuous
 62
   120
370
     5
100
AcDbLine
 10
-3304.217896424573
 20
-3186.848713271375
 30
0.0
 11
-3184.217896424573
 21
-3186.848713271375
 31
0.0
  0
LWPOLYLINE
  5
82
330
1F
100
AcDbEntity
  8
0-B_寸法
  6
Continuous
 62
     7
370
     9
100
AcDbPolyline
 90
        4
 70
     1
 43
3.0
 10
-3302.717896424573
 20
-3186.848713271375
 42
0.4142135623731
 10
-3304.217896424573
 20
-3185.348713271375
 42
0.4142135623731
 10
-3305.717896424573
 20
-3186.848713271375
 42
0.4142135623731
 10
-3304.217896424573
 20
-3188.348713271375
 42
0.4142135623731
  0
LINE
  5
83
330
1F
100
AcDbEntity
  8
0-0_補助線
  6
JWW_HOJO
 62
   120
370
     5
100
AcDbLine
 10
-2944.21789642458
 20
-2997.848713271375
 30
0.0
 11
-3184.217896424573
 21
-2997.848713271375
 31
0.0
  0
LINE
  5
84
330
1F
100
AcDbEntity
  8
0-0_補助線
  6
JWW_HOJO
 62
   120
370
     5
100
AcDbLine
 10
-3184.217896424573
 20
-2997.848713271375
 30
0.0
 11
-3184.217896424573
 21
-3261.848900736786
 31
0.0
  0
LINE
  5
85
330
1F
100
AcDbEntity
  8
0-B_寸法
  6
Continuous
 62
   120
370
     5
100
AcDbLine
 10
-3304.217896424573
 20
-3066.848713271374
 30
0.0
 11
-3184.217896424573
 21
-3066.848713271374
 31
0.0
  0
LWPOLYLINE
  5
86
330
1F
100
AcDbEntity
  8
0-B_寸法
  6
Continuous
 62
     7
370
     9
100
AcDbPolyline
 90
        4
 70
     1
 43
3.0
 10
-3302.717896424573
 20
-3066.848713271374
 42
0.4142135623731
 10
-3304.217896424573
 20
-3065.348713271374
 42
0.4142135623731
 10
-3305.717896424573
 20
-3066.848713271374
 42
0.4142135623731
 10
-3304.217896424573
 20
-3068.348713271374
 42
0.4142135623731
  0
LINE
  5
87
330
1F
100
AcDbEntity
  8
0-B_寸法
  6
Continuous
 62
   120
370
     5
100
AcDbLine
 10
-3304.217896424573
 20
-3186.848713271375
 30
0.0
 11
-3304.217896424573
 21
-3066.848713271374
 31
0.0
  0
LINE
  5
88
330
1F
100
AcDbEntity
  8
0-6_扉
  6
Continuous
 62
   200
370
    20
100
AcDbLine
 10
-2974.21789642458
 20
-2004.848507009309
 30
0.0
 11
-2974.21789642458
 21
-3135.848713271376
 31
0.0
  0
LINE
  5
89
330
1F
100
AcDbEntity
  8
0-6_扉
  6
Continuous
 62
   200
370
    20
100
AcDbLine
 10
-3154.21789642458
 20
-2004.848507009309
 30
0.0
 11
-3154.21789642458
 21
-3135.848713271376
 31
0.0
  0
LINE
  5
8A
330
1F
100
AcDbEntity
  8
0-6_扉
  6
Continuous
 62
   200
370
    20
100
AcDbLine
 10
-3154.21789642458
 20
-1224.276612326072
 30
0.0
 11
-3154.21789642458
 21
-1884.848507009309
 31
0.0
  0
LINE
  5
8B
330
1F
100
AcDbEntity
  8
0-6_扉
  6
Continuous
 62
   200
370
    20
100
AcDbLine
 10
-2974.21789642458
 20
-819.8485063769081
 30
0.0
 11
-2974.21789642458
 21
-1884.848507009309
 31
0.0
  0
LINE
  5
8C
330
1F
100
AcDbEntity
  8
0-6_扉
  6
Continuous
 62
   200
370
    20
100
AcDbLine
 10
-2974.21789642458
 20
-819.8485063769081
 30
0.0
 11
-3154.21789642458
 21
-819.8485063769081
 31
0.0
  0
LINE
  5
8D
330
1F
100
AcDbEntity
  8
0-6_扉
  6
Continuous
 62
   200
370
    20
100
AcDbLine
 10
-3154.21789642458
 20
-819.8485063769081
 30
0.0
 11
-3154.21789642458
 21
-1134.705761789875
 31
0.0
  0
LINE
  5
8E
330
1F
100
AcDbEntity
  8
0-7_金物
  6
Continuous
 62
     7
370
     9
100
AcDbLine
 10
-3082.217895871213
 20
-819.8485063769081
 30
0.0
 11
-3082.217895871213
 21
-788.6485060488452
 31
0.0
  0
LINE
  5
8F
330
1F
100
AcDbEntity
  8
0-7_金物
  6
Continuous
 62
     7
370
     9
100
AcDbLine
 10
-3046.217895871212
 20
-788.6485060488452
 30
0.0
 11
-3046.217895871212
 21
-819.8485063769081
 31
0.0
  0
ARC
  5
90
330
1F
100
AcDbEntity
  8
0-7_金物
  6
Continuous
 62
     7
370
     9
100
AcDbCircle
 10
-3178.21789567359
 20
-849.248505649638
 30
0.0
 40
3.599999976284835
100
AcDbArc
 50
180.0
 51
0.0
  0
LINE
  5
91
330
1F
100
AcDbEntity
  8
0-7_金物
  6
Continuous
 62
     7
370
     9
100
AcDbLine
 10
-3174.617895697311
 20
-747.2485063215722
 30
0.0
 11
-3174.617895697304
 21
-849.248505649638
 31
0.0
  0
LINE
  5
92
330
1F
100
AcDbEntity
  8
0-7_金物
  6
Continuous
 62
     7
370
     9
100
AcDbLine
 10
-3181.817895649876
 20
-849.248505649638
 30
0.0
 11
-3181.817895649876
 21
-740.048506369002
 31
0.0
  0
ARC
  5
93
330
1F
100
AcDbEntity
  8
0-7_金物
  6
Continuous
 62
     7
370
     9
100
AcDbCircle
 10
-3173.417895705211
 20
-747.2485063215722
 30
0.0
 40
1.199999992095854
100
AcDbArc
 50
89.99999999993486
 51
179.9999999999349
  0
ARC
  5
94
330
1F
100
AcDbEntity
  8
0-7_金物
  6
Continuous
 62
     7
370
     9
100
AcDbCircle
 10
-3180.617895657783
 20
-740.048506369002
 30
0.0
 40
1.199999992094489
100
AcDbArc
 50
89.99999999999997
 51
180.0
  0
LINE
  5
95
330
1F
100
AcDbEntity
  8
0-7_金物
  6
Continuous
 62
     7
370
     9
100
AcDbLine
 10
-3148.217895871221
 20
-746.0485063294757
 30
0.0
 11
-3173.417895705211
 21
-746.0485063294757
 31
0.0
  0
LINE
  5
96
330
1F
100
AcDbEntity
  8
0-7_金物
  6
Continuous
 62
     7
370
     9
100
AcDbLine
 10
-3180.617895657783
 20
-738.8485063769067
 30
0.0
 11
-3148.217895871221
 21
-738.8485063769067
 31
0.0
  0
LINE
  5
97
330
1F
100
AcDbEntity
  8
0-7_金物
  6
Continuous
 62
     7
370
     9
100
AcDbLine
 10
-3148.217895871221
 20
-759.6430998470455
 30
0.0
 11
-3148.217895871221
 21
-746.0485063294757
 31
0.0
  0
ARC
  5
98
330
1F
100
AcDbEntity
  8
0-7_金物
  6
Continuous
 62
     7
370
     9
100
AcDbCircle
 10
-3136.217895950269
 20
-759.6430998470455
 30
0.0
 40
11.99999992094837
100
AcDbArc
 50
179.9999999999987
 51
215.9505676196161
  0
ARC
  5
99
330
1F
100
AcDbEntity
  8
0-7_金物
  6
Continuous
 62
     7
370
     9
100
AcDbCircle
 10
-3115.817896084659
 20
-744.8485063373813
 30
0.0
 40
37.19999975494188
100
AcDbArc
 50
215.9505676196163
 51
293.8188413934565
  0
ARC
  5
9A
330
1F
100
AcDbEntity
  8
0-7_金物
  6
Continuous
 62
     7
370
     9
100
AcDbCircle
 10
-3103.217896167661
 20
-773.391105890794
 30
0.0
 40
5.999999960474696
100
AcDbArc
 50
293.8188413934587
 51
0.0000000000009542
  0
LINE
  5
9B
330
1F
100
AcDbEntity
  8
0-7_金物
  6
Continuous
 62
     7
370
     9
100
AcDbLine
 10
-3097.217896207185
 20
-771.8485061595154
 30
0.0
 11
-3097.217896207185
 21
-773.391105890794
 31
0.0
  0
ARC
  5
9C
330
1F
100
AcDbEntity
  8
0-7_金物
  6
Continuous
 62
     7
370
     9
100
AcDbCircle
 10
-3099.017896195328
 20
-771.8485061595154
 30
0.0
 40
1.799999988141737
100
AcDbArc
 50
359.9999999999994
 51
121.8907918018427
  0
ARC
  5
9D
330
1F
100
AcDbEntity
  8
0-7_金物
  6
Continuous
 62
     7
370
     9
100
AcDbCircle
 10
-3115.817896084659
 20
-744.8485063373813
 30
0.0
 40
29.99999980237392
100
AcDbArc
 50
213.9231120032609
 51
301.8907918018446
  0
ARC
  5
9E
330
1F
100
AcDbEntity
  8
0-7_金物
  6
Continuous
 62
     7
370
     9
100
AcDbCircle
 10
-3139.217895930506
 20
-760.586358692033
 30
0.0
 40
1.799999988143631
100
AcDbArc
 50
179.9999999999944
 51
213.923112003254
  0
LINE
  5
9F
330
1F
100
AcDbEntity
  8
0-7_金物
  6
Continuous
 62
     7
370
     9
100
AcDbLine
 10
-3141.017895918649
 20
-675.8485067919221
 30
0.0
 11
-3141.017895918649
 21
-760.5863586920317
 31
0.0
  0
ARC
  5
A0
330
1F
100
AcDbEntity
  8
0-7_金物
  6
Continuous
 62
     7
370
     9
100
AcDbCircle
 10
-3129.017895997704
 20
-675.8485067919221
 30
0.0
 40
11.99999992094899
100
AcDbArc
 50
90.0
 51
180.0
  0
LINE
  5
A1
330
1F
100
AcDbEntity
  8
0-7_金物
  6
Continuous
 62
     7
370
     9
100
AcDbLine
 10
-3093.917896228927
 20
-663.8485068709759
 30
0.0
 11
-3129.017895997704
 21
-663.8485068709759
 31
0.0
  0
ARC
  5
A2
330
1F
100
AcDbEntity
  8
0-7_金物
  6
Continuous
 62
     7
370
     9
100
AcDbCircle
 10
-3093.917896228927
 20
-662.0485068828341
 30
0.0
 40
1.799999988141394
100
AcDbArc
 50
269.9999999999891
 51
359.9999999999891
  0
LINE
  5
A3
330
1F
100
AcDbEntity
  8
0-7_金物
  6
Continuous
 62
     7
370
     9
100
AcDbLine
 10
-3092.117896240784
 20
-653.6485069381686
 30
0.0
 11
-3092.117896240784
 21
-662.0485068828341
 31
0.0
  0
ARC
  5
A4
330
1F
100
AcDbEntity
  8
0-7_金物
  6
Continuous
 62
     7
370
     9
100
AcDbCircle
 10
-3090.317896252641
 20
-653.6485069381686
 30
0.0
 40
1.799999988142416
100
AcDbArc
 50
89.99999999997829
 51
179.9999999999783
  0
LINE
  5
A5
330
1F
100
AcDbEntity
  8
0-7_金物
  6
Continuous
 62
     7
370
     9
100
AcDbLine
 10
-3066.017896412716
 20
-651.8485069500255
 30
0.0
 11
-3090.317896252641
 21
-651.8485069500255
 31
0.0
  0
LINE
  5
A6
330
1F
100
AcDbEntity
  8
0-7_金物
  6
Continuous
 62
     7
370
     9
100
AcDbLine
 10
-3064.217896424573
 20
-650.0485069618824
 30
0.0
 11
-3066.017896412716
 21
-651.8485069500255
 31
0.0
  0
LINE
  5
A7
330
1F
100
AcDbEntity
  8
0-7_金物
  6
Continuous
 62
     7
370
     9
100
AcDbLine
 10
-3062.41789643643
 20
-651.8485069500255
 30
0.0
 11
-3064.217896424573
 21
-650.0485069618824
 31
0.0
  0
LINE
  5
A8
330
1F
100
AcDbEntity
  8
0-7_金物
  6
Continuous
 62
     7
370
     9
100
AcDbLine
 10
-3038.117896596511
 20
-651.8485069500255
 30
0.0
 11
-3062.41789643643
 21
-651.8485069500255
 31
0.0
  0
ARC
  5
A9
330
1F
100
AcDbEntity
  8
0-7_金物
  6
Continuous
 62
     7
370
     9
100
AcDbCircle
 10
-3038.117896596511
 20
-653.6485069381686
 30
0.0
 40
1.799999988142416
100
AcDbArc
 50
0.0000000000217168
 51
90.00000000002173
  0
LINE
  5
AA
330
1F
100
AcDbEntity
  8
0-7_金物
  6
Continuous
 62
     7
370
     9
100
AcDbLine
 10
-3036.317896608368
 20
-662.0485068828341
 30
0.0
 11
-3036.317896608368
 21
-653.6485069381686
 31
0.0
  0
ARC
  5
AB
330
1F
100
AcDbEntity
  8
0-7_金物
  6
Continuous
 62
     7
370
     9
100
AcDbCircle
 10
-3034.517896620225
 20
-662.0485068828328
 30
0.0
 40
1.799999988142076
100
AcDbArc
 50
180.0000000000326
 51
270.0000000000326
  0
LINE
  5
AC
330
1F
100
AcDbEntity
  8
0-7_金物
  6
Continuous
 62
     7
370
     9
100
AcDbLine
 10
-2999.417896851448
 20
-663.8485068709759
 30
0.0
 11
-3034.517896620225
 21
-663.8485068709759
 31
0.0
  0
ARC
  5
AD
330
1F
100
AcDbEntity
  8
0-7_金物
  6
Continuous
 62
     7
370
     9
100
AcDbCircle
 10
-2999.417896851448
 20
-675.8485067919221
 30
0.0
 40
11.99999992094899
100
AcDbArc
 50
0.0
 51
90.00000000000001
  0
LINE
  5
AE
330
1F
100
AcDbEntity
  8
0-7_金物
  6
Continuous
 62
     7
370
     9
100
AcDbLine
 10
-2987.4178969305
 20
-760.5863586920317
 30
0.0
 11
-2987.4178969305
 21
-675.8485067919221
 31
0.0
  0
ARC
  5
AF
330
1F
100
AcDbEntity
  8
0-7_金物
  6
Continuous
 62
     7
370
     9
100
AcDbCircle
 10
-2989.217896918643
 20
-760.5863586920295
 30
0.0
 40
1.799999988144312
100
AcDbArc
 50
326.0768879966748
 51
359.9999999999343
  0
ARC
  5
B0
330
1F
100
AcDbEntity
  8
0-7_金物
  6
Continuous
 62
     7
370
     9
100
AcDbCircle
 10
-3012.617896764493
 20
-744.8485063373826
 30
0.0
 40
29.99999980237201
100
AcDbArc
 50
238.1092081981562
 51
326.07688799674
  0
ARC
  5
B1
330
1F
100
AcDbEntity
  8
0-7_金物
  6
Continuous
 62
     7
370
     9
100
AcDbCircle
 10
-3029.417896653821
 20
-771.8485061595188
 30
0.0
 40
1.799999988143101
100
AcDbArc
 50
58.10920819813321
 51
179.9999999999765
  0
LINE
  5
B2
330
1F
100
AcDbEntity
  8
0-7_金物
  6
Continuous
 62
     7
370
     9
100
AcDbLine
 10
-3031.217896641964
 20
-773.391105890794
 30
0.0
 11
-3031.217896641964
 21
-771.8485061595154
 31
0.0
  0
ARC
  5
B3
330
1F
100
AcDbEntity
  8
0-7_金物
  6
Continuous
 62
     7
370
     9
100
AcDbCircle
 10
-3025.217896681488
 20
-773.391105890794
 30
0.0
 40
5.999999960474696
100
AcDbArc
 50
179.9999999999991
 51
246.1811586065413
  0
ARC
  5
B4
330
1F
100
AcDbEntity
  8
0-7_金物
  6
Continuous
 62
     7
370
     9
100
AcDbCircle
 10
-3012.617896764493
 20
-744.8485063373826
 30
0.0
 40
37.19999975494105
100
AcDbArc
 50
246.1811586065432
 51
324.0494323803861
  0
ARC
  5
B5
330
1F
100
AcDbEntity
  8
0-7_金物
  6
Continuous
 62
     7
370
     9
100
AcDbCircle
 10
-2992.217896898876
 20
-759.6430998470455
 30
0.0
 40
11.99999992094679
100
AcDbArc
 50
324.0494323803814
 51
359.9999999999989
  0
LINE
  5
B6
330
1F
100
AcDbEntity
  8
0-7_金物
  6
Continuous
 62
     7
370
     9
100
AcDbLine
 10
-2980.217896977931
 20
-746.0485063294757
 30
0.0
 11
-2980.217896977931
 21
-759.6430998470455
 31
0.0
  0
LINE
  5
B7
330
1F
100
AcDbEntity
  8
0-7_金物
  6
Continuous
 62
     7
370
     9
100
AcDbLine
 10
-2971.817897033266
 20
-746.0485063294757
 30
0.0
 11
-2980.217896977931
 21
-746.0485063294757
 31
0.0
  0
ARC
  5
B8
330
1F
100
AcDbEntity
  8
0-7_金物
  6
Continuous
 62
     7
370
     9
100
AcDbCircle
 10
-2971.817897033266
 20
-742.4485063531929
 30
0.0
 40
3.599999976284494
100
AcDbArc
 50
270.0
 51
90.0
  0
LINE
  5
B9
330
1F
100
AcDbEntity
  8
0-7_金物
  6
Continuous
 62
     7
370
     9
100
AcDbLine
 10
-2980.217896977931
 20
-738.8485063769067
 30
0.0
 11
-2971.817897033266
 21
-738.8485063769067
 31
0.0
  0
LINE
  5
BA
330
1F
100
AcDbEntity
  8
0-7_金物
  6
Continuous
 62
     7
370
     9
100
AcDbLine
 10
-2980.217896977931
 20
-645.848506989553
 30
0.0
 11
-2980.217896977931
 21
-738.8485063769067
 31
0.0
  0
ARC
  5
BB
330
1F
100
AcDbEntity
  8
0-7_金物
  6
Continuous
 62
     7
370
     9
100
AcDbCircle
 10
-2983.217896958167
 20
-645.848506989553
 30
0.0
 40
2.999999980237589
100
AcDbArc
 50
0.0
 51
90.0
  0
LINE
  5
BC
330
1F
100
AcDbEntity
  8
0-7_金物
  6
Continuous
 62
     7
370
     9
100
AcDbLine
 10
-2984.417896950267
 20
-642.8485070093155
 30
0.0
 11
-2983.217896958167
 21
-642.8485070093155
 31
0.0
  0
ARC
  5
BD
330
1F
100
AcDbEntity
  8
0-7_金物
  6
Continuous
 62
     7
370
     9
100
AcDbCircle
 10
-2984.41789695026
 20
-645.8485069895518
 30
0.0
 40
2.999999980236907
100
AcDbArc
 50
90.00000000001303
 51
180.000000000013
  0
LINE
  5
BE
330
1F
100
AcDbEntity
  8
0-7_金物
  6
Continuous
 62
     7
370
     9
100
AcDbLine
 10
-2987.4178969305
 20
-651.8485069500255
 30
0.0
 11
-2987.4178969305
 21
-645.848506989553
 31
0.0
  0
ARC
  5
BF
330
1F
100
AcDbEntity
  8
0-7_金物
  6
Continuous
 62
     7
370
     9
100
AcDbCircle
 10
-2990.41789691074
 20
-651.8485069500255
 30
0.0
 40
2.999999980237248
100
AcDbArc
 50
269.9999999999935
 51
359.9999999999935
  0
LINE
  5
C0
330
1F
100
AcDbEntity
  8
0-7_金物
  6
Continuous
 62
     7
370
     9
100
AcDbLine
 10
-3024.31789668742
 20
-654.8485069302617
 30
0.0
 11
-2990.41789691074
 21
-654.8485069302617
 31
0.0
  0
ARC
  5
C1
330
1F
100
AcDbEntity
  8
0-7_金物
  6
Continuous
 62
     7
370
     9
100
AcDbCircle
 10
-3024.31789668742
 20
-651.8485069500255
 30
0.0
 40
2.999999980236565
100
AcDbArc
 50
179.9999999999935
 51
269.9999999999935
  0
LINE
  5
C2
330
1F
100
AcDbEntity
  8
0-7_金物
  6
Continuous
 62
     7
370
     9
100
AcDbLine
 10
-3027.31789666766
 20
-645.848506989553
 30
0.0
 11
-3027.31789666766
 21
-651.8485069500255
 31
0.0
  0
ARC
  5
C3
330
1F
100
AcDbEntity
  8
0-7_金物
  6
Continuous
 62
     7
370
     9
100
AcDbCircle
 10
-3030.317896647893
 20
-645.848506989553
 30
0.0
 40
2.999999980237589
100
AcDbArc
 50
0.0
 51
90.0
  0
LINE
  5
C4
330
1F
100
AcDbEntity
  8
0-7_金物
  6
Continuous
 62
     7
370
     9
100
AcDbLine
 10
-3098.117896201256
 20
-642.8485070093155
 30
0.0
 11
-3030.317896647893
 21
-642.8485070093155
 31
0.0
  0
ARC
  5
C5
330
1F
100
AcDbEntity
  8
0-7_金物
  6
Continuous
 62
     7
370
     9
100
AcDbCircle
 10
-3098.117896201256
 20
-645.848506989553
 30
0.0
 40
2.999999980237589
100
AcDbArc
 50
89.99999999999997
 51
180.0
  0
LINE
  5
C6
330
1F
100
AcDbEntity
  8
0-7_金物
  6
Continuous
 62
     7
370
     9
100
AcDbLine
 10
-3101.117896181493
 20
-651.8485069500255
 30
0.0
 11
-3101.117896181493
 21
-645.848506989553
 31
0.0
  0
ARC
  5
C7
330
1F
100
AcDbEntity
  8
0-7_金物
  6
Continuous
 62
     7
370
     9
100
AcDbCircle
 10
-3104.117896161729
 20
-651.8485069500255
 30
0.0
 40
2.999999980236565
100
AcDbArc
 50
270.0000000000065
 51
0.0000000000065138
  0
LINE
  5
C8
330
1F
100
AcDbEntity
  8
0-7_金物
  6
Continuous
 62
     7
370
     9
100
AcDbLine
 10
-3138.017895938412
 20
-654.8485069302617
 30
0.0
 11
-3104.117896161729
 21
-654.8485069302617
 31
0.0
  0
ARC
  5
C9
330
1F
100
AcDbEntity
  8
0-7_金物
  6
Continuous
 62
     7
370
     9
100
AcDbCircle
 10
-3138.017895938412
 20
-651.8485069500255
 30
0.0
 40
2.999999980237248
100
AcDbArc
 50
180.0000000000066
 51
270.0000000000065
  0
LINE
  5
CA
330
1F
100
AcDbEntity
  8
0-7_金物
  6
Continuous
 62
     7
370
     9
100
AcDbLine
 10
-3141.017895918649
 20
-645.848506989553
 30
0.0
 11
-3141.017895918649
 21
-651.8485069500255
 31
0.0
  0
ARC
  5
CB
330
1F
100
AcDbEntity
  8
0-7_金物
  6
Continuous
 62
     7
370
     9
100
AcDbCircle
 10
-3144.017895898885
 20
-645.8485069895518
 30
0.0
 40
2.999999980236907
100
AcDbArc
 50
359.999999999987
 51
89.99999999998697
  0
LINE
  5
CC
330
1F
100
AcDbEntity
  8
0-7_金物
  6
Continuous
 62
     7
370
     9
100
AcDbLine
 10
-3145.217895890982
 20
-642.8485070093155
 30
0.0
 11
-3144.017895898885
 21
-642.8485070093155
 31
0.0
  0
ARC
  5
CD
330
1F
100
AcDbEntity
  8
0-7_金物
  6
Continuous
 62
     7
370
     9
100
AcDbCircle
 10
-3145.217895890982
 20
-645.848506989553
 30
0.0
 40
2.999999980237589
100
AcDbArc
 50
89.99999999999997
 51
180.0
  0
LINE
  5
CE
330
1F
100
AcDbEntity
  8
0-7_金物
  6
Continuous
 62
     7
370
     9
100
AcDbLine
 10
-3148.217895871221
 20
-738.8485063769067
 30
0.0
 11
-3148.217895871221
 21
-645.848506989553
 31
0.0
  0
LINE
  5
CF
330
1F
100
AcDbEntity
  8
0-7_金物
  6
Continuous
 62
     7
370
     9
100
AcDbLine
 10
-3064.217896424573
 20
-780.8485061002275
 30
0.0
 11
-3085.217896286233
 21
-780.8485061002275
 31
0.0
  0
ARC
  5
D0
330
1F
100
AcDbEntity
  8
0-7_金物
  6
Continuous
 62
     7
370
     9
100
AcDbCircle
 10
-3085.217896286233
 20
-774.848506139755
 30
0.0
 40
5.999999960474506
100
AcDbArc
 50
180.0
 51
270.0
  0
ARC
  5
D1
330
1F
100
AcDbEntity
  8
0-7_金物
  6
Continuous
 62
     7
370
     9
100
AcDbCircle
 10
-3103.217896167657
 20
-774.848506139755
 30
0.0
 40
11.99999992094901
100
AcDbArc
 50
0.0
 51
63.25631604961301
  0
LINE
  5
D2
330
1F
100
AcDbEntity
  8
0-7_金物
  6
Continuous
 62
     7
370
     9
100
AcDbLine
 10
-3097.817896203232
 20
-672.8485068116859
 30
0.0
 11
-3097.817896203232
 21
-720.8485064954847
 31
0.0
  0
ARC
  5
D3
330
1F
100
AcDbEntity
  8
0-7_金物
  6
Continuous
 62
     7
370
     9
100
AcDbCircle
 10
-3115.817896084652
 20
-696.8485066535859
 30
0.0
 40
29.99999980237253
100
AcDbArc
 50
53.13010235415425
 51
126.8698976458457
  0
ARC
  5
D4
330
1F
100
AcDbEntity
  8
0-7_金物
  6
Continuous
 62
     7
370
     9
100
AcDbCircle
 10
-3115.817896084652
 20
-744.8485063373826
 30
0.0
 40
29.99999980237253
100
AcDbArc
 50
233.1301023541541
 51
306.8698976458458
  0
LINE
  5
D5
330
1F
100
AcDbEntity
  8
0-7_金物
  6
Continuous
 62
     7
370
     9
100
AcDbLine
 10
-3094.817896222992
 20
-698.048506645679
 30
0.0
 11
-3096.017896215089
 21
-696.8485066535859
 31
0.0
  0
LINE
  5
D6
330
1F
100
AcDbEntity
  8
0-7_金物
  6
Continuous
 62
     7
370
     9
100
AcDbLine
 10
-3094.817896222992
 20
-743.648506345286
 30
0.0
 11
-3096.017896215089
 21
-744.8485063373826
 31
0.0
  0
LINE
  5
D7
330
1F
100
AcDbEntity
  8
0-7_金物
  6
Continuous
 62
     7
370
     9
100
AcDbLine
 10
-3097.817896203232
 20
-705.8485065942967
 30
0.0
 11
-3094.817896222992
 21
-705.8485065942967
 31
0.0
  0
LINE
  5
D8
330
1F
100
AcDbEntity
  8
0-7_金物
  6
Continuous
 62
     7
370
     9
100
AcDbLine
 10
-3097.817896203232
 20
-735.8485063966705
 30
0.0
 11
-3094.817896222992
 21
-735.8485063966705
 31
0.0
  0
LINE
  5
D9
330
1F
100
AcDbEntity
  8
0-7_金物
  6
Continuous
 62
     7
370
     9
100
AcDbLine
 10
-3096.017896215089
 20
-705.8485065942967
 30
0.0
 11
-3094.817896222992
 21
-704.6485066022015
 31
0.0
  0
LINE
  5
DA
330
1F
100
AcDbEntity
  8
0-7_金物
  6
Continuous
 62
     7
370
     9
100
AcDbLine
 10
-3094.817896222992
 20
-737.0485063887636
 30
0.0
 11
-3096.017896215089
 21
-735.8485063966705
 31
0.0
  0
LINE
  5
DB
330
1F
100
AcDbEntity
  8
0-7_金物
  6
Continuous
 62
     7
370
     9
100
AcDbLine
 10
-3097.817896203232
 20
-696.8485066535859
 30
0.0
 11
-3096.017896215089
 21
-696.8485066535859
 31
0.0
  0
LINE
  5
DC
330
1F
100
AcDbEntity
  8
0-7_金物
  6
Continuous
 62
     7
370
     9
100
AcDbLine
 10
-3097.817896203232
 20
-744.8485063373826
 30
0.0
 11
-3096.017896215089
 21
-744.8485063373826
 31
0.0
  0
LINE
  5
DD
330
1F
100
AcDbEntity
  8
0-7_金物
  6
Continuous
 62
     7
370
     9
100
AcDbLine
 10
-3097.817896203232
 20
-720.8485064954825
 30
0.0
 11
-3097.817896203232
 21
-768.8485061792792
 31
0.0
  0
LINE
  5
DE
330
1F
100
AcDbEntity
  8
0-7_金物
  6
Continuous
 62
     7
370
     9
100
AcDbLine
 10
-3082.217896305997
 20
-780.8485061002275
 30
0.0
 11
-3082.217896305997
 21
-782.6485060883706
 31
0.0
  0
LINE
  5
DF
330
1F
100
AcDbEntity
  8
0-7_金物
  6
Continuous
 62
     7
370
     9
100
AcDbLine
 10
-3085.217896286233
 20
-687.8485067128738
 30
0.0
 11
-3064.217896424573
 21
-687.8485067128738
 31
0.0
  0
ARC
  5
E0
330
1F
100
AcDbEntity
  8
0-7_金物
  6
Continuous
 62
     7
370
     9
100
AcDbCircle
 10
-3094.217896226945
 20
-747.8485063176188
 30
0.0
 40
2.999999980237253
100
AcDbArc
 50
0.0
 51
90.0
  0
ARC
  5
E1
330
1F
100
AcDbEntity
  8
0-7_金物
  6
Continuous
 62
     7
370
     9
100
AcDbCircle
 10
-3094.217896226945
 20
-693.8485066733497
 30
0.0
 40
2.999999980237253
100
AcDbArc
 50
270.0
 51
0.0
  0
LINE
  5
E2
330
1F
100
AcDbEntity
  8
0-7_金物
  6
Continuous
 62
     7
370
     9
100
AcDbLine
 10
-3133.817895966076
 20
-768.8485061792792
 30
0.0
 11
-3133.817895966076
 21
-672.8485068116859
 31
0.0
  0
LINE
  5
E3
330
1F
100
AcDbEntity
  8
0-7_金物
  6
Continuous
 62
     7
370
     9
100
AcDbLine
 10
-3094.217896226945
 20
-696.8485066535859
 30
0.0
 11
-3094.817896222992
 21
-696.8485066535859
 31
0.0
  0
LINE
  5
E4
330
1F
100
AcDbEntity
  8
0-7_金物
  6
Continuous
 62
     7
370
     9
100
AcDbLine
 10
-3094.217896226945
 20
-744.8485063373826
 30
0.0
 11
-3094.817896222992
 21
-744.8485063373826
 31
0.0
  0
LINE
  5
E5
330
1F
100
AcDbEntity
  8
0-7_金物
  6
Continuous
 62
     7
370
     9
100
AcDbLine
 10
-3091.217896246712
 20
-756.8485062583309
 30
0.0
 11
-3091.217896246712
 21
-747.8485063176188
 31
0.0
  0
LINE
  5
E6
330
1F
100
AcDbEntity
  8
0-7_金物
  6
Continuous
 62
     7
370
     9
100
AcDbLine
 10
-3085.217896286233
 20
-762.8485062188033
 30
0.0
 11
-3064.217896424573
 21
-762.8485062188033
 31
0.0
  0
ARC
  5
E7
330
1F
100
AcDbEntity
  8
0-7_金物
  6
Continuous
 62
     7
370
     9
100
AcDbCircle
 10
-3085.217896286233
 20
-756.8485062583309
 30
0.0
 40
5.999999960474506
100
AcDbArc
 50
180.0
 51
270.0
  0
ARC
  5
E8
330
1F
100
AcDbEntity
  8
0-7_金物
  6
Continuous
 62
     7
370
     9
100
AcDbCircle
 10
-3085.217896286233
 20
-693.8485066733497
 30
0.0
 40
5.999999960474506
100
AcDbArc
 50
90.0
 51
180.0
  0
LINE
  5
E9
330
1F
100
AcDbEntity
  8
0-7_金物
  6
Continuous
 62
     7
370
     9
100
AcDbLine
 10
-3094.817896222992
 20
-696.8485066535859
 30
0.0
 11
-3094.817896222992
 21
-720.8485064954847
 31
0.0
  0
LINE
  5
EA
330
1F
100
AcDbEntity
  8
0-7_金物
  6
Continuous
 62
     7
370
     9
100
AcDbLine
 10
-3094.817896222992
 20
-744.8485063373826
 30
0.0
 11
-3094.817896222992
 21
-720.8485064954825
 31
0.0
  0
LINE
  5
EB
330
1F
100
AcDbEntity
  8
0-7_金物
  6
Continuous
 62
     7
370
     9
100
AcDbLine
 10
-3064.217896424573
 20
-780.8485061002275
 30
0.0
 11
-3043.217896562912
 21
-780.8485061002275
 31
0.0
  0
ARC
  5
EC
330
1F
100
AcDbEntity
  8
0-7_金物
  6
Continuous
 62
     7
370
     9
100
AcDbCircle
 10
-3043.217896562912
 20
-774.848506139755
 30
0.0
 40
5.999999960474506
100
AcDbArc
 50
270.0
 51
0.0
  0
ARC
  5
ED
330
1F
100
AcDbEntity
  8
0-7_金物
  6
Continuous
 62
     7
370
     9
100
AcDbCircle
 10
-3025.217896681488
 20
-774.848506139755
 30
0.0
 40
11.99999992094901
100
AcDbArc
 50
116.743683950387
 51
180.0
  0
LINE
  5
EE
330
1F
100
AcDbEntity
  8
0-7_金物
  6
Continuous
 62
     7
370
     9
100
AcDbLine
 10
-3030.617896645917
 20
-672.8485068116859
 30
0.0
 11
-3030.617896645917
 21
-720.8485064954847
 31
0.0
  0
ARC
  5
EF
330
1F
100
AcDbEntity
  8
0-7_金物
  6
Continuous
 62
     7
370
     9
100
AcDbCircle
 10
-3012.61789676449
 20
-696.8485066535859
 30
0.0
 40
29.99999980237253
100
AcDbArc
 50
53.13010235415425
 51
126.8698976458457
  0
ARC
  5
F0
330
1F
100
AcDbEntity
  8
0-7_金物
  6
Continuous
 62
     7
370
     9
100
AcDbCircle
 10
-3012.61789676449
 20
-744.8485063373826
 30
0.0
 40
29.99999980237253
100
AcDbArc
 50
233.1301023541541
 51
306.8698976458458
  0
LINE
  5
F1
330
1F
100
AcDbEntity
  8
0-7_金物
  6
Continuous
 62
     7
370
     9
100
AcDbLine
 10
-3033.61789662615
 20
-698.048506645679
 30
0.0
 11
-3032.417896634061
 21
-696.8485066535859
 31
0.0
  0
LINE
  5
F2
330
1F
100
AcDbEntity
  8
0-7_金物
  6
Continuous
 62
     7
370
     9
100
AcDbLine
 10
-3033.61789662615
 20
-743.648506345286
 30
0.0
 11
-3032.417896634061
 21
-744.8485063373826
 31
0.0
  0
LINE
  5
F3
330
1F
100
AcDbEntity
  8
0-7_金物
  6
Continuous
 62
     7
370
     9
100
AcDbLine
 10
-3030.617896645917
 20
-705.8485065942967
 30
0.0
 11
-3033.61789662615
 21
-705.8485065942967
 31
0.0
  0
LINE
  5
F4
330
1F
100
AcDbEntity
  8
0-7_金物
  6
Continuous
 62
     7
370
     9
100
AcDbLine
 10
-3030.617896645917
 20
-735.8485063966705
 30
0.0
 11
-3033.617896626154
 21
-735.8485063966705
 31
0.0
  0
LINE
  5
F5
330
1F
100
AcDbEntity
  8
0-7_金物
  6
Continuous
 62
     7
370
     9
100
AcDbLine
 10
-3032.417896634061
 20
-705.8485065942967
 30
0.0
 11
-3033.61789662615
 21
-704.6485066022015
 31
0.0
  0
LINE
  5
F6
330
1F
100
AcDbEntity
  8
0-7_金物
  6
Continuous
 62
     7
370
     9
100
AcDbLine
 10
-3033.61789662615
 20
-737.0485063887636
 30
0.0
 11
-3032.417896634061
 21
-735.8485063966705
 31
0.0
  0
LINE
  5
F7
330
1F
100
AcDbEntity
  8
0-7_金物
  6
Continuous
 62
     7
370
     9
100
AcDbLine
 10
-3030.617896645917
 20
-696.8485066535859
 30
0.0
 11
-3032.417896634061
 21
-696.8485066535859
 31
0.0
  0
LINE
  5
F8
330
1F
100
AcDbEntity
  8
0-7_金物
  6
Continuous
 62
     7
370
     9
100
AcDbLine
 10
-3030.617896645917
 20
-744.8485063373826
 30
0.0
 11
-3032.417896634061
 21
-744.8485063373826
 31
0.0
  0
LINE
  5
F9
330
1F
100
AcDbEntity
  8
0-7_金物
  6
Continuous
 62
     7
370
     9
100
AcDbLine
 10
-3030.617896645917
 20
-720.8485064954825
 30
0.0
 11
-3030.617896645917
 21
-768.8485061792792
 31
0.0
  0
LINE
  5
FA
330
1F
100
AcDbEntity
  8
0-7_金物
  6
Continuous
 62
     7
370
     9
100
AcDbLine
 10
-3046.217896543149
 20
-780.8485061002275
 30
0.0
 11
-3046.217896543149
 21
-782.6485060883706
 31
0.0
  0
LINE
  5
FB
330
1F
100
AcDbEntity
  8
0-7_金物
  6
Continuous
 62
     7
370
     9
100
AcDbLine
 10
-3043.217896562912
 20
-687.8485067128738
 30
0.0
 11
-3064.217896424573
 21
-687.8485067128738
 31
0.0
  0
ARC
  5
FC
330
1F
100
AcDbEntity
  8
0-7_金物
  6
Continuous
 62
     7
370
     9
100
AcDbCircle
 10
-3034.217896622204
 20
-747.8485063176188
 30
0.0
 40
2.999999980237253
100
AcDbArc
 50
90.0
 51
180.0
  0
ARC
  5
FD
330
1F
100
AcDbEntity
  8
0-7_金物
  6
Continuous
 62
     7
370
     9
100
AcDbCircle
 10
-3034.217896622204
 20
-693.8485066733497
 30
0.0
 40
2.999999980237253
100
AcDbArc
 50
180.0
 51
270.0
  0
LINE
  5
FE
330
1F
100
AcDbEntity
  8
0-7_金物
  6
Continuous
 62
     7
370
     9
100
AcDbLine
 10
-2994.617896883069
 20
-768.8485061792792
 30
0.0
 11
-2994.617896883069
 21
-672.8485068116859
 31
0.0
  0
LINE
  5
FF
330
1F
100
AcDbEntity
  8
0-7_金物
  6
Continuous
 62
     7
370
     9
100
AcDbLine
 10
-3034.217896622204
 20
-696.8485066535859
 30
0.0
 11
-3033.617896626154
 21
-696.8485066535859
 31
0.0
  0
LINE
  5
100
330
1F
100
AcDbEntity
  8
0-7_金物
  6
Continuous
 62
     7
370
     9
100
AcDbLine
 10
-3034.217896622204
 20
-744.8485063373826
 30
0.0
 11
-3033.617896626154
 21
-744.8485063373826
 31
0.0
  0
LINE
  5
101
330
1F
100
AcDbEntity
  8
0-7_金物
  6
Continuous
 62
     7
370
     9
100
AcDbLine
 10
-3037.217896602437
 20
-756.8485062583309
 30
0.0
 11
-3037.217896602437
 21
-747.8485063176188
 31
0.0
  0
LINE
  5
102
330
1F
100
AcDbEntity
  8
0-7_金物
  6
Continuous
 62
     7
370
     9
100
AcDbLine
 10
-3043.217896562912
 20
-762.8485062188033
 30
0.0
 11
-3064.217896424573
 21
-762.8485062188033
 31
0.0
  0
ARC
  5
103
330
1F
100
AcDbEntity
  8
0-7_金物
  6
Continuous
 62
     7
370
     9
100
AcDbCircle
 10
-3043.217896562912
 20
-756.8485062583309
 30
0.0
 40
5.999999960474506
100
AcDbArc
 50
270.0
 51
0.0
  0
ARC
  5
104
330
1F
100
AcDbEntity
  8
0-7_金物
  6
Continuous
 62
     7
370
     9
100
AcDbCircle
 10
-3043.217896562912
 20
-693.8485066733497
 30
0.0
 40
5.999999960474506
100
AcDbArc
 50
0.0
 51
90.0
  0
LINE
  5
105
330
1F
100
AcDbEntity
  8
0-7_金物
  6
Continuous
 62
     7
370
     9
100
AcDbLine
 10
-3033.617896626154
 20
-696.8485066535859
 30
0.0
 11
-3033.617896626154
 21
-720.8485064954847
 31
0.0
  0
LINE
  5
106
330
1F
100
AcDbEntity
  8
0-7_金物
  6
Continuous
 62
     7
370
     9
100
AcDbLine
 10
-3033.617896626154
 20
-744.8485063373826
 30
0.0
 11
-3033.617896626154
 21
-720.8485064954825
 31
0.0
  0
LINE
  5
107
330
1F
100
AcDbEntity
  8
0-7_金物
  6
Continuous
 62
     7
370
     9
100
AcDbLine
 10
-3088.217896266469
 20
-788.6485060488452
 30
0.0
 11
-3040.217896582676
 21
-788.6485060488452
 31
0.0
  0
LINE
  5
108
330
1F
100
AcDbEntity
  8
0-7_金物
  6
Continuous
 62
     7
370
     9
100
AcDbLine
 10
-3040.217896582676
 20
-782.6485060883706
 30
0.0
 11
-3040.217896582676
 21
-788.6485060488452
 31
0.0
  0
LINE
  5
109
330
1F
100
AcDbEntity
  8
0-7_金物
  6
Continuous
 62
     7
370
     9
100
AcDbLine
 10
-3040.217896582676
 20
-782.6485060883706
 30
0.0
 11
-3088.217896266469
 21
-782.6485060883706
 31
0.0
  0
LINE
  5
10A
330
1F
100
AcDbEntity
  8
0-7_金物
  6
Continuous
 62
     7
370
     9
100
AcDbLine
 10
-3088.217896266469
 20
-782.6485060883706
 30
0.0
 11
-3088.217896266469
 21
-788.6485060488452
 31
0.0
  0
LINE
  5
10B
330
1F
100
AcDbEntity
  8
0-7_金物
  6
Continuous
 62
     7
370
     9
100
AcDbLine
 10
-3111.357222336933
 20
-819.8485063769081
 30
0.0
 11
-3016.557222961433
 21
-819.8485063769081
 31
0.0
  0
ARC
  5
10C
330
1F
100
AcDbEntity
  8
0-7_金物
  6
Continuous
 62
     7
370
     9
100
AcDbCircle
 10
-3064.213020940547
 20
-879.848505981653
 30
0.0
 40
38.39999974703684
100
AcDbArc
 50
341.7900431357177
 51
12.17573410274985
  0
ARC
  5
10D
330
1F
100
AcDbEntity
  8
0-7_金物
  6
Continuous
 62
     7
370
     9
100
AcDbCircle
 10
-3064.213020940547
 20
-879.848505981653
 30
0.0
 40
38.39999974703684
100
AcDbArc
 50
167.8242658972536
 51
198.2099568642824
  0
ARC
  5
10E
330
1F
100
AcDbEntity
  8
0-7_金物
  6
Continuous
 62
     7
370
     9
100
AcDbCircle
 10
-3064.213020940547
 20
-963.8485054282968
 30
0.0
 40
38.39999974703684
100
AcDbArc
 50
167.8242658972536
 51
198.2099568642824
  0
ARC
  5
10F
330
1F
100
AcDbEntity
  8
0-7_金物
  6
Continuous
 62
     7
370
     9
100
AcDbCircle
 10
-3064.213020940547
 20
-963.8485054282968
 30
0.0
 40
38.39999974703684
100
AcDbArc
 50
341.7900431357177
 51
12.17573410274985
  0
ARC
  5
110
330
1F
100
AcDbEntity
  8
0-7_金物
  6
Continuous
 62
     7
370
     9
100
AcDbCircle
 10
-3064.213020940547
 20
-1030.448504989564
 30
0.0
 40
47.3999996877486
100
AcDbArc
 50
180.0
 51
0.0
  0
LINE
  5
111
330
1F
100
AcDbEntity
  8
0-7_金物
  6
Continuous
 62
     7
370
     9
100
AcDbLine
 10
-3016.813021252797
 20
-819.8485063769081
 30
0.0
 11
-3016.813021252797
 21
-1029.24850499747
 31
0.0
  0
LINE
  5
112
330
1F
100
AcDbEntity
  8
0-7_金物
  6
Continuous
 62
     7
370
     9
100
AcDbLine
 10
-3111.613020628297
 20
-819.8485063769081
 30
0.0
 11
-3111.613020628297
 21
-1029.24850499747
 31
0.0
  0
LINE
  5
113
330
1F
100
AcDbEntity
  8
0-7_金物
  6
Continuous
 62
     7
370
     9
100
AcDbLine
 10
-3025.813021193512
 20
-879.848505981653
 30
0.0
 11
-3019.213021236987
 21
-879.848505981653
 31
0.0
  0
LINE
  5
114
330
1F
100
AcDbEntity
  8
0-7_金物
  6
Continuous
 62
     7
370
     9
100
AcDbLine
 10
-3099.613020707342
 20
-834.8485062780952
 30
0.0
 11
-3028.813021173745
 21
-834.8485062780952
 31
0.0
  0
CIRCLE
  5
115
330
1F
100
AcDbEntity
  8
0-7_金物
  6
Continuous
 62
     7
370
     9
100
AcDbCircle
 10
-3064.213020940547
 20
-963.8485054282968
 30
0.0
 40
29.99999980237253
  0
LINE
  5
116
330
1F
100
AcDbEntity
  8
0-7_金物
  6
Continuous
 62
     7
370
     9
100
AcDbLine
 10
-3105.613020667818
 20
-819.8485063769081
 30
0.0
 11
-3105.613020667818
 21
-828.8485063176201
 31
0.0
  0
LINE
  5
117
330
1F
100
AcDbEntity
  8
0-7_金物
  6
Continuous
 62
     7
370
     9
100
AcDbLine
 10
-3022.813021213269
 20
-819.8485063769081
 30
0.0
 11
-3022.813021213269
 21
-828.8485063176201
 31
0.0
  0
ARC
  5
118
330
1F
100
AcDbEntity
  8
0-7_金物
  6
Continuous
 62
     7
370
     9
100
AcDbCircle
 10
-3099.613020707342
 20
-828.8485063176201
 30
0.0
 40
5.999999960474506
100
AcDbArc
 50
180.0
 51
270.0
  0
ARC
  5
119
330
1F
100
AcDbEntity
  8
0-7_金物
  6
Continuous
 62
     7
370
     9
100
AcDbCircle
 10
-3028.813021173745
 20
-828.8485063176201
 30
0.0
 40
5.999999960474506
100
AcDbArc
 50
270.0
 51
0.0
  0
LINE
  5
11A
330
1F
100
AcDbEntity
  8
0-7_金物
  6
Continuous
 62
     7
370
     9
100
AcDbLine
 10
-3090.613020766637
 20
-999.8485051911443
 30
0.0
 11
-3037.813021114457
 21
-999.8485051911443
 31
0.0
  0
LINE
  5
11B
330
1F
100
AcDbEntity
  8
0-7_金物
  6
Continuous
 62
     7
370
     9
100
AcDbLine
 10
-3105.613020667818
 20
-1029.24850499747
 30
0.0
 11
-3105.613020667818
 21
-1014.84850509233
 31
0.0
  0
LINE
  5
11C
330
1F
100
AcDbEntity
  8
0-7_金物
  6
Continuous
 62
     7
370
     9
100
AcDbLine
 10
-3022.813021213269
 20
-1029.24850499747
 30
0.0
 11
-3022.813021213269
 21
-1014.84850509233
 31
0.0
  0
LINE
  5
11D
330
1F
100
AcDbEntity
  8
0-7_金物
  6
Continuous
 62
     7
370
     9
100
AcDbLine
 10
-3085.213020802207
 20
-1064.927069755998
 30
0.0
 11
-3085.213020802207
 21
-1020.848505052805
 31
0.0
  0
LINE
  5
11E
330
1F
100
AcDbEntity
  8
0-7_金物
  6
Continuous
 62
     7
370
     9
100
AcDbLine
 10
-3043.213021078886
 20
-1064.927069755998
 30
0.0
 11
-3043.213021078886
 21
-1020.848505052805
 31
0.0
  0
ARC
  5
11F
330
1F
100
AcDbEntity
  8
0-7_金物
  6
Continuous
 62
     7
370
     9
100
AcDbCircle
 10
-3037.813021114457
 20
-1005.848505151618
 30
0.0
 40
5.999999960474506
100
AcDbArc
 50
0.0
 51
90.0
  0
ARC
  5
120
330
1F
100
AcDbEntity
  8
0-7_金物
  6
Continuous
 62
     7
370
     9
100
AcDbCircle
 10
-3025.813021193512
 20
-1005.848505151618
 30
0.0
 40
5.999999960474506
100
AcDbArc
 50
180.0
 51
270.0
  0
ARC
  5
121
330
1F
100
AcDbEntity
  8
0-7_金物
  6
Continuous
 62
     7
370
     9
100
AcDbCircle
 10
-3025.813021193512
 20
-1014.84850509233
 30
0.0
 40
2.999999980237253
100
AcDbArc
 50
0.0
 51
90.0
  0
ARC
  5
122
330
1F
100
AcDbEntity
  8
0-7_金物
  6
Continuous
 62
     7
370
     9
100
AcDbCircle
 10
-3090.613020766637
 20
-1005.848505151618
 30
0.0
 40
5.999999960474506
100
AcDbArc
 50
90.0
 51
180.0
  0
ARC
  5
123
330
1F
100
AcDbEntity
  8
0-7_金物
  6
Continuous
 62
     7
370
     9
100
AcDbCircle
 10
-3102.613020687581
 20
-1014.84850509233
 30
0.0
 40
2.999999980237253
100
AcDbArc
 50
90.0
 51
180.0
  0
ARC
  5
124
330
1F
100
AcDbEntity
  8
0-7_金物
  6
Continuous
 62
     7
370
     9
100
AcDbCircle
 10
-3102.613020687581
 20
-1005.848505151618
 30
0.0
 40
5.999999960474506
100
AcDbArc
 50
270.0
 51
0.0
  0
LINE
  5
125
330
1F
100
AcDbEntity
  8
0-7_金物
  6
Continuous
 62
     7
370
     9
100
AcDbLine
 10
-3085.213020802207
 20
-1020.848505052805
 30
0.0
 11
-3043.213021078886
 21
-1020.848505052805
 31
0.0
  0
LINE
  5
126
330
1F
100
AcDbEntity
  8
0-7_金物
  6
Continuous
 62
     7
370
     9
100
AcDbLine
 10
-3085.213020802207
 20
-1041.848504914466
 30
0.0
 11
-3043.213021078886
 21
-1041.848504914466
 31
0.0
  0
LINE
  5
127
330
1F
100
AcDbEntity
  8
0-7_金物
  6
Continuous
 62
     7
370
     9
100
AcDbLine
 10
-3102.613020687581
 20
-1011.848505112093
 30
0.0
 11
-3025.813021193512
 21
-1011.848505112093
 31
0.0
  0
LINE
  5
128
330
1F
100
AcDbEntity
  8
0-7_金物
  6
Continuous
 62
     7
370
     9
100
AcDbLine
 10
-3082.382225536525
 20
-1066.448504752412
 30
0.0
 11
-3046.043816344562
 21
-1066.448504752412
 31
0.0
  0
LINE
  5
129
330
1F
100
AcDbEntity
  8
0-7_金物
  6
Continuous
 62
     7
370
     9
100
AcDbLine
 10
-3034.813021134218
 20
-906.848505803788
 30
0.0
 11
-3022.813021213269
 21
-906.848505803788
 31
0.0
  0
LINE
  5
12A
330
1F
100
AcDbEntity
  8
0-7_金物
  6
Continuous
 62
     7
370
     9
100
AcDbLine
 10
-3034.813021134218
 20
-921.8485057049738
 30
0.0
 11
-3022.813021213269
 21
-921.8485057049738
 31
0.0
  0
LINE
  5
12B
330
1F
100
AcDbEntity
  8
0-7_金物
  6
Continuous
 62
     7
370
     9
100
AcDbLine
 10
-3022.813021213269
 20
-906.848505803788
 30
0.0
 11
-3022.813021213269
 21
-921.8485057049738
 31
0.0
  0
LINE
  5
12C
330
1F
100
AcDbEntity
  8
0-7_金物
  6
Continuous
 62
     7
370
     9
100
AcDbLine
 10
-3040.813021094693
 20
-912.8485057642617
 30
0.0
 11
-3040.813021094693
 21
-915.8485057445014
 31
0.0
  0
ARC
  5
12D
330
1F
100
AcDbEntity
  8
0-7_金物
  6
Continuous
 62
     7
370
     9
100
AcDbCircle
 10
-3034.813021134218
 20
-912.8485057642617
 30
0.0
 40
5.999999960474506
100
AcDbArc
 50
90.0
 51
180.0
  0
ARC
  5
12E
330
1F
100
AcDbEntity
  8
0-7_金物
  6
Continuous
 62
     7
370
     9
100
AcDbCircle
 10
-3034.813021134218
 20
-915.8485057445014
 30
0.0
 40
5.999999960474506
100
AcDbArc
 50
180.0
 51
270.0
  0
LINE
  5
12F
330
1F
100
AcDbEntity
  8
0-7_金物
  6
Continuous
 62
     7
370
     9
100
AcDbLine
 10
-3093.61302074687
 20
-906.848505803788
 30
0.0
 11
-3105.613020667818
 21
-906.848505803788
 31
0.0
  0
LINE
  5
130
330
1F
100
AcDbEntity
  8
0-7_金物
  6
Continuous
 62
     7
370
     9
100
AcDbLine
 10
-3093.61302074687
 20
-921.8485057049738
 30
0.0
 11
-3105.613020667818
 21
-921.8485057049738
 31
0.0
  0
ARC
  5
131
330
1F
100
AcDbEntity
  8
0-7_金物
  6
Continuous
 62
     7
370
     9
100
AcDbCircle
 10
-3093.61302074687
 20
-912.8485057642617
 30
0.0
 40
5.999999960474506
100
AcDbArc
 50
0.0
 51
90.0
  0
ARC
  5
132
330
1F
100
AcDbEntity
  8
0-7_金物
  6
Continuous
 62
     7
370
     9
100
AcDbCircle
 10
-3093.61302074687
 20
-915.8485057445014
 30
0.0
 40
5.999999960474506
100
AcDbArc
 50
270.0
 51
0.0
  0
LINE
  5
133
330
1F
100
AcDbEntity
  8
0-7_金物
  6
Continuous
 62
     7
370
     9
100
AcDbLine
 10
-3105.613020667818
 20
-906.848505803788
 30
0.0
 11
-3105.613020667818
 21
-921.8485057049738
 31
0.0
  0
LINE
  5
134
330
1F
100
AcDbEntity
  8
0-7_金物
  6
Continuous
 62
     7
370
     9
100
AcDbLine
 10
-3087.613020786393
 20
-912.8485057642617
 30
0.0
 11
-3087.613020786393
 21
-915.8485057445014
 31
0.0
  0
LINE
  5
135
330
1F
100
AcDbEntity
  8
0-7_金物
  6
Continuous
 62
     7
370
     9
100
AcDbLine
 10
-3030.271895667183
 20
-867.8485060607047
 30
0.0
 11
-3019.213021236987
 21
-879.848505981653
 31
0.0
  0
LINE
  5
136
330
1F
100
AcDbEntity
  8
0-7_金物
  6
Continuous
 62
     7
370
     9
100
AcDbLine
 10
-3098.15414621391
 20
-867.8485060607047
 30
0.0
 11
-3109.213020644104
 21
-879.848505981653
 31
0.0
  0
LINE
  5
137
330
1F
100
AcDbEntity
  8
0-7_金物
  6
Continuous
 62
     7
370
     9
100
AcDbLine
 10
-3102.613020687581
 20
-879.848505981653
 30
0.0
 11
-3109.213020644104
 21
-879.848505981653
 31
0.0
  0
LINE
  5
138
330
1F
100
AcDbEntity
  8
0-7_金物
  6
Continuous
 62
     7
370
     9
100
AcDbLine
 10
-3098.15414621391
 20
-951.8485055073489
 30
0.0
 11
-3109.213020644104
 21
-963.8485054282968
 31
0.0
  0
LINE
  5
139
330
1F
100
AcDbEntity
  8
0-7_金物
  6
Continuous
 62
     7
370
     9
100
AcDbLine
 10
-3102.613020687581
 20
-963.8485054282968
 30
0.0
 11
-3109.213020644104
 21
-963.8485054282968
 31
0.0
  0
LINE
  5
13A
330
1F
100
AcDbEntity
  8
0-7_金物
  6
Continuous
 62
     7
370
     9
100
AcDbLine
 10
-3025.813021193512
 20
-963.8485054282968
 30
0.0
 11
-3019.213021236987
 21
-963.8485054282968
 31
0.0
  0
LINE
  5
13B
330
1F
100
AcDbEntity
  8
0-7_金物
  6
Continuous
 62
     7
370
     9
100
AcDbLine
 10
-3030.271895667183
 20
-951.8485055073489
 30
0.0
 11
-3019.213021236987
 21
-963.8485054282968
 31
0.0
  0
LINE
  5
13C
330
1F
100
AcDbEntity
  8
0-7_金物
  6
Continuous
 62
     7
370
     9
100
AcDbLine
 10
-3061.296838666201
 20
-865.1485060784927
 30
0.0
 11
-3067.129203214886
 21
-865.1485060784927
 31
0.0
  0
LINE
  5
13D
330
1F
100
AcDbEntity
  8
0-7_金物
  6
Continuous
 62
     7
370
     9
100
AcDbLine
 10
-3067.331361825035
 20
-876.7301650971617
 30
0.0
 11
-3067.129203214886
 21
-865.1485060784927
 31
0.0
  0
LINE
  5
13E
330
1F
100
AcDbEntity
  8
0-7_金物
  6
Continuous
 62
     7
370
     9
100
AcDbLine
 10
-3061.094680056052
 20
-876.7301650971617
 30
0.0
 11
-3061.296838666201
 21
-865.1485060784927
 31
0.0
  0
LINE
  5
13F
330
1F
100
AcDbEntity
  8
0-7_金物
  6
Continuous
 62
     7
370
     9
100
AcDbLine
 10
-3049.51302103738
 20
-882.7646882559955
 30
0.0
 11
-3049.51302103738
 21
-876.9323237073106
 31
0.0
  0
LINE
  5
140
330
1F
100
AcDbEntity
  8
0-7_金物
  6
Continuous
 62
     7
370
     9
100
AcDbLine
 10
-3061.094680056052
 20
-876.7301650971617
 30
0.0
 11
-3049.51302103738
 21
-876.9323237073106
 31
0.0
  0
LINE
  5
141
330
1F
100
AcDbEntity
  8
0-7_金物
  6
Continuous
 62
     7
370
     9
100
AcDbLine
 10
-3061.094680056052
 20
-882.9668468661444
 30
0.0
 11
-3049.51302103738
 21
-882.7646882559955
 31
0.0
  0
LINE
  5
142
330
1F
100
AcDbEntity
  8
0-7_金物
  6
Continuous
 62
     7
370
     9
100
AcDbLine
 10
-3067.129203214886
 20
-894.548505884816
 30
0.0
 11
-3061.296838666201
 21
-894.548505884816
 31
0.0
  0
LINE
  5
143
330
1F
100
AcDbEntity
  8
0-7_金物
  6
Continuous
 62
     7
370
     9
100
AcDbLine
 10
-3061.094680056052
 20
-882.9668468661444
 30
0.0
 11
-3061.296838666201
 21
-894.548505884816
 31
0.0
  0
LINE
  5
144
330
1F
100
AcDbEntity
  8
0-7_金物
  6
Continuous
 62
     7
370
     9
100
AcDbLine
 10
-3067.331361825035
 20
-882.9668468661444
 30
0.0
 11
-3067.129203214886
 21
-894.548505884816
 31
0.0
  0
LINE
  5
145
330
1F
100
AcDbEntity
  8
0-7_金物
  6
Continuous
 62
     7
370
     9
100
AcDbLine
 10
-3078.913020843706
 20
-876.9323237073106
 30
0.0
 11
-3078.913020843706
 21
-882.7646882559955
 31
0.0
  0
LINE
  5
146
330
1F
100
AcDbEntity
  8
0-7_金物
  6
Continuous
 62
     7
370
     9
100
AcDbLine
 10
-3067.331361825035
 20
-882.9668468661444
 30
0.0
 11
-3078.913020843706
 21
-882.7646882559955
 31
0.0
  0
LINE
  5
147
330
1F
100
AcDbEntity
  8
0-7_金物
  6
Continuous
 62
     7
370
     9
100
AcDbLine
 10
-3067.331361825035
 20
-876.7301650971617
 30
0.0
 11
-3078.913020843706
 21
-876.9323237073106
 31
0.0
  0
LINE
  5
148
330
1F
100
AcDbEntity
  8
0-7_金物
  6
Continuous
 62
     7
370
     9
100
AcDbLine
 10
-3061.296838666201
 20
-949.1485055251343
 30
0.0
 11
-3067.129203214886
 21
-949.1485055251343
 31
0.0
  0
LINE
  5
149
330
1F
100
AcDbEntity
  8
0-7_金物
  6
Continuous
 62
     7
370
     9
100
AcDbLine
 10
-3067.331361825035
 20
-960.7301645438055
 30
0.0
 11
-3067.129203214886
 21
-949.1485055251343
 31
0.0
  0
LINE
  5
14A
330
1F
100
AcDbEntity
  8
0-7_金物
  6
Continuous
 62
     7
370
     9
100
AcDbLine
 10
-3061.094680056052
 20
-960.7301645438055
 30
0.0
 11
-3061.296838666201
 21
-949.1485055251343
 31
0.0
  0
LINE
  5
14B
330
1F
100
AcDbEntity
  8
0-7_金物
  6
Continuous
 62
     7
370
     9
100
AcDbLine
 10
-3049.51302103738
 20
-966.7646877026405
 30
0.0
 11
-3049.51302103738
 21
-960.9323231539548
 31
0.0
  0
LINE
  5
14C
330
1F
100
AcDbEntity
  8
0-7_金物
  6
Continuous
 62
     7
370
     9
100
AcDbLine
 10
-3061.094680056052
 20
-960.7301645438055
 30
0.0
 11
-3049.51302103738
 21
-960.9323231539548
 31
0.0
  0
LINE
  5
14D
330
1F
100
AcDbEntity
  8
0-7_金物
  6
Continuous
 62
     7
370
     9
100
AcDbLine
 10
-3061.094680056052
 20
-966.9668463127873
 30
0.0
 11
-3049.51302103738
 21
-966.7646877026405
 31
0.0
  0
LINE
  5
14E
330
1F
100
AcDbEntity
  8
0-7_金物
  6
Continuous
 62
     7
370
     9
100
AcDbLine
 10
-3067.129203214886
 20
-978.5485053314598
 30
0.0
 11
-3061.296838666201
 21
-978.5485053314598
 31
0.0
  0
LINE
  5
14F
330
1F
100
AcDbEntity
  8
0-7_金物
  6
Continuous
 62
     7
370
     9
100
AcDbLine
 10
-3061.094680056052
 20
-966.9668463127873
 30
0.0
 11
-3061.296838666201
 21
-978.5485053314598
 31
0.0
  0
LINE
  5
150
330
1F
100
AcDbEntity
  8
0-7_金物
  6
Continuous
 62
     7
370
     9
100
AcDbLine
 10
-3067.331361825035
 20
-966.9668463127873
 30
0.0
 11
-3067.129203214886
 21
-978.5485053314598
 31
0.0
  0
LINE
  5
151
330
1F
100
AcDbEntity
  8
0-7_金物
  6
Continuous
 62
     7
370
     9
100
AcDbLine
 10
-3078.913020843706
 20
-960.9323231539548
 30
0.0
 11
-3078.913020843706
 21
-966.7646877026405
 31
0.0
  0
LINE
  5
152
330
1F
100
AcDbEntity
  8
0-7_金物
  6
Continuous
 62
     7
370
     9
100
AcDbLine
 10
-3067.331361825035
 20
-966.9668463127873
 30
0.0
 11
-3078.913020843706
 21
-966.7646877026405
 31
0.0
  0
LINE
  5
153
330
1F
100
AcDbEntity
  8
0-7_金物
  6
Continuous
 62
     7
370
     9
100
AcDbLine
 10
-3067.331361825035
 20
-960.7301645438055
 30
0.0
 11
-3078.913020843706
 21
-960.9323231539548
 31
0.0
  0
ARC
  5
154
330
1F
100
AcDbEntity
  8
0-7_金物
  6
Continuous
 62
     7
370
     9
100
AcDbCircle
 10
-3064.213020940547
 20
-1029.24850499747
 30
0.0
 40
41.39999972727429
100
AcDbArc
 50
180.0
 51
0.0
  0
CIRCLE
  5
155
330
1F
100
AcDbEntity
  8
0-7_金物
  6
Continuous
 62
     7
370
     9
100
AcDbCircle
 10
-3064.213020940547
 20
-879.848505981653
 30
0.0
 40
29.99999980237253
  0
LINE
  5
156
330
1F
100
AcDbEntity
  8
0-C_ハッチ
  6
Continuous
 62
   120
370
     5
100
AcDbLine
 10
-3070.255570433154
 20
-3186.60413385759
 30
0.0
 11
-3055.45789889796
 21
-3171.806462322392
 31
0.0
  0
LINE
  5
157
330
1F
100
AcDbEntity
  8
0-C_ハッチ
  6
Continuous
 62
   120
370
     5
100
AcDbLine
 10
-3095.955993969692
 20
-3186.848713271365
 30
0.0
 11
-3077.956591056968
 21
-3168.849310358645
 31
0.0
  0
LINE
  5
158
330
1F
100
AcDbEntity
  8
0-C_ハッチ
  6
Continuous
 62
   120
370
     5
100
AcDbLine
 10
-3073.217896424585
 20
-3164.110615726257
 30
0.0
 11
-3055.217896424567
 21
-3146.110615726248
 31
0.0
  0
LINE
  5
159
330
1F
100
AcDbEntity
  8
0-C_ハッチ
  6
Continuous
 62
   120
370
     5
100
AcDbLine
 10
-3121.41183809239
 20
-3186.848713271374
 30
0.0
 11
-3103.41243517968
 21
-3168.849310358655
 31
0.0
  0
LINE
  5
15A
330
1F
100
AcDbEntity
  8
0-C_ハッチ
  6
Continuous
 62
   120
370
     5
100
AcDbLine
 10
-3073.217896424571
 20
-3138.654771603552
 30
0.0
 11
-3055.217896424564
 21
-3120.654771603547
 31
0.0
  0
LINE
  5
15B
330
1F
100
AcDbEntity
  8
0-C_ハッチ
  6
Continuous
 62
   120
370
     5
100
AcDbLine
 10
-3146.867682215092
 20
-3186.848713271377
 30
0.0
 11
-3128.868279302382
 21
-3168.849310358665
 31
0.0
  0
LINE
  5
15C
330
1F
100
AcDbEntity
  8
0-C_ハッチ
  6
Continuous
 62
   120
370
     5
100
AcDbLine
 10
-3073.217896424561
 20
-3113.198927480846
 30
0.0
 11
-3055.21789642456
 21
-3095.198927480841
 31
0.0
  0
LINE
  5
15D
330
1F
100
AcDbEntity
  8
0-C_ハッチ
  6
Continuous
 62
   120
370
     5
100
AcDbLine
 10
-3073.217896424571
 20
-3087.743083358101
 30
0.0
 11
-3055.21789642456
 21
-3069.743083358092
 31
0.0
  0
LINE
  5
15E
330
1F
100
AcDbEntity
  8
0-C_ハッチ
  6
Continuous
 62
   120
370
     5
100
AcDbLine
 10
-3163.217896424575
 20
-3177.743083358107
 30
0.0
 11
-3154.324123425117
 21
-3168.849310358647
 31
0.0
  0
LINE
  5
15F
330
1F
100
AcDbEntity
  8
0-7_金物
  6
Continuous
 62
     7
370
     9
100
AcDbLine
 10
-3083.717896424575
 20
-3135.848713271376
 30
0.0
 11
-3083.717896424575
 21
-3027.848713271376
 31
0.0
  0
LINE
  5
160
330
1F
100
AcDbEntity
  8
0-7_金物
  6
Continuous
 62
     7
370
     9
100
AcDbLine
 10
-3101.71789642458
 20
-3135.848713271376
 30
0.0
 11
-3083.717896424575
 21
-3135.848713271376
 31
0.0
  0
LINE
  5
161
330
1F
100
AcDbEntity
  8
0-7_金物
  6
Continuous
 62
     7
370
     9
100
AcDbLine
 10
-3101.71789642458
 20
-3141.848713271374
 30
0.0
 11
-3101.71789642458
 21
-3135.848713271376
 31
0.0
  0
LINE
  5
162
330
1F
100
AcDbEntity
  8
0-7_金物
  6
Continuous
 62
     7
370
     9
100
AcDbLine
 10
-3077.717896424574
 20
-3141.848713271374
 30
0.0
 11
-3077.717896424574
 21
-3033.848713271375
 31
0.0
  0
LINE
  5
163
330
1F
100
AcDbEntity
  8
0-7_金物
  6
Continuous
 62
     7
370
     9
100
AcDbLine
 10
-3077.717896424574
 20
-3141.848713271374
 30
0.0
 11
-3101.71789642458
 21
-3141.848713271374
 31
0.0
  0
LINE
  5
164
330
1F
100
AcDbEntity
  8
0-7_金物
  6
Continuous
 62
     7
370
     9
100
AcDbLine
 10
-3044.717896424577
 20
-3027.848713271376
 30
0.0
 11
-3044.717896424577
 21
-3135.848713271376
 31
0.0
  0
LINE
  5
165
330
1F
100
AcDbEntity
  8
0-7_金物
  6
Continuous
 62
     7
370
     9
100
AcDbLine
 10
-3050.717896424575
 20
-3033.848713271375
 30
0.0
 11
-3050.717896424575
 21
-3141.848713271374
 31
0.0
  0
LINE
  5
166
330
1F
100
AcDbEntity
  8
0-7_金物
  6
Continuous
 62
     7
370
     9
100
AcDbLine
 10
-3083.717896424575
 20
-3027.848713271376
 30
0.0
 11
-3044.717896424577
 21
-3027.848713271376
 31
0.0
  0
LINE
  5
167
330
1F
100
AcDbEntity
  8
0-7_金物
  6
Continuous
 62
     7
370
     9
100
AcDbLine
 10
-3050.717896424575
 20
-3033.848713271375
 30
0.0
 11
-3077.717896424574
 21
-3033.848713271375
 31
0.0
  0
LINE
  5
168
330
1F
100
AcDbEntity
  8
0-7_金物
  6
Continuous
 62
     7
370
     9
100
AcDbLine
 10
-3050.717896424575
 20
-3141.848713271374
 30
0.0
 11
-3026.71789642458
 21
-3141.848713271374
 31
0.0
  0
LINE
  5
169
330
1F
100
AcDbEntity
  8
0-7_金物
  6
Continuous
 62
     7
370
     9
100
AcDbLine
 10
-3026.71789642458
 20
-3135.848713271376
 30
0.0
 11
-3026.71789642458
 21
-3141.848713271374
 31
0.0
  0
LINE
  5
16A
330
1F
100
AcDbEntity
  8
0-7_金物
  6
Continuous
 62
     7
370
     9
100
AcDbLine
 10
-3044.717896424577
 20
-3135.848713271376
 30
0.0
 11
-3026.71789642458
 21
-3135.848713271376
 31
0.0
  0
LINE
  5
16B
330
1F
100
AcDbEntity
  8
0-7_金物
  6
Continuous
 62
    92
370
    13
100
AcDbLine
 10
-3163.217896424575
 20
-3168.848713271374
 30
0.0
 11
-3163.217896424575
 21
-3186.848713271374
 31
0.0
  0
LINE
  5
16C
330
1F
100
AcDbEntity
  8
0-7_金物
  6
Continuous
 62
    92
370
    13
100
AcDbLine
 10
-3163.217896424575
 20
-3168.848713271374
 30
0.0
 11
-3073.217896424571
 21
-3168.848713271374
 31
0.0
  0
LINE
  5
16D
330
1F
100
AcDbEntity
  8
0-7_金物
  6
Continuous
 62
    92
370
    13
100
AcDbLine
 10
-3073.217896424571
 20
-3066.848713271374
 30
0.0
 11
-3055.217896424567
 21
-3066.848713271374
 31
0.0
  0
LINE
  5
16E
330
1F
100
AcDbEntity
  8
0-7_金物
  6
Continuous
 62
    92
370
    13
100
AcDbLine
 10
-3073.217896424571
 20
-3066.848713271374
 30
0.0
 11
-3073.217896424571
 21
-3168.848713271374
 31
0.0
  0
LINE
  5
16F
330
1F
100
AcDbEntity
  8
0-7_金物
  6
Continuous
 62
    92
370
    13
100
AcDbLine
 10
-3073.217896424571
 20
-3186.848713271374
 30
0.0
 11
-3163.217896424575
 21
-3186.848713271374
 31
0.0
  0
LINE
  5
170
330
1F
100
AcDbEntity
  8
0-7_金物
  6
Continuous
 62
    92
370
    13
100
AcDbLine
 10
-3055.217896424567
 20
-3168.848713271374
 30
0.0
 11
-3055.217896424567
 21
-3066.848713271374
 31
0.0
  0
ARC
  5
171
330
1F
100
AcDbEntity
  8
0-7_金物
  6
Continuous
 62
    92
370
    13
100
AcDbCircle
 10
-3073.217896424571
 20
-3168.848713271374
 30
0.0
 40
18.0
100
AcDbArc
 50
270.0
 51
0.0
  0
LINE
  5
172
330
1F
100
AcDbEntity
  8
0-6_扉
  6
Continuous
 62
   200
370
    20
100
AcDbLine
 10
-3044.717896424577
 20
-3027.848713271376
 30
0.0
 11
-3044.717896424577
 21
-3135.848713271376
 31
0.0
  0
LINE
  5
173
330
1F
100
AcDbEntity
  8
0-6_扉
  6
Continuous
 62
   200
370
    20
100
AcDbLine
 10
-3083.717896424575
 20
-3027.848713271376
 30
0.0
 11
-3083.717896424575
 21
-3135.848713271376
 31
0.0
  0
LINE
  5
174
330
1F
100
AcDbEntity
  8
0-6_扉
  6
Continuous
 62
   200
370
    20
100
AcDbLine
 10
-3044.717896424577
 20
-3027.848713271376
 30
0.0
 11
-3083.717896424575
 21
-3027.848713271376
 31
0.0
  0
LINE
  5
175
330
1F
100
AcDbEntity
  8
0-6_扉
  6
Continuous
 62
   200
370
    20
100
AcDbLine
 10
-3083.717896424575
 20
-3135.848713271376
 30
0.0
 11
-3154.21789642458
 21
-3135.848713271376
 31
0.0
  0
LINE
  5
176
330
1F
100
AcDbEntity
  8
0-6_扉
  6
Continuous
 62
   200
370
    20
100
AcDbLine
 10
-2974.21789642458
 20
-3135.848713271376
 30
0.0
 11
-3044.717896424577
 21
-3135.848713271376
 31
0.0
  0
LINE
  5
177
330
1F
100
AcDbEntity
  8
0-0_補助線
  6
JWW_HOJO
 62
   120
370
     5
100
AcDbLine
 10
-3014.717896424577
 20
-2997.848713271375
 30
0.0
 11
-3014.717896424577
 21
-3261.848900736786
 31
0.0
  0
LWPOLYLINE
  5
178
330
1F
100
AcDbEntity
  8
0-B_寸法
  6
Continuous
 62
     7
370
     9
100
AcDbPolyline
 90
        4
 70
     1
 43
3.0
 10
-3049.217896424565
 20
-2937.848713271375
 42
0.4142135623731
 10
-3050.717896424565
 20
-2936.348713271375
 42
0.4142135623731
 10
-3052.217896424565
 20
-2937.848713271375
 42
0.4142135623731
 10
-3050.717896424565
 20
-2939.348713271375
 42
0.4142135623731
  0
LINE
  5
179
330
1F
100
AcDbEntity
  8
0-B_寸法
  6
Continuous
 62
   120
370
     5
100
AcDbLine
 10
-3050.717896424565
 20
-2937.848713271375
 30
0.0
 11
-3050.717896424565
 21
-2997.848713271375
 31
0.0
  0
LWPOLYLINE
  5
17A
330
1F
100
AcDbEntity
  8
0-B_寸法
  6
Continuous
 62
     7
370
     9
100
AcDbPolyline
 90
        4
 70
     1
 43
3.0
 10
-3076.217896424564
 20
-2937.848713271375
 42
0.4142135623731
 10
-3077.717896424564
 20
-2936.348713271375
 42
0.4142135623731
 10
-3079.217896424564
 20
-2937.848713271375
 42
0.4142135623731
 10
-3077.717896424564
 20
-2939.348713271375
 42
0.4142135623731
  0
LINE
  5
17B
330
1F
100
AcDbEntity
  8
0-B_寸法
  6
Continuous
 62
   120
370
     5
100
AcDbLine
 10
-3077.717896424564
 20
-2937.848713271375
 30
0.0
 11
-3077.717896424564
 21
-2997.848713271375
 31
0.0
  0
LINE
  5
17C
330
1F
100
AcDbEntity
  8
0-B_寸法
  6
Continuous
 62
   120
370
     5
100
AcDbLine
 10
-3077.717896424564
 20
-2937.848713271375
 30
0.0
 11
-3050.717896424565
 21
-2937.848713271375
 31
0.0
  0
LINE
  5
17D
330
1F
100
AcDbEntity
  8
0-0_補助線
  6
JWW_HOJO
 62
   120
370
     5
100
AcDbLine
 10
-2944.21789642458
 20
-2997.848713271375
 30
0.0
 11
-2944.21789642458
 21
-3261.848900736786
 31
0.0
  0
LINE
  5
17E
330
1F
100
AcDbEntity
  8
0-B_寸法
  6
Continuous
 62
   120
370
     5
100
AcDbLine
 10
-2794.21789642458
 20
-3135.848713271376
 30
0.0
 11
-2794.21789642458
 21
-3027.848713271376
 31
0.0
  0
LWPOLYLINE
  5
17F
330
1F
100
AcDbEntity
  8
0-B_寸法
  6
Continuous
 62
     7
370
     9
100
AcDbPolyline
 90
        4
 70
     1
 43
3.0
 10
-2792.71789642458
 20
-3135.848713271376
 42
0.4142135623731
 10
-2794.21789642458
 20
-3134.348713271376
 42
0.4142135623731
 10
-2795.71789642458
 20
-3135.848713271376
 42
0.4142135623731
 10
-2794.21789642458
 20
-3137.348713271375
 42
0.4142135623731
  0
LWPOLYLINE
  5
180
330
1F
100
AcDbEntity
  8
0-B_寸法
  6
Continuous
 62
     7
370
     9
100
AcDbPolyline
 90
        4
 70
     1
 43
3.0
 10
-2792.71789642458
 20
-3027.848713271376
 42
0.4142135623731
 10
-2794.21789642458
 20
-3026.348713271376
 42
0.4142135623731
 10
-2795.71789642458
 20
-3027.848713271376
 42
0.4142135623731
 10
-2794.21789642458
 20
-3029.348713271376
 42
0.4142135623731
  0
LINE
  5
181
330
1F
100
AcDbEntity
  8
0-B_寸法
  6
Continuous
 62
   120
370
     5
100
AcDbLine
 10
-2794.21789642458
 20
-3135.848713271376
 30
0.0
 11
-2914.21789642458
 21
-3135.848713271376
 31
0.0
  0
LINE
  5
182
330
1F
100
AcDbEntity
  8
0-B_寸法
  6
Continuous
 62
   120
370
     5
100
AcDbLine
 10
-2794.21789642458
 20
-3027.848713271376
 30
0.0
 11
-2914.21789642458
 21
-3027.848713271376
 31
0.0
  0
MTEXT
  5
183
330
1F
100
AcDbEntity
  8
0-B_寸法
  6
Continuous
 62
     7
370
     0
100
AcDbMText
 10
-3238.217896424571
 20
-1273.953503350413
 30
0.0
 40
91.44
 41
120.0
 46
0.0
 71
     7
 72
     1
  1
{\fＭＳ ゴシック|b0|i0|c128|p49;82}
 73
     1
 44
1.0
  0
LINE
  5
184
330
1F
100
AcDbEntity
  8
0-C_ハッチ
  6
Continuous
 62
   120
370
     5
100
AcDbLine
 10
-3299.002757360302
 20
-735.8485070093175
 30
0.0
 11
-3122.002757360296
 21
-558.8485070093147
 31
0.0
  0
LINE
  5
185
330
1F
100
AcDbEntity
  8
0-C_ハッチ
  6
Continuous
 62
   120
370
     5
100
AcDbLine
 10
-3239.605787740661
 20
-735.8485070093175
 30
0.0
 11
-3150.617896424569
 21
-646.8606156932392
 31
0.0
  0
LINE
  5
186
330
1F
100
AcDbEntity
  8
0-C_ハッチ
  6
Continuous
 62
   120
370
     5
100
AcDbLine
 10
-3358.399726979935
 20
-735.8485070093175
 30
0.0
 11
-3181.399726979943
 21
-558.8485070093147
 31
0.0
  0
LINE
  5
187
330
1F
100
AcDbEntity
  8
0-C_ハッチ
  6
Continuous
 62
   120
370
     5
100
AcDbLine
 10
-3421.218331300065
 20
-679.873172090086
 30
0.0
 11
-3300.193666219288
 21
-558.8485070093147
 31
0.0
  0
LINE
  5
188
330
1F
100
AcDbEntity
  8
0-C_ハッチ
  6
Continuous
 62
   120
370
     5
100
AcDbLine
 10
-3417.796696599647
 20
-735.8485070093209
 30
0.0
 11
-3240.796696599641
 21
-558.8485070093147
 31
0.0
  0
LINE
  5
189
330
1F
100
AcDbEntity
  8
0-4_枠
  6
Continuous
 62
    92
370
    13
100
AcDbLine
 10
-3150.617896424569
 20
-738.8485070093147
 30
0.0
 11
-3424.217896424573
 21
-738.8485070093147
 31
0.0
  0
LINE
  5
18A
330
1F
100
AcDbEntity
  8
0-4_枠
  6
Continuous
 62
    92
370
    13
100
AcDbLine
 10
-3421.218331300065
 20
-735.8485070093175
 30
0.0
 11
-3150.617896424569
 21
-735.8485070093175
 31
0.0
  0
LINE
  5
18B
330
1F
100
AcDbEntity
  8
0-0_補助線
  6
JWW_HOJO
 62
   120
370
     5
100
AcDbLine
 10
-2548.217896424571
 20
-3258.848507009291
 30
0.0
 11
-2548.217896424571
 21
-210.8485070092919
 31
0.0
  0
LINE
  5
18C
330
1F
100
AcDbEntity
  8
0-0_補助線
  6
JWW_HOJO
 62
   120
370
     5
100
AcDbLine
 10
-2338.217896424571
 20
-3258.848507009289
 30
0.0
 11
-2338.217896424571
 21
-210.8485070092919
 31
0.0
  0
LINE
  5
18D
330
1F
100
AcDbEntity
  8
0-0_補助線
  6
JWW_HOJO
 62
   120
370
     5
100
AcDbLine
 10
-2128.217896424571
 20
-3258.848507277723
 30
0.0
 11
-2128.217896424571
 21
-210.8485070092919
 31
0.0
  0
LINE
  5
18E
330
1F
100
AcDbEntity
  8
0-0_補助線
  6
JWW_HOJO
 62
   120
370
     5
100
AcDbLine
 10
-1918.217896424571
 20
-3258.848507009289
 30
0.0
 11
-1918.217896424571
 21
-210.8485070092919
 31
0.0
  0
LINE
  5
18F
330
1F
100
AcDbEntity
  8
0-0_補助線
  6
JWW_HOJO
 62
   120
370
     5
100
AcDbLine
 10
-1708.217896424571
 20
-3258.848507009289
 30
0.0
 11
-1708.217896424571
 21
-210.8485070092919
 31
0.0
  0
LINE
  5
190
330
1F
100
AcDbEntity
  8
0-0_補助線
  6
JWW_HOJO
 62
   120
370
     5
100
AcDbLine
 10
-3643.217896424575
 20
-1884.848507009309
 30
0.0
 11
-2713.217896424571
 21
-1884.848507009309
 31
0.0
  0
LINE
  5
191
330
1F
100
AcDbEntity
  8
0-0_補助線
  6
JWW_HOJO
 62
   120
370
     5
100
AcDbLine
 10
-3643.217896424575
 20
-2004.848507009309
 30
0.0
 11
-2713.217896424571
 21
-2004.848507009309
 31
0.0
  0
LINE
  5
192
330
1F
100
AcDbEntity
  8
0-A_文字
  6
Continuous
 62
     7
370
     9
100
AcDbLine
 10
-3834.830792424161
 20
-3133.967215338787
 30
0.0
 11
-3804.830792424161
 21
-3185.928739565853
 31
0.0
  0
LINE
  5
193
330
1F
100
AcDbEntity
  8
0-A_文字
  6
Continuous
 62
     7
370
     9
100
AcDbLine
 10
-3834.830792424161
 20
-3133.967215338787
 30
0.0
 11
-3774.830792424161
 21
-3133.967215338787
 31
0.0
  0
LINE
  5
194
330
1F
100
AcDbEntity
  8
0-A_文字
  6
Continuous
 62
     7
370
     9
100
AcDbLine
 10
-3774.830792424161
 20
-3133.967215338787
 30
0.0
 11
-3804.830792424154
 21
-3185.928739565853
 31
0.0
  0
LINE
  5
195
330
1F
100
AcDbEntity
  8
0-0_補助線
  6
JWW_HOJO
 62
   120
370
     5
100
AcDbLine
 10
-3868.217896424571
 20
-3258.848507009291
 30
0.0
 11
-3868.217896424571
 21
-210.8485070092919
 31
0.0
  0
LINE
  5
196
330
1F
100
AcDbEntity
  8
0-1_通り芯
  6
JWW_CENTER1
 62
   120
370
     5
100
AcDbLine
 10
-3868.217896424571
 20
-558.8485070093147
 30
0.0
 11
-1594.217896424569
 21
-558.8485070093147
 31
0.0
  0
LINE
  5
197
330
1F
100
AcDbEntity
  8
0-1_通り芯
  6
JWW_CENTER1
 62
   120
370
     5
100
AcDbLine
 10
-3868.217896424571
 20
-3258.848507009291
 30
0.0
 11
-1594.217896424569
 21
-3258.848507009291
 31
0.0
  0
LINE
  5
198
330
1F
100
AcDbEntity
  8
0-0_補助線
  6
JWW_HOJO
 62
   120
370
     5
100
AcDbLine
 10
-3868.217896424571
 20
-210.8485070092919
 30
0.0
 11
-1708.217896424571
 21
-210.8485070092919
 31
0.0
  0
LINE
  5
199
330
1F
100
AcDbEntity
  8
0-0_補助線
  6
JWW_HOJO
 62
   120
370
     5
100
AcDbLine
 10
-1708.217896424571
 20
-3258.848507009291
 30
0.0
 11
-3868.217896424571
 21
-3258.848507009291
 31
0.0
  0
LINE
  5
19A
330
1F
100
AcDbEntity
  8
0-3_仕上げ
  6
Continuous
 62
    40
370
    15
100
AcDbLine
 10
-2548.217896424571
 20
-3258.848713271375
 30
0.0
 11
-3868.217896424571
 21
-3258.848713271375
 31
0.0
  0
LINE
  5
19B
330
1F
100
AcDbEntity
  8
0-3_仕上げ
  6
Continuous
 62
    40
370
    15
100
AcDbLine
 10
-2548.217896424571
 20
-3186.848713271374
 30
0.0
 11
-3868.217896424571
 21
-3186.848713271374
 31
0.0
  0
LINE
  5
19C
330
1F
100
AcDbEntity
  8
0-3_仕上げ
  6
Continuous
 62
     7
370
     9
100
AcDbLine
 10
-2548.217896424571
 20
-3222.848713271373
 30
0.0
 11
-3868.217896424571
 21
-3222.848713271373
 31
0.0
  0
LINE
  5
19D
330
1F
100
AcDbEntity
  8
0-3_仕上げ
  6
Continuous
 62
     7
370
     9
100
AcDbLine
 10
-2548.217896424571
 20
-3240.848713271376
 30
0.0
 11
-3868.217896424571
 21
-3240.848713271376
 31
0.0
  0
LINE
  5
19E
330
1F
100
AcDbEntity
  8
0-3_仕上げ
  6
Continuous
 62
     7
370
     9
100
AcDbLine
 10
-2548.217896424571
 20
-3231.848713271374
 30
0.0
 11
-3868.217896424571
 21
-3231.848713271374
 31
0.0
  0
LINE
  5
19F
330
1F
100
AcDbEntity
  8
0-3_仕上げ
  6
Continuous
 62
     7
370
     9
100
AcDbLine
 10
-2548.217896424571
 20
-3213.848713271373
 30
0.0
 11
-3868.217896424571
 21
-3213.848713271373
 31
0.0
  0
LINE
  5
1A0
330
1F
100
AcDbEntity
  8
0-3_仕上げ
  6
Continuous
 62
     7
370
     9
100
AcDbLine
 10
-2548.217896424571
 20
-3204.848713271374
 30
0.0
 11
-3868.217896424571
 21
-3204.848713271374
 31
0.0
  0
LINE
  5
1A1
330
1F
100
AcDbEntity
  8
0-3_仕上げ
  6
Continuous
 62
     7
370
     9
100
AcDbLine
 10
-2548.217896424571
 20
-3195.848713271376
 30
0.0
 11
-3868.217896424571
 21
-3195.848713271376
 31
0.0
  0
LINE
  5
1A2
330
1F
100
AcDbEntity
  8
0-3_仕上げ
  6
Continuous
 62
     7
370
     9
100
AcDbLine
 10
-2548.217896424571
 20
-3249.848713271374
 30
0.0
 11
-3868.217896424571
 21
-3249.848713271374
 31
0.0
  0
LINE
  5
1A3
330
1F
100
AcDbEntity
  8
0-4_枠
  6
Continuous
 62
    92
370
    13
100
AcDbLine
 10
-3150.617896424569
 20
-738.8485070093147
 30
0.0
 11
-3150.617896424569
 21
-642.8485070093147
 31
0.0
  0
LINE
  5
1A4
330
1F
100
AcDbEntity
  8
0-4_枠
  6
Continuous
 62
    92
370
    13
100
AcDbLine
 10
-2977.817896424569
 20
-642.8485070093147
 30
0.0
 11
-3150.617896424569
 21
-642.8485070093147
 31
0.0
  0
LINE
  5
1A5
330
1F
100
AcDbEntity
  8
0-4_枠
  6
Continuous
 62
    92
370
    13
100
AcDbLine
 10
-2977.817896424569
 20
-738.8485070093147
 30
0.0
 11
-2977.817896424569
 21
-642.8485070093147
 31
0.0
  0
LINE
  5
1A6
330
1F
100
AcDbEntity
  8
0-C_ハッチ
  6
Continuous
 62
   120
370
     5
100
AcDbLine
 10
-3180.208818120949
 20
-735.8485070093175
 30
0.0
 11
-3150.617896424569
 21
-706.2575853129356
 31
0.0
  0
LINE
  5
1A7
330
1F
100
AcDbEntity
  8
0-C_ハッチ
  6
Continuous
 62
   120
370
     5
100
AcDbLine
 10
-3146.60578774065
 20
-642.8485070093147
 30
0.0
 11
-3062.605787740645
 21
-558.8485070093147
 31
0.0
  0
LINE
  5
1A8
330
1F
100
AcDbEntity
  8
0-C_ハッチ
  6
Continuous
 62
   120
370
     5
100
AcDbLine
 10
-3087.208818120948
 20
-642.8485070093147
 30
0.0
 11
-3003.208818120943
 21
-558.8485070093147
 31
0.0
  0
LINE
  5
1A9
330
1F
100
AcDbEntity
  8
0-4_枠
  6
Continuous
 62
    92
370
    13
100
AcDbLine
 10
-2935.218056641856
 20
-735.8485070093175
 30
0.0
 11
-2977.817896424569
 21
-735.8485070093175
 31
0.0
  0
LINE
  5
1AA
330
1F
100
AcDbEntity
  8
0-4_枠
  6
Continuous
 62
    92
370
    13
100
AcDbLine
 10
-2932.21789642457
 20
-738.8485070093147
 30
0.0
 11
-2977.817896424569
 21
-738.8485070093147
 31
0.0
  0
LINE
  5
1AB
330
1F
100
AcDbEntity
  8
0-4_枠
  6
Continuous
 62
    92
370
    13
100
AcDbLine
 10
-2932.21789642457
 20
-738.8485070093147
 30
0.0
 11
-2932.21789642457
 21
-558.8485070093147
 31
0.0
  0
LINE
  5
1AC
330
1F
100
AcDbEntity
  8
0-4_枠
  6
Continuous
 62
    92
370
    13
100
AcDbLine
 10
-2935.218056641856
 20
-735.8485070093175
 30
0.0
 11
-2935.218056641856
 21
-561.8485070093138
 31
0.0
  0
LINE
  5
1AD
330
1F
100
AcDbEntity
  8
0-4_枠
  6
Continuous
 62
    92
370
    13
100
AcDbLine
 10
-2992.21789642457
 20
-561.8485070093138
 30
0.0
 11
-2992.21789642457
 21
-558.8485070093147
 31
0.0
  0
LINE
  5
1AE
330
1F
100
AcDbEntity
  8
0-4_枠
  6
Continuous
 62
    92
370
    13
100
AcDbLine
 10
-2992.21789642457
 20
-561.8485070093138
 30
0.0
 11
-2935.218056641856
 21
-561.8485070093138
 31
0.0
  0
LINE
  5
1AF
330
1F
100
AcDbEntity
  8
0-4_枠
  6
Continuous
 62
    92
370
    13
100
AcDbLine
 10
-3424.217896424573
 20
-738.8485070093147
 30
0.0
 11
-3424.217896424573
 21
-558.8485070093147
 31
0.0
  0
LINE
  5
1B0
330
1F
100
AcDbEntity
  8
0-4_枠
  6
Continuous
 62
    92
370
    13
100
AcDbLine
 10
-3421.218331300065
 20
-735.8485070093175
 30
0.0
 11
-3421.218331300065
 21
-561.8485070093138
 31
0.0
  0
LINE
  5
1B1
330
1F
100
AcDbEntity
  8
0-4_枠
  6
Continuous
 62
    92
370
    13
100
AcDbLine
 10
-3364.217896424573
 20
-561.8485070093138
 30
0.0
 11
-3421.218331300065
 21
-561.8485070093138
 31
0.0
  0
LINE
  5
1B2
330
1F
100
AcDbEntity
  8
0-4_枠
  6
Continuous
 62
    92
370
    13
100
AcDbLine
 10
-3364.217896424573
 20
-561.8485070093138
 30
0.0
 11
-3364.217896424573
 21
-558.8485070093147
 31
0.0
  0
LINE
  5
1B3
330
1F
100
AcDbEntity
  8
0-4_枠
  6
Continuous
 62
    92
370
    13
100
AcDbLine
 10
-2932.21789642457
 20
-558.8485070093147
 30
0.0
 11
-3424.217896424573
 21
-558.8485070093147
 31
0.0
  0
LINE
  5
1B4
330
1F
100
AcDbEntity
  8
0-C_ハッチ
  6
Continuous
 62
   120
370
     5
100
AcDbLine
 10
-3421.218331300065
 20
-620.4762024703841
 30
0.0
 11
-3359.59063583899
 21
-558.8485070093147
 31
0.0
  0
LINE
  5
1B5
330
1F
100
AcDbEntity
  8
0-C_ハッチ
  6
Continuous
 62
   120
370
     5
100
AcDbLine
 10
-2977.817896424569
 20
-652.2515245522904
 30
0.0
 11
-2935.218056641856
 21
-609.6516847695725
 31
0.0
  0
LINE
  5
1B6
330
1F
100
AcDbEntity
  8
0-C_ハッチ
  6
Continuous
 62
   120
370
     5
100
AcDbLine
 10
-2935.218056641856
 20
-728.445624008928
 30
0.0
 11
-2942.620939642241
 21
-735.848507009312
 31
0.0
  0
LINE
  5
1B7
330
1F
100
AcDbEntity
  8
0-C_ハッチ
  6
Continuous
 62
   120
370
     5
100
AcDbLine
 10
-2977.817896424569
 20
-711.6484941719377
 30
0.0
 11
-2935.218056641856
 21
-669.0486543892227
 31
0.0
  0
LINE
  5
1B8
330
1F
100
AcDbEntity
  8
0-C_ハッチ
  6
Continuous
 62
   120
370
     5
100
AcDbLine
 10
-3027.811848501301
 20
-642.8485070093147
 30
0.0
 11
-2946.8118485013
 21
-561.8485070093138
 31
0.0
  0
LINE
  5
1B9
330
1F
100
AcDbEntity
  8
0-2_柱
  6
Continuous
 62
    92
370
    13
100
AcDbLine
 10
-3043.217896424585
 20
-288.8485070093097
 30
0.0
 11
-3313.217896424578
 21
-288.8485070093097
 31
0.0
  0
LINE
  5
1BA
330
1F
100
AcDbEntity
  8
0-2_柱
  6
Continuous
 62
     7
370
     9
100
AcDbLine
 10
-3043.217896424585
 20
-288.8485070093097
 30
0.0
 11
-3313.217896424578
 21
-558.8485070093147
 31
0.0
  0
LINE
  5
1BB
330
1F
100
AcDbEntity
  8
0-C_ハッチ
  6
JWW_DASHED1
 62
   120
370
     5
100
AcDbLine
 10
-3313.217896424585
 20
-237.6548522769431
 30
0.0
 11
-3388.217896424585
 21
-312.6548522769414
 31
0.0
  0
LINE
  5
1BC
330
1F
100
AcDbEntity
  8
0-C_ハッチ
  6
JWW_DASHED1
 62
   120
370
     5
100
AcDbLine
 10
-3313.217896424585
 20
-280.0812591481363
 30
0.0
 11
-3388.217896424578
 21
-355.0812591481363
 31
0.0
  0
LINE
  5
1BD
330
1F
100
AcDbEntity
  8
0-C_ハッチ
  6
JWW_DASHED1
 62
   120
370
     5
100
AcDbLine
 10
-3313.217896424575
 20
-322.5076660192767
 30
0.0
 11
-3388.217896424571
 21
-397.507666019275
 31
0.0
  0
LINE
  5
1BE
330
1F
100
AcDbEntity
  8
0-C_ハッチ
  6
JWW_DASHED1
 62
   120
370
     5
100
AcDbLine
 10
-3313.217896424571
 20
-364.934072890475
 30
0.0
 11
-3388.217896424571
 21
-439.9340728904733
 31
0.0
  0
LINE
  5
1BF
330
1F
100
AcDbEntity
  8
0-C_ハッチ
  6
JWW_DASHED1
 62
   120
370
     5
100
AcDbLine
 10
-3313.217896424571
 20
-407.3604797616767
 30
0.0
 11
-3388.217896424585
 21
-482.3604797616869
 31
0.0
  0
LINE
  5
1C0
330
1F
100
AcDbEntity
  8
0-C_ハッチ
  6
JWW_DASHED1
 62
   120
370
     5
100
AcDbLine
 10
-2968.217896424578
 20
-253.9037690871677
 30
0.0
 11
-3043.217896424575
 21
-328.9037690871677
 31
0.0
  0
LINE
  5
1C1
330
1F
100
AcDbEntity
  8
0-C_ハッチ
  6
JWW_DASHED1
 62
   120
370
     5
100
AcDbLine
 10
-2968.217896424578
 20
-296.3301759583678
 30
0.0
 11
-3043.217896424575
 21
-371.3301759583644
 31
0.0
  0
LINE
  5
1C2
330
1F
100
AcDbEntity
  8
0-C_ハッチ
  6
JWW_DASHED1
 62
   120
370
     5
100
AcDbLine
 10
-2968.217896424575
 20
-338.7565828295644
 30
0.0
 11
-3043.217896424571
 21
-413.7565828295592
 31
0.0
  0
LINE
  5
1C3
330
1F
100
AcDbEntity
  8
0-C_ハッチ
  6
JWW_DASHED1
 62
   120
370
     5
100
AcDbLine
 10
-2968.217896424575
 20
-381.1829897007644
 30
0.0
 11
-3043.217896424571
 21
-456.1829897007593
 31
0.0
  0
LINE
  5
1C4
330
1F
100
AcDbEntity
  8
0-C_ハッチ
  6
JWW_DASHED1
 62
   120
370
     5
100
AcDbLine
 10
-2968.217896424585
 20
-423.6093965719729
 30
0.0
 11
-3043.217896424599
 21
-498.6093965719866
 31
0.0
  0
LINE
  5
1C5
330
1F
100
AcDbEntity
  8
0-C_ハッチ
  6
JWW_DASHED1
 62
   120
370
     5
100
AcDbLine
 10
-2968.217896424599
 20
-508.4622103143815
 30
0.0
 11
-3018.604193119493
 21
-558.8485070092961
 31
0.0
  0
LINE
  5
1C6
330
1F
100
AcDbEntity
  8
0-C_ハッチ
  6
JWW_DASHED1
 62
   120
370
     5
100
AcDbLine
 10
-3313.217896424578
 20
-492.2132935040818
 30
0.0
 11
-3379.853109929794
 21
-558.8485070092961
 31
0.0
  0
LINE
  5
1C7
330
1F
100
AcDbEntity
  8
0-C_ハッチ
  6
JWW_DASHED1
 62
   120
370
     5
100
AcDbLine
 10
-3313.217896424571
 20
-449.7868866328733
 30
0.0
 11
-3388.217896424578
 21
-524.7868866328818
 31
0.0
  0
LINE
  5
1C8
330
1F
100
AcDbEntity
  8
0-C_ハッチ
  6
JWW_DASHED1
 62
   120
370
     5
100
AcDbLine
 10
-2968.217896424585
 20
-466.0358034431729
 30
0.0
 11
-3043.217896424585
 21
-541.0358034431729
 31
0.0
  0
LINE
  5
1C9
330
1F
100
AcDbEntity
  8
0-C_ハッチ
  6
JWW_DASHED1
 62
   120
370
     5
100
AcDbLine
 10
-3313.217896424578
 20
-534.639700375275
 30
0.0
 11
-3337.426703058604
 21
-558.8485070092961
 31
0.0
  0
LINE
  5
1CA
330
1F
100
AcDbEntity
  8
0-C_ハッチ
  6
JWW_DASHED1
 62
   120
370
     5
100
AcDbLine
 10
-2968.217896424585
 20
-550.8886171855679
 30
0.0
 11
-2976.177786248306
 21
-558.8485070092961
 31
0.0
  0
LINE
  5
1CB
330
1F
100
AcDbEntity
  8
0-2_柱
  6
Continuous
 62
    92
370
    13
100
AcDbLine
 10
-3043.217896424571
 20
-558.8485070093147
 30
0.0
 11
-3313.217896424578
 21
-558.8485070093147
 31
0.0
  0
LINE
  5
1CC
330
1F
100
AcDbEntity
  8
0-3_仕上げ
  6
Continuous
 62
    40
370
    15
100
AcDbLine
 10
-3388.217896424578
 20
-558.8485070092961
 30
0.0
 11
-3388.217896424578
 21
-210.8485070092919
 31
0.0
  0
LINE
  5
1CD
330
1F
100
AcDbEntity
  8
0-3_仕上げ
  6
Continuous
 62
    40
370
    15
100
AcDbLine
 10
-2968.217896424585
 20
-558.8485070092961
 30
0.0
 11
-2968.217896424585
 21
-210.8485070092919
 31
0.0
  0
LINE
  5
1CE
330
1F
100
AcDbEntity
  8
0-C_ハッチ
  6
JWW_DASHED1
 62
   120
370
     5
100
AcDbLine
 10
-3371.264364899332
 20
-210.8485070092919
 30
0.0
 11
-3388.217896424585
 21
-227.8020385345448
 31
0.0
  0
LINE
  5
1CF
330
1F
100
AcDbEntity
  8
0-C_ハッチ
  6
JWW_DASHED1
 62
   120
370
     5
100
AcDbLine
 10
-3328.837958028132
 20
-210.8485070092919
 30
0.0
 11
-3388.217896424585
 21
-270.2284454057414
 31
0.0
  0
LINE
  5
1D0
330
1F
100
AcDbEntity
  8
0-C_ハッチ
  6
JWW_DASHED1
 62
   120
370
     5
100
AcDbLine
 10
-3010.015448089048
 20
-210.8485070092919
 30
0.0
 11
-3043.217896424585
 21
-244.0509553448325
 31
0.0
  0
LINE
  5
1D1
330
1F
100
AcDbEntity
  8
0-C_ハッチ
  6
JWW_DASHED1
 62
   120
370
     5
100
AcDbLine
 10
-2967.589041217848
 20
-210.8485070092919
 30
0.0
 11
-3043.217896424585
 21
-286.4773622160274
 31
0.0
  0
LINE
  5
1D2
330
1F
100
AcDbEntity
  8
0-3_仕上げ
  6
Continuous
 62
    40
370
    15
100
AcDbLine
 10
-3313.217896424578
 20
-558.8485070092961
 30
0.0
 11
-3313.217896424578
 21
-210.8485070092919
 31
0.0
  0
LINE
  5
1D3
330
1F
100
AcDbEntity
  8
0-3_仕上げ
  6
Continuous
 62
    40
370
    15
100
AcDbLine
 10
-3043.217896424585
 20
-558.8485070092961
 30
0.0
 11
-3043.217896424585
 21
-210.8485070092919
 31
0.0
  0
LINE
  5
1D4
330
1F
100
AcDbEntity
  8
0-B_寸法
  6
Continuous
 62
   120
370
     5
100
AcDbLine
 10
-3424.217896424573
 20
-1274.673503350413
 30
0.0
 11
-3424.217896424573
 21
-1130.324070075935
 31
0.0
  0
LWPOLYLINE
  5
1D5
330
1F
100
AcDbEntity
  8
0-B_寸法
  6
Continuous
 62
     7
370
     9
100
AcDbPolyline
 90
        4
 70
     1
 43
3.0
 10
-3422.717896424573
 20
-1274.673503350413
 42
0.4142135623731
 10
-3424.217896424573
 20
-1273.173503350413
 42
0.4142135623731
 10
-3425.717896424573
 20
-1274.673503350413
 42
0.4142135623731
 10
-3424.217896424573
 20
-1276.173503350413
 42
0.4142135623731
  0
LINE
  5
1D6
330
1F
100
AcDbEntity
  8
0-B_寸法
  6
Continuous
 62
   120
370
     5
100
AcDbLine
 10
-2932.21789642457
 20
-1274.673503350413
 30
0.0
 11
-2932.21789642457
 21
-1151.32407007593
 31
0.0
  0
LWPOLYLINE
  5
1D7
330
1F
100
AcDbEntity
  8
0-B_寸法
  6
Continuous
 62
     7
370
     9
100
AcDbPolyline
 90
        4
 70
     1
 43
3.0
 10
-2930.71789642457
 20
-1274.673503350413
 42
0.4142135623731
 10
-2932.21789642457
 20
-1273.173503350413
 42
0.4142135623731
 10
-2933.71789642457
 20
-1274.673503350413
 42
0.4142135623731
 10
-2932.21789642457
 20
-1276.173503350413
 42
0.4142135623731
  0
LINE
  5
1D8
330
1F
100
AcDbEntity
  8
0-B_寸法
  6
Continuous
 62
   120
370
     5
100
AcDbLine
 10
-3424.217896424573
 20
-1274.673503350413
 30
0.0
 11
-2932.21789642457
 21
-1274.673503350413
 31
0.0
  0
LINE
  5
1D9
330
1F
100
AcDbEntity
  8
0-4_枠
  6
Continuous
 62
   120
370
     5
100
AcDbLine
 10
-3448.217896424575
 20
-558.8485070093147
 30
0.0
 11
-3424.217896424573
 21
-558.8485070093147
 31
0.0
  0
LINE
  5
1DA
330
1F
100
AcDbEntity
  8
0-4_枠
  6
Continuous
 62
   120
370
     5
100
AcDbLine
 10
-3448.217896424575
 20
-558.8485070093147
 30
0.0
 11
-3448.217896424575
 21
-1884.848507009309
 31
0.0
  0
LINE
  5
1DB
330
1F
100
AcDbEntity
  8
0-4_枠
  6
Continuous
 62
   120
370
     5
100
AcDbLine
 10
-2908.217896424571
 20
-558.8485070093147
 30
0.0
 11
-2932.21789642457
 21
-558.8485070093147
 31
0.0
  0
LINE
  5
1DC
330
1F
100
AcDbEntity
  8
0-4_枠
  6
Continuous
 62
   120
370
     5
100
AcDbLine
 10
-2908.217896424571
 20
-1884.848507009309
 30
0.0
 11
-2908.217896424571
 21
-558.8485070093147
 31
0.0
  0
LINE
  5
1DD
330
1F
100
AcDbEntity
  8
0-4_枠
  6
Continuous
 62
   120
370
     5
100
AcDbLine
 10
-2908.217896424571
 20
-2004.848507009309
 30
0.0
 11
-2908.217896424571
 21
-3186.848713271374
 31
0.0
  0
LINE
  5
1DE
330
1F
100
AcDbEntity
  8
0-4_枠
  6
Continuous
 62
   120
370
     5
100
AcDbLine
 10
-3448.217896424575
 20
-2004.848507009309
 30
0.0
 11
-3448.217896424575
 21
-3186.848713271374
 31
0.0
  0
LINE
  5
1DF
330
1F
100
AcDbEntity
  8
0-A_文字
  6
Continuous
 62
    92
370
    13
100
AcDbLine
 10
-1228.217896424571
 20
-468.8489192650326
 30
0.0
 11
1411.782103575428
 21
-468.8489192650326
 31
0.0
  0
LINE
  5
1E0
330
1F
100
AcDbEntity
  8
0-A_文字
  6
Continuous
 62
    92
370
    13
100
AcDbLine
 10
-1228.217896424571
 20
-3258.848507009291
 30
0.0
 11
-1228.217896424571
 21
-468.8489192650326
 31
0.0
  0
MTEXT
  5
1E1
330
1F
100
AcDbEntity
  8
0-A_文字
  6
Continuous
 62
     7
370
     9
100
AcDbMText
 10
-958.2178964245718
 20
-633.1289192650326
 30
0.0
 40
91.43999999999998
 41
2100.0
 46
0.0
 71
     7
 72
     1
  1
{\fＭＳ ゴシック|b0|i0|c128|p49;振れ止め金具取り付け位置（Ｓ＝1/2）}
 73
     1
 44
1.0
  0
LINE
  5
1E2
330
1F
100
AcDbEntity
  8
0-A_文字
  6
Continuous
 62
    92
370
    13
100
AcDbLine
 10
-1228.217896424571
 20
-648.8489192650326
 30
0.0
 11
1411.782103575428
 21
-648.8489192650326
 31
0.0
  0
LINE
  5
1E3
330
1F
100
AcDbEntity
  8
0-A_文字
  6
Continuous
 62
    92
370
    13
100
AcDbLine
 10
-1228.217896424571
 20
-3258.848919265033
 30
0.0
 11
1411.782103575428
 21
-3258.848919265033
 31
0.0
  0
LINE
  5
1E4
330
1F
100
AcDbEntity
  8
1-6_扉
  6
JWW_DASHED2
 62
     7
370
     9
100
AcDbLine
 10
151.7821035754116
 20
-1130.749812243759
 30
0.0
 11
151.7821035754116
 21
-2609.003906394601
 31
0.0
  0
LINE
  5
1E5
330
1F
100
AcDbEntity
  8
1-6_扉
  6
JWW_DASHED2
 62
     7
370
     9
100
AcDbLine
 10
151.7821035754116
 20
-931.7585027460607
 30
0.0
 11
151.7821035754116
 21
-1007.635497332278
 31
0.0
  0
LINE
  5
1E6
330
1F
100
AcDbEntity
  8
1-4_枠
  6
Continuous
 62
    92
370
    13
100
AcDbLine
 10
54.28210357542525
 20
-931.7585027460607
 30
0.0
 11
54.28210357542525
 21
-1007.635497332278
 31
0.0
  0
LINE
  5
1E7
330
1F
100
AcDbEntity
  8
1-4_枠
  6
Continuous
 62
    92
370
    13
100
AcDbLine
 10
54.28210357542525
 20
-1130.749812243759
 30
0.0
 11
54.28210357542525
 21
-2736.503906394598
 31
0.0
  0
MTEXT
  5
1E8
330
1F
100
AcDbEntity
  8
1-B_寸法
  6
Continuous
 62
     7
370
   211
100
AcDbMText
 10
28.03210357542525
 20
-1140.75949514071
 30
0.0
 40
97.15499999999999
 41
127.5
 46
0.0
 71
     7
 72
     1
  1
{\fＭＳ ゴシック|b0|i0|c128|p49;90}
 73
     1
 44
1.0
  0
LINE
  5
1E9
330
1F
100
AcDbEntity
  8
1-4_枠
  6
Continuous
 62
    92
370
    13
100
AcDbLine
 10
766.7821035754253
 20
-931.7585027460607
 30
0.0
 11
766.7821035754253
 21
-2402.944467353419
 31
0.0
  0
LINE
  5
1EA
330
1F
100
AcDbEntity
  8
1-B_寸法
  6
Continuous
 62
   120
370
     5
100
AcDbLine
 10
-583.2178964245747
 20
-1144.33699514071
 30
0.0
 11
766.7821035754253
 21
-1144.33699514071
 31
0.0
  0
LWPOLYLINE
  5
1EB
330
1F
100
AcDbEntity
  8
1-B_寸法
  6
Continuous
 62
     7
370
     9
100
AcDbPolyline
 90
        4
 70
     1
 43
3.0
 10
768.2821035754253
 20
-1144.33699514071
 42
0.4142135623731
 10
766.7821035754253
 20
-1142.836995140711
 42
0.4142135623731
 10
765.2821035754253
 20
-1144.33699514071
 42
0.4142135623731
 10
766.7821035754253
 20
-1145.83699514071
 42
0.4142135623731
  0
MTEXT
  5
1EC
330
1F
100
AcDbEntity
  8
1-A_文字
  6
Continuous
 62
     7
370
     9
100
AcDbMText
 10
-324.4678964245747
 20
-1566.196934547262
 30
0.0
 40
91.44
 41
360.0
 46
0.0
 71
     7
 72
     1
  1
{\f@ＭＳ ゴシック|b0|i0|c128|p49;中方立}
 11
-1.836909530733566E-16
 21
-1.0
 31
0.0
 73
     1
 44
1.0
  0
MTEXT
  5
1ED
330
1F
100
AcDbEntity
  8
1-B_寸法
  6
Continuous
 62
     7
370
   211
100
AcDbMText
 10
-395.7178964245747
 20
-1319.33074514071
 30
0.0
 40
100.0125
 41
262.5
 46
0.0
 71
     7
 72
     1
  1
{\fＭＳ ゴシック|b0|i0|c128|p49;42.5}
 73
     1
 44
1.0
  0
LINE
  5
1EE
330
1F
100
AcDbEntity
  8
1-4_枠
  6
Continuous
 62
    92
370
    13
100
AcDbLine
 10
-583.2178964245747
 20
-931.7585027460607
 30
0.0
 11
-583.2178964245747
 21
-2736.503906394598
 31
0.0
  0
LINE
  5
1EF
330
1F
100
AcDbEntity
  8
1-B_寸法
  6
Continuous
 62
   120
370
     5
100
AcDbLine
 10
-583.2178964245747
 20
-1324.33699514071
 30
0.0
 11
-583.2178964245747
 21
-1474.33699514071
 31
0.0
  0
LWPOLYLINE
  5
1F0
330
1F
100
AcDbEntity
  8
1-B_寸法
  6
Continuous
 62
     7
370
     9
100
AcDbPolyline
 90
        4
 70
     1
 43
3.0
 10
-581.7178964245747
 20
-1324.33699514071
 42
0.4142135623731
 10
-583.2178964245747
 20
-1322.836995140711
 42
0.4142135623731
 10
-584.7178964245747
 20
-1324.33699514071
 42
0.4142135623731
 10
-583.2178964245747
 20
-1325.83699514071
 42
0.4142135623731
  0
LINE
  5
1F1
330
1F
100
AcDbEntity
  8
1-B_寸法
  6
Continuous
 62
   120
370
     5
100
AcDbLine
 10
54.28210357542525
 20
-1324.33699514071
 30
0.0
 11
-583.2178964245747
 21
-1324.33699514071
 31
0.0
  0
LWPOLYLINE
  5
1F2
330
1F
100
AcDbEntity
  8
1-B_寸法
  6
Continuous
 62
     7
370
     9
100
AcDbPolyline
 90
        4
 70
     1
 43
3.0
 10
-581.7178964245747
 20
-1144.33699514071
 42
0.4142135623731
 10
-583.2178964245747
 20
-1142.836995140711
 42
0.4142135623731
 10
-584.7178964245747
 20
-1144.33699514071
 42
0.4142135623731
 10
-583.2178964245747
 20
-1145.83699514071
 42
0.4142135623731
  0
MTEXT
  5
1F3
330
1F
100
AcDbEntity
  8
1-B_寸法
  6
Continuous
 62
     7
370
   211
100
AcDbMText
 10
830.5342636477042
 20
-2900.7839063946
 30
0.0
 40
91.44
 41
120.0
 46
0.0
 71
     7
 72
     1
  1
{\fＭＳ ゴシック|b0|i0|c128|p49;12}
 11
6.123031769111886E-17
 21
1.0
 31
0.0
 73
     1
 44
1.0
  0
MTEXT
  5
1F4
330
1F
100
AcDbEntity
  8
1-B_寸法
  6
Continuous
 62
     7
370
   211
100
AcDbMText
 10
680.5342636477042
 20
-2758.283906394601
 30
0.0
 40
91.44
 41
60.0
 46
0.0
 71
     7
 72
     1
  1
{\fＭＳ ゴシック|b0|i0|c128|p49;3}
 11
6.123031769111886E-17
 21
1.0
 31
0.0
 73
     1
 44
1.0
  0
MTEXT
  5
1F5
330
1F
100
AcDbEntity
  8
1-B_寸法
  6
Continuous
 62
     7
370
   211
100
AcDbMText
 10
680.5342636477042
 20
-2612.224467353419
 30
0.0
 40
91.44
 41
180.0
 46
0.0
 71
     7
 72
     1
  1
{\fＭＳ ゴシック|b0|i0|c128|p49;5.5}
 11
6.123031769111886E-17
 21
1.0
 31
0.0
 73
     1
 44
1.0
  0
MTEXT
  5
1F6
330
1F
100
AcDbEntity
  8
1-B_寸法
  6
Continuous
 62
     7
370
   211
100
AcDbMText
 10
830.5342636477042
 20
-2610.073024659572
 30
0.0
 40
91.44
 41
180.0
 46
0.0
 71
     7
 72
     1
  1
{\fＭＳ ゴシック|b0|i0|c128|p49;8.5}
 11
6.123031769111886E-17
 21
1.0
 31
0.0
 73
     1
 44
1.0
  0
MTEXT
  5
1F7
330
1F
100
AcDbEntity
  8
1-B_寸法
  6
Continuous
 62
     7
370
   211
100
AcDbMText
 10
-91.39593303024981
 20
-2603.184969783013
 30
0.0
 40
91.44
 41
120.0
 46
0.0
 71
     7
 72
     1
  1
{\fＭＳ ゴシック|b0|i0|c128|p49;20}
 11
6.123031769111886E-17
 21
1.0
 31
0.0
 73
     1
 44
1.0
  0
MTEXT
  5
1F8
330
1F
100
AcDbEntity
  8
1-B_寸法
  6
Continuous
 62
     7
370
   211
100
AcDbMText
 10
-249.8929595909203
 20
-2548.283906394602
 30
0.0
 40
91.44
 41
120.0
 46
0.0
 71
     7
 72
     1
  1
{\fＭＳ ゴシック|b0|i0|c128|p49;18}
 11
6.123031769111886E-17
 21
1.0
 31
0.0
 73
     1
 44
1.0
  0
MTEXT
  5
1F9
330
1F
100
AcDbEntity
  8
1-B_寸法
  6
Continuous
 62
     7
370
   211
100
AcDbMText
 10
200.5342636477178
 20
-2119.275300090842
 30
0.0
 40
97.15499999999999
 41
127.5
 46
0.0
 71
     7
 72
     1
  1
{\fＭＳ ゴシック|b0|i0|c128|p49;18}
 73
     1
 44
1.0
  0
MTEXT
  5
1FA
330
1F
100
AcDbEntity
  8
1-B_寸法
  6
Continuous
 62
     7
370
   211
100
AcDbMText
 10
61.78318361155789
 20
-2122.132800090842
 30
0.0
 40
91.44
 41
60.0
 46
0.0
 71
     7
 72
     1
  1
{\fＭＳ ゴシック|b0|i0|c128|p49;5}
 73
     1
 44
1.0
  0
MTEXT
  5
1FB
330
1F
100
AcDbEntity
  8
1-B_寸法
  6
Continuous
 62
     7
370
   211
100
AcDbMText
 10
196.7821035754116
 20
-1319.80699514071
 30
0.0
 40
99.06
 41
195.0
 46
0.0
 71
     7
 72
     1
  1
{\fＭＳ ゴシック|b0|i0|c128|p49;6.5}
 73
     1
 44
1.0
  0
MTEXT
  5
1FC
330
1F
100
AcDbEntity
  8
1-A_文字
  6
Continuous
 62
     7
370
     9
100
AcDbMText
 10
-827.6713019627675
 20
-3127.100989152277
 30
0.0
 40
91.44
 41
720.0
 46
0.0
 71
     7
 72
     1
  1
{\fＭＳ ゴシック|b0|i0|c128|p49;振れ止め金具}
 73
     1
 44
1.0
  0
MTEXT
  5
1FD
330
1F
100
AcDbEntity
  8
1-A_文字
  6
Continuous
 62
     7
370
     9
100
AcDbMText
 10
-883.1783830984921
 20
-2900.783906394597
 30
0.0
 40
91.44
 41
480.0
 46
0.0
 71
     7
 72
     1
  1
{\fＭＳ ゴシック|b0|i0|c128|p49;フロアー}
 73
     1
 44
1.0
  0
MTEXT
  5
1FE
330
1F
100
AcDbEntity
  8
1-A_文字
  6
Continuous
 62
     7
370
     9
100
AcDbMText
 10
331.7821035754321
 20
-1566.196934547262
 30
0.0
 40
91.44
 41
360.0
 46
0.0
 71
     7
 72
     1
  1
{\f@ＭＳ ゴシック|b0|i0|c128|p49;引き戸}
 11
-1.836909530733566E-16
 21
-1.0
 31
0.0
 73
     1
 44
1.0
  0
MTEXT
  5
1FF
330
1F
100
AcDbEntity
  8
1-A_文字
  6
Continuous
 62
     7
370
     9
100
AcDbMText
 10
-148.2178964245679
 20
-917.2417585251316
 30
0.0
 40
91.44
 41
480.0
 46
0.0
 71
     7
 72
     1
  1
{\fＭＳ ゴシック|b0|i0|c128|p49;センター}
 73
     1
 44
1.0
  0
LINE
  5
200
330
1F
100
AcDbEntity
  8
1-B_寸法
  6
Continuous
 62
   120
370
     5
100
AcDbLine
 10
-234.8929595909203
 20
-2609.003906394601
 30
0.0
 11
-234.8929595909203
 21
-2339.003906394602
 31
0.0
  0
LWPOLYLINE
  5
201
330
1F
100
AcDbEntity
  8
1-B_寸法
  6
Continuous
 62
     7
370
     9
100
AcDbPolyline
 90
        4
 70
     1
 43
3.0
 10
-233.3929595909203
 20
-2609.003906394601
 42
0.4142135623731
 10
-234.8929595909203
 20
-2607.503906394601
 42
0.4142135623731
 10
-236.3929595909203
 20
-2609.003906394601
 42
0.4142135623731
 10
-234.8929595909203
 20
-2610.503906394601
 42
0.4142135623731
  0
LWPOLYLINE
  5
202
330
1F
100
AcDbEntity
  8
1-B_寸法
  6
Continuous
 62
     7
370
     9
100
AcDbPolyline
 90
        4
 70
     1
 43
3.0
 10
-233.3929595909203
 20
-2339.003906394602
 42
0.4142135623731
 10
-234.8929595909203
 20
-2337.503906394602
 42
0.4142135623731
 10
-236.3929595909203
 20
-2339.003906394602
 42
0.4142135623731
 10
-234.8929595909203
 20
-2340.503906394602
 42
0.4142135623731
  0
LINE
  5
203
330
1F
100
AcDbEntity
  8
1-B_寸法
  6
Continuous
 62
   120
370
     5
100
AcDbLine
 10
-234.8929595909203
 20
-2339.003906394602
 30
0.0
 11
16.7821035754082
 21
-2339.003906394602
 31
0.0
  0
LINE
  5
204
330
1F
100
AcDbEntity
  8
1-B_寸法
  6
Continuous
 62
   120
370
     5
100
AcDbLine
 10
-234.8929595909203
 20
-2609.003906394601
 30
0.0
 11
-92.21409103850874
 21
-2609.003906394601
 31
0.0
  0
LWPOLYLINE
  5
205
330
1F
100
AcDbEntity
  8
1-B_寸法
  6
Continuous
 62
     7
370
     9
100
AcDbPolyline
 90
        4
 70
     1
 43
3.0
 10
847.0342636477042
 20
-2609.003906394601
 42
0.4142135623731
 10
845.5342636477042
 20
-2607.503906394601
 42
0.4142135623731
 10
844.0342636477042
 20
-2609.003906394601
 42
0.4142135623731
 10
845.5342636477042
 20
-2610.503906394601
 42
0.4142135623731
  0
LWPOLYLINE
  5
206
330
1F
100
AcDbEntity
  8
1-B_寸法
  6
Continuous
 62
     7
370
     9
100
AcDbPolyline
 90
        4
 70
     1
 43
3.0
 10
697.0342636477042
 20
-2609.003906394601
 42
0.4142135623731
 10
695.5342636477042
 20
-2607.503906394601
 42
0.4142135623731
 10
694.0342636477042
 20
-2609.003906394601
 42
0.4142135623731
 10
695.5342636477042
 20
-2610.503906394601
 42
0.4142135623731
  0
LINE
  5
207
330
1F
100
AcDbEntity
  8
1-B_寸法
  6
Continuous
 62
   120
370
     5
100
AcDbLine
 10
845.5342636477042
 20
-2417.944467353419
 30
0.0
 11
845.5342636477042
 21
-2736.503906394601
 31
0.0
  0
LINE
  5
208
330
1F
100
AcDbEntity
  8
1-B_寸法
  6
Continuous
 62
   120
370
     5
100
AcDbLine
 10
695.5342636477042
 20
-2691.503906394601
 30
0.0
 11
695.5342636477042
 21
-2417.944467353419
 31
0.0
  0
LINE
  5
209
330
1F
100
AcDbEntity
  8
1-B_寸法
  6
Continuous
 62
   120
370
     5
100
AcDbLine
 10
545.5342636477042
 20
-2609.003906394601
 30
0.0
 11
845.5342636477042
 21
-2609.003906394601
 31
0.0
  0
LWPOLYLINE
  5
20A
330
1F
100
AcDbEntity
  8
1-B_寸法
  6
Continuous
 62
     7
370
     9
100
AcDbPolyline
 90
        4
 70
     1
 43
3.0
 10
847.0342636477042
 20
-2736.503906394601
 42
0.4142135623731
 10
845.5342636477042
 20
-2735.003906394601
 42
0.4142135623731
 10
844.0342636477042
 20
-2736.503906394601
 42
0.4142135623731
 10
845.5342636477042
 20
-2738.003906394601
 42
0.4142135623731
  0
LWPOLYLINE
  5
20B
330
1F
100
AcDbEntity
  8
1-B_寸法
  6
Continuous
 62
     7
370
     9
100
AcDbPolyline
 90
        4
 70
     1
 43
3.0
 10
847.0342636477042
 20
-2916.5039063946
 42
0.4142135623731
 10
845.5342636477042
 20
-2915.003906394601
 42
0.4142135623731
 10
844.0342636477042
 20
-2916.5039063946
 42
0.4142135623731
 10
845.5342636477042
 20
-2918.0039063946
 42
0.4142135623731
  0
LWPOLYLINE
  5
20C
330
1F
100
AcDbEntity
  8
1-B_寸法
  6
Continuous
 62
     7
370
     9
100
AcDbPolyline
 90
        4
 70
     1
 43
3.0
 10
697.0342636477042
 20
-2691.503906394601
 42
0.4142135623731
 10
695.5342636477042
 20
-2690.003906394601
 42
0.4142135623731
 10
694.0342636477042
 20
-2691.503906394601
 42
0.4142135623731
 10
695.5342636477042
 20
-2693.003906394601
 42
0.4142135623731
  0
LWPOLYLINE
  5
20D
330
1F
100
AcDbEntity
  8
1-B_寸法
  6
Continuous
 62
     7
370
     9
100
AcDbPolyline
 90
        4
 70
     1
 43
3.0
 10
697.0342636477042
 20
-2736.503906394601
 42
0.4142135623731
 10
695.5342636477042
 20
-2735.003906394601
 42
0.4142135623731
 10
694.0342636477042
 20
-2736.503906394601
 42
0.4142135623731
 10
695.5342636477042
 20
-2738.003906394601
 42
0.4142135623731
  0
LINE
  5
20E
330
1F
100
AcDbEntity
  8
1-B_寸法
  6
Continuous
 62
   120
370
     5
100
AcDbLine
 10
845.5342636477042
 20
-2916.5039063946
 30
0.0
 11
545.5342636477042
 21
-2916.5039063946
 31
0.0
  0
LINE
  5
20F
330
1F
100
AcDbEntity
  8
1-B_寸法
  6
Continuous
 62
   120
370
     5
100
AcDbLine
 10
845.5342636477042
 20
-2736.503906394601
 30
0.0
 11
845.5342636477042
 21
-2916.5039063946
 31
0.0
  0
LINE
  5
210
330
1F
100
AcDbEntity
  8
1-B_寸法
  6
Continuous
 62
   120
370
     5
100
AcDbLine
 10
695.5342636477042
 20
-2691.503906394601
 30
0.0
 11
695.5342636477042
 21
-2736.503906394601
 31
0.0
  0
LINE
  5
211
330
1F
100
AcDbEntity
  8
1-B_寸法
  6
Continuous
 62
   120
370
     5
100
AcDbLine
 10
545.5342636477042
 20
-2691.503906394601
 30
0.0
 11
695.5342636477042
 21
-2691.503906394601
 31
0.0
  0
LINE
  5
212
330
1F
100
AcDbEntity
  8
1-B_寸法
  6
Continuous
 62
   120
370
     5
100
AcDbLine
 10
845.5342636477042
 20
-2736.503906394601
 30
0.0
 11
545.5342636477042
 21
-2736.503906394601
 31
0.0
  0
LINE
  5
213
330
1F
100
AcDbEntity
  8
1-6_扉
  6
JWW_DASHED2
 62
     7
370
     9
100
AcDbLine
 10
328.0299864184224
 20
-2609.003906394601
 30
0.0
 11
151.7821035754116
 21
-2609.003906394601
 31
0.0
  0
LINE
  5
214
330
1F
100
AcDbEntity
  8
1-6_扉
  6
JWW_DASHED2
 62
     7
370
     9
100
AcDbLine
 10
545.5342636477042
 20
-2609.003906394601
 30
0.0
 11
425.5342636477076
 21
-2609.003906394601
 31
0.0
  0
LINE
  5
215
330
1F
100
AcDbEntity
  8
1-7_金物
  6
Continuous
 62
     7
370
     9
100
AcDbLine
 10
425.5342636477076
 20
-2609.003906394601
 30
0.0
 11
470.5342636477042
 21
-2609.003906394601
 31
0.0
  0
LINE
  5
216
330
1F
100
AcDbEntity
  8
1-7_金物
  6
Continuous
 62
     7
370
     9
100
AcDbLine
 10
470.5342636477042
 20
-2609.003906394601
 30
0.0
 11
470.5342636477042
 21
-2624.003906394598
 31
0.0
  0
LINE
  5
217
330
1F
100
AcDbEntity
  8
1-7_金物
  6
Continuous
 62
     7
370
     9
100
AcDbLine
 10
410.5342636477042
 20
-2624.003906394598
 30
0.0
 11
470.5342636477042
 21
-2624.003906394598
 31
0.0
  0
LINE
  5
218
330
1F
100
AcDbEntity
  8
1-7_金物
  6
Continuous
 62
     7
370
     9
100
AcDbLine
 10
410.5342636477042
 20
-2354.003906394601
 30
0.0
 11
343.034263647711
 21
-2354.003906394601
 31
0.0
  0
LINE
  5
219
330
1F
100
AcDbEntity
  8
1-7_金物
  6
Continuous
 62
     7
370
     9
100
AcDbLine
 10
328.0342636477076
 20
-2339.003906394601
 30
0.0
 11
425.5342636477076
 21
-2339.003906394601
 31
0.0
  0
LINE
  5
21A
330
1F
100
AcDbEntity
  8
1-7_金物
  6
Continuous
 62
     7
370
     9
100
AcDbLine
 10
410.5342636477042
 20
-2354.003906394601
 30
0.0
 11
410.5342636477042
 21
-2624.003906394598
 31
0.0
  0
LINE
  5
21B
330
1F
100
AcDbEntity
  8
1-7_金物
  6
Continuous
 62
     7
370
     9
100
AcDbLine
 10
425.5342636477076
 20
-2339.003906394601
 30
0.0
 11
425.5342636477076
 21
-2609.003906394601
 31
0.0
  0
LINE
  5
21C
330
1F
100
AcDbEntity
  8
1-7_金物
  6
Continuous
 62
     7
370
     9
100
AcDbLine
 10
343.034263647711
 20
-2624.003906394598
 30
0.0
 11
283.0342636477042
 21
-2624.003906394598
 31
0.0
  0
LINE
  5
21D
330
1F
100
AcDbEntity
  8
1-7_金物
  6
Continuous
 62
     7
370
     9
100
AcDbLine
 10
343.034263647711
 20
-2624.003906394598
 30
0.0
 11
343.034263647711
 21
-2354.003906394601
 31
0.0
  0
LINE
  5
21E
330
1F
100
AcDbEntity
  8
1-7_金物
  6
Continuous
 62
     7
370
     9
100
AcDbLine
 10
283.0342636477042
 20
-2624.003906394598
 30
0.0
 11
283.0342636477042
 21
-2609.003906394601
 31
0.0
  0
LINE
  5
21F
330
1F
100
AcDbEntity
  8
1-7_金物
  6
Continuous
 62
     7
370
     9
100
AcDbLine
 10
283.0342636477042
 20
-2609.003906394601
 30
0.0
 11
328.0342636477076
 21
-2609.003906394601
 31
0.0
  0
LINE
  5
220
330
1F
100
AcDbEntity
  8
1-7_金物
  6
Continuous
 62
     7
370
     9
100
AcDbLine
 10
328.0342636477076
 20
-2609.003906394601
 30
0.0
 11
328.0342636477076
 21
-2339.003906394601
 31
0.0
  0
LINE
  5
221
330
1F
100
AcDbEntity
  8
1-6_扉
  6
JWW_DASHED2
 62
     7
370
     9
100
AcDbLine
 10
425.5321035754048
 20
-2339.003906394598
 30
0.0
 11
328.0299864184224
 21
-2339.003906394598
 31
0.0
  0
LINE
  5
222
330
1F
100
AcDbEntity
  8
1-6_扉
  6
JWW_DASHED2
 62
     7
370
     9
100
AcDbLine
 10
425.5321035754048
 20
-2339.003906394598
 30
0.0
 11
425.5321035754048
 21
-2609.003906394597
 31
0.0
  0
LINE
  5
223
330
1F
100
AcDbEntity
  8
1-6_扉
  6
JWW_DASHED2
 62
     7
370
     9
100
AcDbLine
 10
328.0299864184224
 20
-2609.003906394597
 30
0.0
 11
328.0299864184224
 21
-2339.003906394598
 31
0.0
  0
LINE
  5
224
330
1F
100
AcDbEntity
  8
1-B_寸法
  6
Continuous
 62
   120
370
     5
100
AcDbLine
 10
54.2821035754082
 20
-2122.852800090842
 30
0.0
 11
54.2821035754082
 21
-2272.852800090842
 31
0.0
  0
LWPOLYLINE
  5
225
330
1F
100
AcDbEntity
  8
1-B_寸法
  6
Continuous
 62
     7
370
     9
100
AcDbPolyline
 90
        4
 70
     1
 43
3.0
 10
55.7821035754082
 20
-2122.852800090842
 42
0.4142135623731
 10
54.2821035754082
 20
-2121.352800090842
 42
0.4142135623731
 10
52.7821035754082
 20
-2122.852800090842
 42
0.4142135623731
 10
54.2821035754082
 20
-2124.352800090842
 42
0.4142135623731
  0
LINE
  5
226
330
1F
100
AcDbEntity
  8
1-B_寸法
  6
Continuous
 62
   120
370
     5
100
AcDbLine
 10
129.2842636477042
 20
-2122.852800090842
 30
0.0
 11
54.2821035754082
 21
-2122.852800090842
 31
0.0
  0
LINE
  5
227
330
1F
100
AcDbEntity
  8
1-B_寸法
  6
Continuous
 62
   120
370
     5
100
AcDbLine
 10
129.2842636477042
 20
-2122.852800090842
 30
0.0
 11
129.2842636477042
 21
-2272.852800090842
 31
0.0
  0
LINE
  5
228
330
1F
100
AcDbEntity
  8
1-B_寸法
  6
Continuous
 62
   120
370
     5
100
AcDbLine
 10
399.284263647728
 20
-2122.852800090842
 30
0.0
 11
399.284263647728
 21
-2272.852800090842
 31
0.0
  0
LWPOLYLINE
  5
229
330
1F
100
AcDbEntity
  8
1-B_寸法
  6
Continuous
 62
     7
370
     9
100
AcDbPolyline
 90
        4
 70
     1
 43
3.0
 10
130.7842636477042
 20
-2122.852800090842
 42
0.4142135623731
 10
129.2842636477042
 20
-2121.352800090842
 42
0.4142135623731
 10
127.7842636477042
 20
-2122.852800090842
 42
0.4142135623731
 10
129.2842636477042
 20
-2124.352800090842
 42
0.4142135623731
  0
LWPOLYLINE
  5
22A
330
1F
100
AcDbEntity
  8
1-B_寸法
  6
Continuous
 62
     7
370
     9
100
AcDbPolyline
 90
        4
 70
     1
 43
3.0
 10
400.784263647728
 20
-2122.852800090842
 42
0.4142135623731
 10
399.284263647728
 20
-2121.352800090842
 42
0.4142135623731
 10
397.784263647728
 20
-2122.852800090842
 42
0.4142135623731
 10
399.284263647728
 20
-2124.352800090842
 42
0.4142135623731
  0
LINE
  5
22B
330
1F
100
AcDbEntity
  8
1-B_寸法
  6
Continuous
 62
   120
370
     5
100
AcDbLine
 10
399.284263647728
 20
-2122.852800090842
 30
0.0
 11
129.2842636477042
 21
-2122.852800090842
 31
0.0
  0
LINE
  5
22C
330
1F
100
AcDbEntity
  8
1-B_寸法
  6
Continuous
 62
   120
370
     5
100
AcDbLine
 10
-76.39593303024981
 20
-2436.503906394601
 30
0.0
 11
16.7821035754082
 21
-2436.503906394601
 31
0.0
  0
LWPOLYLINE
  5
22D
330
1F
100
AcDbEntity
  8
1-B_寸法
  6
Continuous
 62
     7
370
     9
100
AcDbPolyline
 90
        4
 70
     1
 43
3.0
 10
-74.89593303024981
 20
-2436.503906394601
 42
0.4142135623731
 10
-76.39593303024981
 20
-2435.003906394601
 42
0.4142135623731
 10
-77.89593303024981
 20
-2436.503906394601
 42
0.4142135623731
 10
-76.39593303024981
 20
-2438.003906394601
 42
0.4142135623731
  0
LINE
  5
22E
330
1F
100
AcDbEntity
  8
1-B_寸法
  6
Continuous
 62
   120
370
     5
100
AcDbLine
 10
-76.39593303024981
 20
-2736.503906394601
 30
0.0
 11
-76.39593303024981
 21
-2436.503906394601
 31
0.0
  0
ARC
  5
22F
330
1F
100
AcDbEntity
  8
1-7_金物
  6
Continuous
 62
    92
370
    13
100
AcDbCircle
 10
354.284263647728
 20
-2691.503906394601
 30
0.0
 40
45.0
100
AcDbArc
 50
270.0
 51
0.0
  0
LINE
  5
230
330
1F
100
AcDbEntity
  8
1-7_金物
  6
Continuous
 62
    92
370
    13
100
AcDbLine
 10
399.284263647728
 20
-2691.503906394601
 30
0.0
 11
399.284263647728
 21
-2436.503906394601
 31
0.0
  0
LINE
  5
231
330
1F
100
AcDbEntity
  8
1-7_金物
  6
Continuous
 62
    92
370
    13
100
AcDbLine
 10
354.284263647728
 20
-2736.503906394601
 30
0.0
 11
129.2842636477042
 21
-2736.503906394601
 31
0.0
  0
LINE
  5
232
330
1F
100
AcDbEntity
  8
1-7_金物
  6
Continuous
 62
    92
370
    13
100
AcDbLine
 10
354.284263647728
 20
-2436.503906394601
 30
0.0
 11
354.284263647728
 21
-2691.503906394601
 31
0.0
  0
LINE
  5
233
330
1F
100
AcDbEntity
  8
1-7_金物
  6
Continuous
 62
    92
370
    13
100
AcDbLine
 10
354.284263647728
 20
-2436.503906394601
 30
0.0
 11
399.284263647728
 21
-2436.503906394601
 31
0.0
  0
LINE
  5
234
330
1F
100
AcDbEntity
  8
1-7_金物
  6
Continuous
 62
    92
370
    13
100
AcDbLine
 10
129.2842636477042
 20
-2691.503906394601
 30
0.0
 11
354.284263647728
 21
-2691.503906394601
 31
0.0
  0
LINE
  5
235
330
1F
100
AcDbEntity
  8
1-7_金物
  6
Continuous
 62
    92
370
    13
100
AcDbLine
 10
129.2842636477042
 20
-2691.503906394601
 30
0.0
 11
129.2842636477042
 21
-2736.503906394601
 31
0.0
  0
LINE
  5
236
330
1F
100
AcDbEntity
  8
1-7_金物
  6
Continuous
 62
   120
370
     5
100
AcDbLine
 10
129.2842636477042
 20
-2713.739831611431
 30
0.0
 11
151.518696146353
 21
-2691.505399112783
 31
0.0
  0
LINE
  5
237
330
1F
100
AcDbEntity
  8
1-7_金物
  6
Continuous
 62
   120
370
     5
100
AcDbLine
 10
354.2842636477246
 20
-2488.739831611419
 30
0.0
 11
399.2842636477451
 21
-2443.739831611395
 31
0.0
  0
LINE
  5
238
330
1F
100
AcDbEntity
  8
1-7_金物
  6
Continuous
 62
   120
370
     5
100
AcDbLine
 10
354.2842636477417
 20
-2552.379441918279
 30
0.0
 11
399.2842636477519
 21
-2507.379441918266
 31
0.0
  0
LINE
  5
239
330
1F
100
AcDbEntity
  8
1-7_金物
  6
Continuous
 62
   120
370
     5
100
AcDbLine
 10
170.1597991714152
 20
-2736.503906394607
 30
0.0
 11
215.1583064531906
 21
-2691.505399112828
 31
0.0
  0
LINE
  5
23A
330
1F
100
AcDbEntity
  8
1-7_金物
  6
Continuous
 62
   120
370
     5
100
AcDbLine
 10
354.2842636477178
 20
-2616.019052225046
 30
0.0
 11
399.2842636477349
 21
-2571.019052225031
 31
0.0
  0
LINE
  5
23B
330
1F
100
AcDbEntity
  8
1-7_金物
  6
Continuous
 62
   120
370
     5
100
AcDbLine
 10
233.7994094781709
 20
-2736.503906394599
 30
0.0
 11
278.7979167599531
 21
-2691.505399112802
 31
0.0
  0
LINE
  5
23C
330
1F
100
AcDbEntity
  8
1-7_金物
  6
Continuous
 62
   120
370
     5
100
AcDbLine
 10
354.2842636476905
 20
-2679.658662531808
 30
0.0
 11
399.284263647728
 21
-2634.658662531785
 31
0.0
  0
LINE
  5
23D
330
1F
100
AcDbEntity
  8
1-7_金物
  6
Continuous
 62
   120
370
     5
100
AcDbLine
 10
297.4390197849232
 20
-2736.503906394578
 30
0.0
 11
342.4375270667326
 21
-2691.505399112777
 31
0.0
  0
LINE
  5
23E
330
1F
100
AcDbEntity
  8
1-7_金物
  6
Continuous
 62
   120
370
     5
100
AcDbLine
 10
361.690078626259
 20
-2735.892457860139
 30
0.0
 11
398.6842574642469
 21
-2698.898279022144
 31
0.0
  0
LINE
  5
23F
330
1F
100
AcDbEntity
  8
1-A_文字
  6
Continuous
 62
     7
370
     9
100
AcDbLine
 10
161.0797196028966
 20
-2717.234375782171
 30
0.0
 11
-32.67130196276753
 21
-3052.820989152277
 31
0.0
  0
LINE
  5
240
330
1F
100
AcDbEntity
  8
1-A_文字
  6
Continuous
 62
     7
370
     9
100
AcDbLine
 10
-32.67130196276753
 20
-3052.820989152277
 30
0.0
 11
-107.6713019627675
 21
-3052.820989152277
 31
0.0
  0
LINE
  5
241
330
1F
100
AcDbEntity
  8
1-B_寸法
  6
Continuous
 62
   120
370
     5
100
AcDbLine
 10
-76.39593303024981
 20
-2736.503906394601
 30
0.0
 11
16.7821035754082
 21
-2736.503906394601
 31
0.0
  0
LWPOLYLINE
  5
242
330
1F
100
AcDbEntity
  8
1-B_寸法
  6
Continuous
 62
     7
370
     9
100
AcDbPolyline
 90
        4
 70
     1
 43
3.0
 10
-74.89593303024981
 20
-2736.503906394601
 42
0.4142135623731
 10
-76.39593303024981
 20
-2735.003906394601
 42
0.4142135623731
 10
-77.89593303024981
 20
-2736.503906394601
 42
0.4142135623731
 10
-76.39593303024981
 20
-2738.003906394601
 42
0.4142135623731
  0
LINE
  5
243
330
1F
100
AcDbEntity
  8
1-0_補助線
  6
JWW_HOJO
 62
   120
370
     5
100
AcDbLine
 10
-20.71789642457475
 20
-2264.0039063946
 30
0.0
 11
-20.71789642457475
 21
-2916.50339071329
 31
0.0
  0
LINE
  5
244
330
1F
100
AcDbEntity
  8
1-0_補助線
  6
JWW_HOJO
 62
   120
370
     5
100
AcDbLine
 10
-196.9678964246191
 20
-2264.0039063946
 30
0.0
 11
-196.9678964246191
 21
-2916.50339071329
 31
0.0
  0
LINE
  5
245
330
1F
100
AcDbEntity
  8
1-0_補助線
  6
JWW_HOJO
 62
   120
370
     5
100
AcDbLine
 10
676.7821035754116
 20
-2264.0039063946
 30
0.0
 11
-196.9678964246191
 21
-2264.0039063946
 31
0.0
  0
LINE
  5
246
330
1F
100
AcDbEntity
  8
1-B_寸法
  6
Continuous
 62
   120
370
     5
100
AcDbLine
 10
391.7821035754116
 20
-1324.33699514071
 30
0.0
 11
54.28210357542525
 21
-1324.33699514071
 31
0.0
  0
LINE
  5
247
330
1F
100
AcDbEntity
  8
1-B_寸法
  6
Continuous
 62
   120
370
     5
100
AcDbLine
 10
54.28210357542525
 20
-1324.33699514071
 30
0.0
 11
54.28210357542525
 21
-1474.33699514071
 31
0.0
  0
LINE
  5
248
330
1F
100
AcDbEntity
  8
1-B_寸法
  6
Continuous
 62
   120
370
     5
100
AcDbLine
 10
151.7821035754116
 20
-1324.33699514071
 30
0.0
 11
151.7821035754116
 21
-1474.33699514071
 31
0.0
  0
LWPOLYLINE
  5
249
330
1F
100
AcDbEntity
  8
1-B_寸法
  6
Continuous
 62
     7
370
     9
100
AcDbPolyline
 90
        4
 70
     1
 43
3.0
 10
55.78210357542525
 20
-1324.33699514071
 42
0.4142135623731
 10
54.28210357542525
 20
-1322.836995140711
 42
0.4142135623731
 10
52.78210357542525
 20
-1324.33699514071
 42
0.4142135623731
 10
54.28210357542525
 20
-1325.83699514071
 42
0.4142135623731
  0
LWPOLYLINE
  5
24A
330
1F
100
AcDbEntity
  8
1-B_寸法
  6
Continuous
 62
     7
370
     9
100
AcDbPolyline
 90
        4
 70
     1
 43
3.0
 10
153.2821035754116
 20
-1324.33699514071
 42
0.4142135623731
 10
151.7821035754116
 20
-1322.836995140711
 42
0.4142135623731
 10
150.2821035754116
 20
-1324.33699514071
 42
0.4142135623731
 10
151.7821035754116
 20
-1325.83699514071
 42
0.4142135623731
  0
LINE
  5
24B
330
1F
100
AcDbEntity
  8
1-0_補助線
  6
JWW_HOJO
 62
   120
370
     5
100
AcDbLine
 10
376.7821035754355
 20
-931.7585027460607
 30
0.0
 11
376.7821035754355
 21
-2916.503906394596
 31
0.0
  0
LINE
  5
24C
330
1F
100
AcDbEntity
  8
1-6_扉
  6
JWW_DASHED2
 62
     7
370
     9
100
AcDbLine
 10
601.7821035754116
 20
-931.7585027460607
 30
0.0
 11
601.7821035754116
 21
-2402.944467353419
 31
0.0
  0
LINE
  5
24D
330
1F
100
AcDbEntity
  8
1-0_補助線
  6
JWW_HOJO
 62
   120
370
     5
100
AcDbLine
 10
676.7821035754116
 20
-2264.0039063946
 30
0.0
 11
676.7821035754116
 21
-2916.50339071329
 31
0.0
  0
LINE
  5
24E
330
1F
100
AcDbEntity
  8
1-0_補助線
  6
JWW_HOJO
 62
   120
370
     5
100
AcDbLine
 10
500.5321035754082
 20
-2264.0039063946
 30
0.0
 11
500.5321035754082
 21
-2916.50339071329
 31
0.0
  0
LINE
  5
24F
330
1F
100
AcDbEntity
  8
1-3_仕上げ
  6
Continuous
 62
    40
370
    15
100
AcDbLine
 10
-949.2556020560107
 20
-2916.503906394596
 30
0.0
 11
1123.708444578704
 21
-2916.503906394596
 31
0.0
  0
LINE
  5
250
330
1F
100
AcDbEntity
  8
1-3_仕上げ
  6
Continuous
 62
    40
370
    15
100
AcDbLine
 10
-949.2556020560107
 20
-2736.503906394598
 30
0.0
 11
1123.708444578704
 21
-2736.503906394598
 31
0.0
  0
LINE
  5
251
330
1F
100
AcDbEntity
  8
1-1_通り芯
  6
JWW_CENTER1
 62
   120
370
     5
100
AcDbLine
 10
91.78210357543207
 20
-902.9617585251316
 30
0.0
 11
91.78210357543207
 21
-3050.585246061583
 31
0.0
  0
MTEXT
  5
252
330
1F
100
AcDbEntity
  8
0-A_文字
  6
Continuous
 62
     7
370
     9
100
AcDbMText
 10
1869.918542843315
 20
351.6712330888004
 30
0.0
 40
91.43999999999996
 41
1800.0
 46
0.0
 71
     7
 72
     1
  1
{\fＭＳ ゴシック|b0|i0|c128|p49;振れ止め金具(床付け用)取り付け}
 73
     1
 44
1.0
  0
LINE
  5
253
330
1F
100
AcDbEntity
  8
0-A_文字
  6
Continuous
 62
    92
370
    13
100
AcDbLine
 10
1651.782103575428
 20
335.9512330888004
 30
0.0
 11
3888.054982111203
 21
335.9512330888004
 31
0.0
  0
LINE
  5
254
330
1F
100
AcDbEntity
  8
0-A_文字
  6
Continuous
 62
    92
370
    13
100
AcDbLine
 10
1651.782103575428
 20
-3258.848919265033
 30
0.0
 11
3888.054982111203
 21
-3258.848919265033
 31
0.0
  0
LINE
  5
255
330
1F
100
AcDbEntity
  8
0-A_文字
  6
Continuous
 62
    92
370
    13
100
AcDbLine
 10
1651.782103575428
 20
515.9512330888004
 30
0.0
 11
3888.054982111203
 21
515.9512330888004
 31
0.0
  0
LINE
  5
256
330
1F
100
AcDbEntity
  8
0-A_文字
  6
Continuous
 62
    92
370
    13
100
AcDbLine
 10
1651.782103575428
 20
-3258.848919265033
 30
0.0
 11
1651.782103575428
 21
515.9512330888004
 31
0.0
  0
LINE
  5
257
330
1F
100
AcDbEntity
  8
0-A_文字
  6
Continuous
 62
    92
370
    13
100
AcDbLine
 10
3888.054982111203
 20
-3258.848919265033
 30
0.0
 11
3888.054982111203
 21
515.9512330888004
 31
0.0
  0
LINE
  5
258
330
1F
100
AcDbEntity
  8
0-A_文字
  6
Continuous
 62
    92
370
    13
100
AcDbLine
 10
1411.782103575428
 20
-3258.848919265033
 30
0.0
 11
1411.782103575428
 21
-468.8489192650326
 31
0.0
  0
LINE
  5
259
330
1F
100
AcDbEntity
  8
F-1_枠
  6
JWW_HOJO
 62
   120
370
     5
100
AcDbLine
 10
-6140.081333436773
 20
4424.999604096284
 30
0.0
 11
6159.917676803936
 21
4424.999604096284
 31
0.0
  0
LINE
  5
25A
330
1F
100
AcDbEntity
  8
F-1_枠
  6
JWW_HOJO
 62
   120
370
     5
100
AcDbLine
 10
-6140.081333436773
 20
-4455.0
 30
0.0
 11
-6140.081333436773
 21
4424.999604096284
 31
0.0
  0
LINE
  5
25B
330
1F
100
AcDbEntity
  8
F-1_枠
  6
JWW_HOJO
 62
   120
370
     5
100
AcDbLine
 10
6159.917676803936
 20
4424.999604096284
 30
0.0
 11
6159.917676803936
 21
-4455.0
 31
0.0
  0
LINE
  5
25C
330
1F
100
AcDbEntity
  8
F-1_枠
  6
JWW_HOJO
 62
   120
370
     5
100
AcDbLine
 10
6159.917676803936
 20
-4455.0
 30
0.0
 11
-6140.081333436773
 21
-4455.0
 31
0.0
  0
LINE
  5
25D
330
1F
100
AcDbEntity
  8
F-1_枠
  6
JWW_HOJO
 62
     7
370
     9
100
AcDbLine
 10
1009.918254163523
 20
-3795.000003092998
 30
0.0
 11
1009.918254163523
 21
-4195.000008247994
 31
0.0
  0
LINE
  5
25E
330
1F
100
AcDbEntity
  8
F-1_枠
  6
JWW_HOJO
 62
     7
370
     9
100
AcDbLine
 10
509.9185840832865
 20
-3795.000003092998
 30
0.0
 11
509.9185840832865
 21
-4195.000008247994
 31
0.0
  0
LINE
  5
25F
330
1F
100
AcDbEntity
  8
F-1_枠
  6
Continuous
 62
   200
370
    20
100
AcDbLine
 10
5859.917429364114
 20
4174.999769056166
 30
0.0
 11
5859.917429364114
 21
-4205.000164959882
 31
0.0
  0
LINE
  5
260
330
1F
100
AcDbEntity
  8
F-1_枠
  6
Continuous
 62
   200
370
    20
100
AcDbLine
 10
-5840.081317971782
 20
4174.999769056166
 30
0.0
 11
-5840.081317971782
 21
-4205.000164959882
 31
0.0
  0
LINE
  5
261
330
1F
100
AcDbEntity
  8
F-1_枠
  6
Continuous
 62
   200
370
    20
100
AcDbLine
 10
5859.917429364114
 20
-4205.000002577498
 30
0.0
 11
-5840.081085996952
 21
-4205.000002577498
 31
0.0
  0
LINE
  5
262
330
1F
100
AcDbEntity
  8
F-1_枠
  6
Continuous
 62
   200
370
    20
100
AcDbLine
 10
-5830.081323642279
 20
4174.999769056166
 30
0.0
 11
-5830.081323642279
 21
-4205.000164959882
 31
0.0
  0
LINE
  5
263
330
1F
100
AcDbEntity
  8
F-1_枠
  6
Continuous
 62
   200
370
    20
100
AcDbLine
 10
-5835.081309208291
 20
4174.999769056166
 30
0.0
 11
-5835.081309208291
 21
-4205.000164959882
 31
0.0
  0
LINE
  5
264
330
1F
100
AcDbEntity
  8
F-1_枠
  6
Continuous
 62
   200
370
    20
100
AcDbLine
 10
5854.917165428304
 20
4174.999769056166
 30
0.0
 11
5854.917165428304
 21
-4205.000164959882
 31
0.0
  0
LINE
  5
265
330
1F
100
AcDbEntity
  8
F-1_枠
  6
Continuous
 62
   200
370
    20
100
AcDbLine
 10
5849.917643811961
 20
4174.999769056166
 30
0.0
 11
5849.917643811961
 21
-4205.000164959882
 31
0.0
  0
LINE
  5
266
330
1F
100
AcDbEntity
  8
F-1_枠
  6
Continuous
 62
   200
370
    20
100
AcDbLine
 10
5859.917429364114
 20
-4199.999993814004
 30
0.0
 11
-5840.081085996952
 21
-4199.999993814004
 31
0.0
  0
LINE
  5
267
330
1F
100
AcDbEntity
  8
F-1_枠
  6
Continuous
 62
   200
370
    20
100
AcDbLine
 10
5859.917429364114
 20
-4195.000008247994
 30
0.0
 11
-5840.081085996952
 21
-4195.000008247994
 31
0.0
  0
LINE
  5
268
330
1F
100
AcDbEntity
  8
F-1_枠
  6
Continuous
 62
   200
370
    20
100
AcDbLine
 10
4349.917891251784
 20
-3795.000003092998
 30
0.0
 11
4349.917891251784
 21
-4195.000008247994
 31
0.0
  0
LINE
  5
269
330
1F
100
AcDbEntity
  8
F-1_枠
  6
Continuous
 62
   200
370
    20
100
AcDbLine
 10
2849.917396372139
 20
-3795.000003092998
 30
0.0
 11
2849.917396372139
 21
-4195.000008247994
 31
0.0
  0
LINE
  5
26A
330
1F
100
AcDbEntity
  8
F-1_枠
  6
Continuous
 62
   200
370
    20
100
AcDbLine
 10
9.918542843316231
 20
-3795.000003092998
 30
0.0
 11
9.918542843316231
 21
-4195.000008247994
 31
0.0
  0
LINE
  5
26B
330
1F
100
AcDbEntity
  8
F-1_枠
  6
Continuous
 62
   200
370
    20
100
AcDbLine
 10
9.918542843316231
 20
-3994.999936078046
 30
0.0
 11
5849.917643811961
 21
-3995.005364289155
 31
0.0
  0
LINE
  5
26C
330
1F
100
AcDbEntity
  8
F-1_枠
  6
Continuous
 62
   200
370
    20
100
AcDbLine
 10
-5840.081085996952
 20
4174.999769056166
 30
0.0
 11
5859.917429364114
 21
4174.999769056166
 31
0.0
  0
LINE
  5
26D
330
1F
100
AcDbEntity
  8
F-1_枠
  6
Continuous
 62
   200
370
    20
100
AcDbLine
 10
-5840.081085996952
 20
4164.999983504013
 30
0.0
 11
5859.917429364114
 21
4164.999983504013
 31
0.0
  0
LINE
  5
26E
330
1F
100
AcDbEntity
  8
F-1_枠
  6
Continuous
 62
   200
370
    20
100
AcDbLine
 10
-5840.081085996952
 20
4169.999505120355
 30
0.0
 11
5859.917429364114
 21
4169.999505120355
 31
0.0
  0
LINE
  5
26F
330
1F
100
AcDbEntity
  8
F-1_枠
  6
JWW_HOJO
 62
     7
370
     9
100
AcDbLine
 10
-5830.081323642279
 20
-3994.99993607839
 30
0.0
 11
9.918542843316231
 21
-3994.99993607839
 31
0.0
  0
LINE
  5
270
330
1F
100
AcDbEntity
  8
F-1_枠
  6
JWW_HOJO
 62
     7
370
     9
100
AcDbLine
 10
-5830.081323642279
 20
-3904.99993607839
 30
0.0
 11
9.918542843316231
 21
-3904.99993607839
 31
0.0
  0
LINE
  5
271
330
1F
100
AcDbEntity
  8
F-1_枠
  6
JWW_HOJO
 62
     7
370
     9
100
AcDbLine
 10
-5830.081323642279
 20
-4084.99993607839
 30
0.0
 11
9.918542843316231
 21
-4084.99993607839
 31
0.0
  0
LINE
  5
272
330
1F
100
AcDbEntity
  8
F-1_枠
  6
JWW_HOJO
 62
     7
370
     9
100
AcDbLine
 10
9.918408067688347
 20
-4139.999739777983
 30
0.0
 11
5849.917509036332
 21
-4140.005167989091
 31
0.0
  0
LINE
  5
273
330
1F
100
AcDbEntity
  8
F-1_枠
  6
JWW_HOJO
 62
     7
370
     9
100
AcDbLine
 10
9.918491721639953
 20
-4049.999739778022
 30
0.0
 11
5849.917592690284
 21
-4050.005167989131
 31
0.0
  0
LINE
  5
274
330
1F
100
AcDbEntity
  8
F-1_枠
  6
JWW_HOJO
 62
     7
370
     9
100
AcDbLine
 10
9.918593965360003
 20
-3939.99973721807
 30
0.0
 11
5849.917694934004
 21
-3940.005165429179
 31
0.0
  0
LINE
  5
275
330
1F
100
AcDbEntity
  8
F-1_枠
  6
JWW_HOJO
 62
     7
370
     9
100
AcDbLine
 10
9.918677619311609
 20
-3849.999737218109
 30
0.0
 11
5849.917778587956
 21
-3850.005165429218
 31
0.0
  0
LINE
  5
276
330
1F
100
AcDbEntity
  8
F-1_枠
  6
JWW_HOJO
 62
     7
370
     9
100
AcDbLine
 10
2939.917396372139
 20
-3795.000003092998
 30
0.0
 11
2939.917396372139
 21
-4195.000008247994
 31
0.0
  0
LINE
  5
277
330
1F
100
AcDbEntity
  8
F-1_枠
  6
JWW_HOJO
 62
     7
370
     9
100
AcDbLine
 10
99.91854284331623
 20
-3795.000003092998
 30
0.0
 11
99.91854284331623
 21
-4195.000008247994
 31
0.0
  0
LINE
  5
278
330
1F
100
AcDbEntity
  8
F-1_枠
  6
JWW_HOJO
 62
     7
370
     9
100
AcDbLine
 10
4439.917891251784
 20
-3795.000003092998
 30
0.0
 11
4439.917891251784
 21
-4195.000008247994
 31
0.0
  0
MTEXT
  5
279
330
1F
100
AcDbEntity
  8
F-1_枠
  6
Continuous
 62
     7
370
     0
100
AcDbMText
 10
509.9185840832865
 20
-3946.496666872503
 30
0.0
 40
78.58125
 41
412.5
 46
0.0
 71
     7
 72
     1
  1
{\fＭＳ ゴシック|b0|i0|c128|p49;DOORETUS}
 73
     1
 44
1.0
  0
MTEXT
  5
27A
330
1F
100
AcDbEntity
  8
F-1_枠
  6
Continuous
 62
     7
370
     0
100
AcDbMText
 10
1110.209427605311
 20
-3946.734791872504
 30
0.0
 40
78.105
 41
615.0
 46
0.0
 71
     7
 72
     1
  1
{\fＭＳ ゴシック|b0|i0|c128|p49;建具納まり図}
 73
     1
 44
1.0
  0
MTEXT
  5
27B
330
1F
100
AcDbEntity
  8
F-1_枠
  6
Continuous
 62
     7
370
     0
100
AcDbMText
 10
99.91854284331623
 20
-3887.139820871936
 30
0.0
 40
45.72
 41
180.0
 46
0.0
 71
     7
 72
     1
  1
{\fＭＳ ゴシック|b0|i0|c128|p49;図面名}
 73
     1
 44
1.0
  0
MTEXT
  5
27C
330
1F
100
AcDbEntity
  8
F-1_枠
  6
Continuous
 62
     7
370
     0
100
AcDbMText
 10
2939.917396372139
 20
-3887.142460617774
 30
0.0
 40
45.72
 41
300.0
 46
0.0
 71
     7
 72
     1
  1
{\fＭＳ ゴシック|b0|i0|c128|p49;ＳＣＡＬＥ}
 73
     1
 44
1.0
  0
MTEXT
  5
27D
330
1F
100
AcDbEntity
  8
F-1_枠
  6
Continuous
 62
     7
370
     0
100
AcDbMText
 10
4439.917891251784
 20
-3887.143854850754
 30
0.0
 40
45.72
 41
240.0
 46
0.0
 71
     7
 72
     1
  1
{\fＭＳ ゴシック|b0|i0|c128|p49;ＤＡＴＥ}
 73
     1
 44
1.0
  0
MTEXT
  5
27E
330
1F
100
AcDbEntity
  8
F-1_枠
  6
Continuous
 62
     7
370
     0
100
AcDbMText
 10
3569.917643811961
 20
-3946.903115907308
 30
0.0
 40
76.19999999999999
 41
150.0
 46
0.0
 71
     7
 72
     1
  1
{\fＭＳ ゴシック|b0|i0|c128|p49;1/5}
 73
     1
 44
1.0
  0
LINE
  5
27F
330
1F
100
AcDbEntity
  8
F-1_枠
  6
Continuous
 62
   200
370
    20
100
AcDbLine
 10
5859.917429364114
 20
-3795.000003092998
 30
0.0
 11
-5840.081085996952
 21
-3795.000003092998
 31
0.0
  0
LINE
  5
280
330
1F
100
AcDbEntity
  8
F-1_枠
  6
Continuous
 62
   200
370
    20
100
AcDbLine
 10
5859.917429364114
 20
-3790.000017526987
 30
0.0
 11
-5840.081085996952
 21
-3790.000017526987
 31
0.0
  0
LINE
  5
281
330
1F
100
AcDbEntity
  8
F-1_枠
  6
JWW_HOJO
 62
     7
370
     9
100
AcDbLine
 10
-5087.628710189611
 20
-3795.000003092999
 30
0.0
 11
-5087.628710189611
 21
-4205.000164959882
 31
0.0
  0
MTEXT
  5
282
330
1F
100
AcDbEntity
  8
F-1_枠
  6
Continuous
 62
     7
370
     0
100
AcDbMText
 10
2939.917396372139
 20
-4087.14246317786
 30
0.0
 40
45.72
 41
240.0
 46
0.0
 71
     7
 72
     1
  1
{\fＭＳ ゴシック|b0|i0|c128|p49;ＦＩＬＥ}
 73
     1
 44
1.0
  0
LINE
  5
283
330
1F
100
AcDbEntity
  8
F-1_枠
  6
JWW_HOJO
 62
     7
370
     9
100
AcDbLine
 10
-50.08145715668377
 20
-3795.000003092998
 30
0.0
 11
-50.08145715668377
 21
-4195.000008247994
 31
0.0
  0
MTEXT
  5
284
330
1F
100
AcDbEntity
  8
F-1_枠
  6
Continuous
 62
     7
370
     0
100
AcDbMText
 10
4439.917891251784
 20
-4087.143857410839
 30
0.0
 40
45.72
 41
180.0
 46
0.0
 71
     7
 72
     1
  1
{\fＭＳ ゴシック|b0|i0|c128|p49;ＮＯ．}
 73
     1
 44
1.0
  0
MTEXT
  5
285
330
1F
100
AcDbEntity
  8
F-1_枠
  6
Continuous
 62
     7
370
     0
100
AcDbMText
 10
1394.917396372138
 20
-4096.140669266149
 30
0.0
 40
45.72
 41
120.0
 46
0.0
 71
     7
 72
     1
  1
{\fＭＳ ゴシック|b0|i0|c128|p49;株式}
 73
     1
 44
1.0
  0
MTEXT
  5
286
330
1F
100
AcDbEntity
  8
F-1_枠
  6
Continuous
 62
     7
370
     0
100
AcDbMText
 10
1604.917396372138
 20
-4164.281754523929
 30
0.0
 40
101.44125
 41
1065.0
 46
0.0
 71
     7
 72
     1
  1
{\fＭＳ ゴシック|b0|i0|c128|p49;ウッドワン・・・}
 73
     1
 44
1.0
  0
MTEXT
  5
287
330
1F
100
AcDbEntity
  8
F-1_枠
  6
Continuous
 62
     7
370
     0
100
AcDbMText
 10
1394.917396372138
 20
-4168.140669266187
 30
0.0
 40
45.72
 41
120.0
 46
0.0
 71
     7
 72
     1
  1
{\fＭＳ ゴシック|b0|i0|c128|p49;会社}
 73
     1
 44
1.0
  0
MTEXT
  5
288
330
1F
100
AcDbEntity
  8
F-1_枠
  6
Continuous
 62
     7
370
     0
100
AcDbMText
 10
5768.321977672939
 20
-4314.841419020919
 30
0.0
 40
68.58
 41
90.0
 46
0.0
 71
     7
 72
     1
  1
{\fＭＳ ゴシック|b0|i0|c128|p49;）}
 73
     1
 44
1.0
  0
MTEXT
  5
289
330
1F
100
AcDbEntity
  8
F-1_枠
  6
Continuous
 62
     7
370
     0
100
AcDbMText
 10
5350.114617405298
 20
-4316.235443869856
 30
0.0
 40
68.58
 41
45.0
 46
0.0
 71
     7
 72
     1
  1
{\fＭＳ ゴシック|b0|i0|c128|p49;,}
 73
     1
 44
1.0
  0
MTEXT
  5
28A
330
1F
100
AcDbEntity
  8
F-1_枠
  6
Continuous
 62
     7
370
     0
100
AcDbMText
 10
5083.855928478601
 20
-4314.771967288282
 30
0.0
 40
74.295
 41
97.5
 46
0.0
 71
     7
 72
     1
  1
{\fＭＳ ゴシック|b0|i0|c128|p49;$y}
 73
     1
 44
1.0
  0
MTEXT
  5
28B
330
1F
100
AcDbEntity
  8
F-1_枠
  6
Continuous
 62
     7
370
     0
100
AcDbMText
 10
5238.592649517422
 20
-4314.771967288282
 30
0.0
 40
74.295
 41
97.5
 46
0.0
 71
     7
 72
     1
  1
{\fＭＳ ゴシック|b0|i0|c128|p49;$m}
 73
     1
 44
1.0
  0
MTEXT
  5
28C
330
1F
100
AcDbEntity
  8
F-1_枠
  6
Continuous
 62
     7
370
     0
100
AcDbMText
 10
5393.32938200033
 20
-4314.771967288282
 30
0.0
 40
74.295
 41
97.5
 46
0.0
 71
     7
 72
     1
  1
{\fＭＳ ゴシック|b0|i0|c128|p49;$d}
 73
     1
 44
1.0
  0
MTEXT
  5
28D
330
1F
100
AcDbEntity
  8
F-1_枠
  6
Continuous
 62
     7
370
     0
100
AcDbMText
 10
5548.066114483239
 20
-4314.771967288282
 30
0.0
 40
74.295
 41
195.0
 46
0.0
 71
     7
 72
     1
  1
{\fＭＳ ゴシック|b0|i0|c128|p49;印刷}
 73
     1
 44
1.0
  0
MTEXT
  5
28E
330
1F
100
AcDbEntity
  8
F-1_枠
  6
Continuous
 62
     7
370
     0
100
AcDbMText
 10
4943.952040816226
 20
-4319.023493567732
 30
0.0
 40
68.58
 41
90.0
 46
0.0
 71
     7
 72
     1
  1
{\fＭＳ ゴシック|b0|i0|c128|p49;（}
 73
     1
 44
1.0
  0
MTEXT
  5
28F
330
1F
100
AcDbEntity
  8
F-1_枠
  6
Continuous
 62
     7
370
     0
100
AcDbMText
 10
5191.195810375571
 20
-4319.023493567732
 30
0.0
 40
68.58
 41
45.0
 46
0.0
 71
     7
 72
     1
  1
{\fＭＳ ゴシック|b0|i0|c128|p49;,}
 73
     1
 44
1.0
  0
ELLIPSE
  5
290
330
1F
100
AcDbEntity
  8
戸当り
  6
Continuous
 62
    92
370
    13
100
AcDbEllipse
 10
4785.830917458077
 20
2876.053590301511
 30
0.0
 11
11.36181697857171
 21
42.40287823032828
 31
0.0
210
0.0
220
0.0
230
0.9999999999999999
 40
0.6
 41
1.570796326794897
 42
4.71238898038469
  0
LINE
  5
291
330
1F
100
AcDbEntity
  8
戸当り
  6
Continuous
 62
    92
370
    13
100
AcDbLine
 10
4811.272644396275
 20
2869.236500114367
 30
0.0
 11
4760.389190519881
 21
2882.870680488653
 31
0.0
  0
LINE
  5
292
330
1F
100
AcDbEntity
  8
戸当り
  6
Continuous
 62
    92
370
    13
100
AcDbLine
 10
4814.533764364565
 20
2881.407165525609
 30
0.0
 11
4763.650310488172
 21
2895.041345899896
 31
0.0
  0
ELLIPSE
  5
293
330
1F
100
AcDbEntity
  8
戸当り
  6
Continuous
 62
    92
370
    13
100
AcDbEllipse
 10
4810.004310755758
 20
2966.269922279796
 30
0.0
 11
21.86569797210526
 21
81.6038957748525
 31
0.0
210
0.0
220
0.0
230
1.0
 40
0.5
 41
4.340591432030095
 42
8.225779182329084
  0
ELLIPSE
  5
294
330
1F
100
AcDbEntity
  8
戸当り
  6
Continuous
 62
    92
370
    13
100
AcDbEllipse
 10
4809.378687882656
 20
2963.935065931004
 30
0.0
 11
26.49533313827761
 21
98.88192943551533
 31
0.0
210
0.0
220
0.0
230
0.9999999999999999
 40
0.4
 41
3.840308517104466
 42
4.432552034522944
  0
ELLIPSE
  5
295
330
1F
100
AcDbEntity
  8
戸当り
  6
Continuous
 62
    92
370
    13
100
AcDbEllipse
 10
4809.378687882656
 20
2963.935065931004
 30
0.0
 11
26.49533313827761
 21
98.88192943551533
 31
0.0
210
0.0
220
0.0
230
0.9999999999999999
 40
0.4
 41
1.850633272656679
 42
2.442876790075129
  0
ELLIPSE
  5
296
330
1F
100
AcDbEntity
  8
戸当り
  6
Continuous
 62
    92
370
    13
100
AcDbEllipse
 10
4670.716707711375
 20
2838.28484693721
 30
0.0
 11
-7.622927487939132
 21
43.23177007461331
 31
0.0
210
0.0
220
0.0
230
1.0
 40
0.6000000000000001
 41
1.570796326794897
 42
4.71238898038469
  0
LINE
  5
297
330
1F
100
AcDbEntity
  8
戸当り
  6
Continuous
 62
    92
370
    13
100
AcDbLine
 10
4696.655769756144
 20
2842.858603429973
 30
0.0
 11
4644.777645666608
 21
2833.711090444447
 31
0.0
  0
LINE
  5
298
330
1F
100
AcDbEntity
  8
戸当り
  6
Continuous
 62
    92
370
    13
100
AcDbLine
 10
4694.467802717541
 20
2855.267181117928
 30
0.0
 11
4642.589678628005
 21
2846.1196681324
 31
0.0
  0
ELLIPSE
  5
299
330
1F
100
AcDbEntity
  8
戸当り
  6
Continuous
 62
    92
370
    13
100
AcDbEllipse
 10
4654.498172894877
 20
2930.264728582853
 30
0.0
 11
-14.67024424252691
 21
83.19908946199426
 31
0.0
210
0.0
220
0.0
230
1.0
 40
0.5
 41
4.340591432030095
 42
8.225779182329084
  0
ELLIPSE
  5
29A
330
1F
100
AcDbEntity
  8
戸当り
  6
Continuous
 62
    92
370
    13
100
AcDbEllipse
 10
4654.917918944778
 20
2927.884230441196
 30
0.0
 11
-17.7763823922528
 21
100.8148742797557
 31
0.0
210
0.0
220
0.0
230
1.0
 40
0.4000000000000001
 41
3.840308517104466
 42
4.432552034522944
  0
ELLIPSE
  5
29B
330
1F
100
AcDbEntity
  8
戸当り
  6
Continuous
 62
    92
370
    13
100
AcDbEllipse
 10
4654.917918944778
 20
2927.884230441196
 30
0.0
 11
-17.7763823922528
 21
100.8148742797557
 31
0.0
210
0.0
220
0.0
230
1.0
 40
0.4000000000000001
 41
1.850633272656679
 42
2.442876790075129
  0
ELLIPSE
  5
29C
330
1F
100
AcDbEntity
  8
戸当り
  6
Continuous
 62
    92
370
    13
100
AcDbEllipse
 10
4241.030917458076
 20
2876.053590301511
 30
0.0
 11
11.36181697857171
 21
42.40287823032828
 31
0.0
210
0.0
220
0.0
230
0.9999999999999999
 40
0.6
 41
1.570796326794897
 42
4.71238898038469
  0
LINE
  5
29D
330
1F
100
AcDbEntity
  8
戸当り
  6
Continuous
 62
    92
370
    13
100
AcDbLine
 10
4266.472644396273
 20
2869.236500114367
 30
0.0
 11
4215.589190519879
 21
2882.870680488653
 31
0.0
  0
LINE
  5
29E
330
1F
100
AcDbEntity
  8
戸当り
  6
Continuous
 62
    92
370
    13
100
AcDbLine
 10
4269.733764364564
 20
2881.407165525609
 30
0.0
 11
4218.85031048817
 21
2895.041345899896
 31
0.0
  0
ELLIPSE
  5
29F
330
1F
100
AcDbEntity
  8
戸当り
  6
Continuous
 62
    92
370
    13
100
AcDbEllipse
 10
4265.204310755757
 20
2966.269922279796
 30
0.0
 11
21.86569797210526
 21
81.6038957748525
 31
0.0
210
0.0
220
0.0
230
1.0
 40
0.5
 41
4.340591432030095
 42
8.225779182329084
  0
ELLIPSE
  5
2A0
330
1F
100
AcDbEntity
  8
戸当り
  6
Continuous
 62
    92
370
    13
100
AcDbEllipse
 10
4264.578687882655
 20
2963.935065931004
 30
0.0
 11
26.49533313827761
 21
98.88192943551533
 31
0.0
210
0.0
220
0.0
230
0.9999999999999999
 40
0.4
 41
3.840308517104466
 42
4.432552034522944
  0
ELLIPSE
  5
2A1
330
1F
100
AcDbEntity
  8
戸当り
  6
Continuous
 62
    92
370
    13
100
AcDbEllipse
 10
4264.578687882655
 20
2963.935065931004
 30
0.0
 11
26.49533313827761
 21
98.88192943551533
 31
0.0
210
0.0
220
0.0
230
0.9999999999999999
 40
0.4
 41
1.850633272656679
 42
2.442876790075129
  0
ELLIPSE
  5
2A2
330
1F
100
AcDbEntity
  8
戸当り
  6
Continuous
 62
    92
370
    13
100
AcDbEllipse
 10
4125.916707711373
 20
2838.28484693721
 30
0.0
 11
-7.622927487939132
 21
43.23177007461331
 31
0.0
210
0.0
220
0.0
230
1.0
 40
0.6000000000000001
 41
1.570796326794897
 42
4.71238898038469
  0
LINE
  5
2A3
330
1F
100
AcDbEntity
  8
戸当り
  6
Continuous
 62
    92
370
    13
100
AcDbLine
 10
4151.855769756143
 20
2842.858603429973
 30
0.0
 11
4099.977645666606
 21
2833.711090444447
 31
0.0
  0
LINE
  5
2A4
330
1F
100
AcDbEntity
  8
戸当り
  6
Continuous
 62
    92
370
    13
100
AcDbLine
 10
4149.667802717539
 20
2855.267181117928
 30
0.0
 11
4097.789678628003
 21
2846.1196681324
 31
0.0
  0
ELLIPSE
  5
2A5
330
1F
100
AcDbEntity
  8
戸当り
  6
Continuous
 62
    92
370
    13
100
AcDbEllipse
 10
4109.698172894876
 20
2930.264728582853
 30
0.0
 11
-14.67024424252691
 21
83.19908946199426
 31
0.0
210
0.0
220
0.0
230
1.0
 40
0.5
 41
4.340591432030095
 42
8.225779182329084
  0
ELLIPSE
  5
2A6
330
1F
100
AcDbEntity
  8
戸当り
  6
Continuous
 62
    92
370
    13
100
AcDbEllipse
 10
4110.117918944778
 20
2927.884230441196
 30
0.0
 11
-17.7763823922528
 21
100.8148742797557
 31
0.0
210
0.0
220
0.0
230
1.0
 40
0.4000000000000001
 41
3.840308517104466
 42
4.432552034522944
  0
ELLIPSE
  5
2A7
330
1F
100
AcDbEntity
  8
戸当り
  6
Continuous
 62
    92
370
    13
100
AcDbEllipse
 10
4110.117918944778
 20
2927.884230441196
 30
0.0
 11
-17.7763823922528
 21
100.8148742797557
 31
0.0
210
0.0
220
0.0
230
1.0
 40
0.4000000000000001
 41
1.850633272656679
 42
2.442876790075129
  0
LINE
  5
2A8
330
1F
100
AcDbEntity
  8
戸当り
  6
Continuous
 62
    92
370
    13
100
AcDbLine
 10
4730.317643811962
 20
3260.12352507614
 30
0.0
 11
4730.317643811962
 21
3404.12352507614
 31
0.0
  0
LINE
  5
2A9
330
1F
100
AcDbEntity
  8
戸当り
  6
Continuous
 62
    40
370
    15
100
AcDbLine
 10
4553.91764381196
 20
3342.923525076139
 30
0.0
 11
4481.917643811961
 21
3342.923525076139
 31
0.0
  0
LINE
  5
2AA
330
1F
100
AcDbEntity
  8
戸当り
  6
Continuous
 62
    40
370
    15
100
AcDbLine
 10
4553.91764381196
 20
3299.72352507614
 30
0.0
 11
4481.917643811961
 21
3299.72352507614
 31
0.0
  0
LINE
  5
2AB
330
1F
100
AcDbEntity
  8
戸当り
  6
Continuous
 62
    40
370
    15
100
AcDbLine
 10
4921.117643811962
 20
3332.12352507614
 30
0.0
 11
4553.91764381196
 21
3332.12352507614
 31
0.0
  0
LINE
  5
2AC
330
1F
100
AcDbEntity
  8
戸当り
  6
Continuous
 62
    40
370
    15
100
AcDbLine
 10
4553.91764381196
 20
3299.72352507614
 30
0.0
 11
4553.91764381196
 21
3342.923525076139
 31
0.0
  0
LINE
  5
2AD
330
1F
100
AcDbEntity
  8
戸当り
  6
Continuous
 62
    40
370
    15
100
AcDbLine
 10
5273.917643811962
 20
3342.923525076139
 30
0.0
 11
5345.917643811961
 21
3342.923525076139
 31
0.0
  0
LINE
  5
2AE
330
1F
100
AcDbEntity
  8
戸当り
  6
JWW_DASHED2
 62
    40
370
    15
100
AcDbLine
 10
4921.117643811962
 20
3332.12352507614
 30
0.0
 11
5273.917643811962
 21
3332.12352507614
 31
0.0
  0
LINE
  5
2AF
330
1F
100
AcDbEntity
  8
戸当り
  6
Continuous
 62
    40
370
    15
100
AcDbLine
 10
5273.917643811962
 20
3321.32352507614
 30
0.0
 11
5273.917643811962
 21
3342.923525076139
 31
0.0
  0
LINE
  5
2B0
330
1F
100
AcDbEntity
  8
戸当り
  6
Continuous
 62
    40
370
    15
100
AcDbLine
 10
5273.917643811962
 20
3321.32352507614
 30
0.0
 11
4906.717643811961
 21
3321.32352507614
 31
0.0
  0
LINE
  5
2B1
330
1F
100
AcDbEntity
  8
戸当り
  6
Continuous
 62
    40
370
    15
100
AcDbLine
 10
5345.917643811961
 20
3299.72352507614
 30
0.0
 11
4906.717643811961
 21
3299.72352507614
 31
0.0
  0
LINE
  5
2B2
330
1F
100
AcDbEntity
  8
戸当り
  6
Continuous
 62
    40
370
    15
100
AcDbLine
 10
4906.717643811961
 20
3299.72352507614
 30
0.0
 11
4906.717643811961
 21
3321.32352507614
 31
0.0
  0
LINE
  5
2B3
330
1F
100
AcDbEntity
  8
戸当り
  6
Continuous
 62
    92
370
    13
100
AcDbLine
 10
4185.517643811962
 20
3260.12352507614
 30
0.0
 11
4185.517643811962
 21
3404.12352507614
 31
0.0
  0
LINE
  5
2B4
330
1F
100
AcDbEntity
  8
戸当り
  6
Continuous
 62
    40
370
    15
100
AcDbLine
 10
4361.917643811961
 20
3342.923525076139
 30
0.0
 11
4433.91764381196
 21
3342.923525076139
 31
0.0
  0
LINE
  5
2B5
330
1F
100
AcDbEntity
  8
戸当り
  6
Continuous
 62
    40
370
    15
100
AcDbLine
 10
4361.917643811961
 20
3299.72352507614
 30
0.0
 11
4433.91764381196
 21
3299.72352507614
 31
0.0
  0
LINE
  5
2B6
330
1F
100
AcDbEntity
  8
戸当り
  6
Continuous
 62
    40
370
    15
100
AcDbLine
 10
3994.71764381196
 20
3332.12352507614
 30
0.0
 11
4361.917643811961
 21
3332.12352507614
 31
0.0
  0
LINE
  5
2B7
330
1F
100
AcDbEntity
  8
戸当り
  6
Continuous
 62
    40
370
    15
100
AcDbLine
 10
4361.917643811961
 20
3299.72352507614
 30
0.0
 11
4361.917643811961
 21
3342.923525076139
 31
0.0
  0
LINE
  5
2B8
330
1F
100
AcDbEntity
  8
戸当り
  6
Continuous
 62
    40
370
    15
100
AcDbLine
 10
3641.917643811961
 20
3342.923525076139
 30
0.0
 11
3569.91764381196
 21
3342.923525076139
 31
0.0
  0
LINE
  5
2B9
330
1F
100
AcDbEntity
  8
戸当り
  6
JWW_DASHED2
 62
    40
370
    15
100
AcDbLine
 10
3994.71764381196
 20
3332.12352507614
 30
0.0
 11
3641.917643811961
 21
3332.12352507614
 31
0.0
  0
LINE
  5
2BA
330
1F
100
AcDbEntity
  8
戸当り
  6
Continuous
 62
    40
370
    15
100
AcDbLine
 10
3641.917643811961
 20
3321.32352507614
 30
0.0
 11
3641.917643811961
 21
3342.923525076139
 31
0.0
  0
LINE
  5
2BB
330
1F
100
AcDbEntity
  8
戸当り
  6
Continuous
 62
    40
370
    15
100
AcDbLine
 10
3641.917643811961
 20
3321.32352507614
 30
0.0
 11
4009.117643811961
 21
3321.32352507614
 31
0.0
  0
LINE
  5
2BC
330
1F
100
AcDbEntity
  8
戸当り
  6
Continuous
 62
    40
370
    15
100
AcDbLine
 10
3569.91764381196
 20
3299.72352507614
 30
0.0
 11
4009.117643811961
 21
3299.72352507614
 31
0.0
  0
LINE
  5
2BD
330
1F
100
AcDbEntity
  8
戸当り
  6
Continuous
 62
    40
370
    15
100
AcDbLine
 10
4009.117643811961
 20
3299.72352507614
 30
0.0
 11
4009.117643811961
 21
3321.32352507614
 31
0.0
  0
LINE
  5
2BE
330
1F
100
AcDbEntity
  8
0-A_文字
  6
Continuous
 62
    92
370
    13
100
AcDbLine
 10
5369.917643811961
 20
3684.999983504013
 30
0.0
 11
5369.917643811961
 21
2718.999983504013
 31
0.0
  0
LINE
  5
2BF
330
1F
100
AcDbEntity
  8
0-A_文字
  6
Continuous
 62
    92
370
    13
100
AcDbLine
 10
4457.91764381196
 20
3684.999983504013
 30
0.0
 11
4457.91764381196
 21
2718.999983504013
 31
0.0
  0
LINE
  5
2C0
330
1F
100
AcDbEntity
  8
0-A_文字
  6
Continuous
 62
    92
370
    13
100
AcDbLine
 10
3545.917643811961
 20
3684.999983504013
 30
0.0
 11
3545.917643811961
 21
2718.999983504013
 31
0.0
  0
LINE
  5
2C1
330
1F
100
AcDbEntity
  8
0-0_補助線
  6
JWW_HOJO
 62
   120
370
     5
100
AcDbLine
 10
5345.917643811961
 20
3684.999983504013
 30
0.0
 11
5345.917643811961
 21
2718.999983504013
 31
0.0
  0
LINE
  5
2C2
330
1F
100
AcDbEntity
  8
0-0_補助線
  6
JWW_HOJO
 62
   120
370
     5
100
AcDbLine
 10
4481.917643811961
 20
3684.999983504013
 30
0.0
 11
4481.917643811961
 21
2718.999983504013
 31
0.0
  0
LINE
  5
2C3
330
1F
100
AcDbEntity
  8
0-0_補助線
  6
JWW_HOJO
 62
   120
370
     5
100
AcDbLine
 10
4433.91764381196
 20
3684.999983504013
 30
0.0
 11
4433.91764381196
 21
2718.999983504013
 31
0.0
  0
LINE
  5
2C4
330
1F
100
AcDbEntity
  8
0-0_補助線
  6
JWW_HOJO
 62
   120
370
     5
100
AcDbLine
 10
3569.91764381196
 20
3684.999983504013
 30
0.0
 11
3569.91764381196
 21
2718.999983504013
 31
0.0
  0
LINE
  5
2C5
330
1F
100
AcDbEntity
  8
0-0_補助線
  6
JWW_HOJO
 62
   120
370
     5
100
AcDbLine
 10
4913.917643811962
 20
3684.999983504013
 30
0.0
 11
4913.917643811962
 21
2718.999983504013
 31
0.0
  0
LINE
  5
2C6
330
1F
100
AcDbEntity
  8
0-0_補助線
  6
JWW_HOJO
 62
   120
370
     5
100
AcDbLine
 10
4001.917643811961
 20
3684.999983504013
 30
0.0
 11
4001.917643811961
 21
2718.999983504013
 31
0.0
  0
LINE
  5
2C7
330
1F
100
AcDbEntity
  8
0-A_文字
  6
Continuous
 62
    92
370
    13
100
AcDbLine
 10
5369.917643811961
 20
2718.999983504013
 30
0.0
 11
3545.917643811961
 21
2718.999983504013
 31
0.0
  0
MTEXT
  5
2C8
330
1F
100
AcDbEntity
  8
0-A_文字
  6
Continuous
 62
     7
370
     9
100
AcDbMText
 10
3545.917643811961
 20
3700.719983504012
 30
0.0
 40
91.44
 41
720.0
 46
0.0
 71
     7
 72
     1
  1
{\fＭＳ ゴシック|b0|i0|c128|p49;■引き手方向}
 73
     1
 44
1.0
  0
MTEXT
  5
2C9
330
1F
100
AcDbEntity
  8
0-A_文字
  6
Continuous
 62
     7
370
     9
100
AcDbMText
 10
4711.417643811962
 20
3561.576233504014
 30
0.0
 40
77.15249999999999
 41
405.0
 46
0.0
 71
     7
 72
     1
  1
{\fＭＳ ゴシック|b0|i0|c128|p49;左引き手}
 73
     1
 44
1.0
  0
MTEXT
  5
2CA
330
1F
100
AcDbEntity
  8
0-A_文字
  6
Continuous
 62
     7
370
     9
100
AcDbMText
 10
3799.417643811961
 20
3561.576233504014
 30
0.0
 40
77.15249999999999
 41
405.0
 46
0.0
 71
     7
 72
     1
  1
{\fＭＳ ゴシック|b0|i0|c128|p49;右引き手}
 73
     1
 44
1.0
  0
LINE
  5
2CB
330
1F
100
AcDbEntity
  8
0-A_文字
  6
Continuous
 62
    92
370
    13
100
AcDbLine
 10
3545.917643811961
 20
3540.999983504013
 30
0.0
 11
5369.917643811961
 21
3540.999983504013
 31
0.0
  0
LINE
  5
2CC
330
1F
100
AcDbEntity
  8
0-A_文字
  6
Continuous
 62
    92
370
    13
100
AcDbLine
 10
5369.917643811961
 20
3684.999983504013
 30
0.0
 11
3545.917643811961
 21
3684.999983504013
 31
0.0
  0
LWPOLYLINE
  5
2CD
330
1F
100
AcDbEntity
  8
0-B_寸法
  6
Continuous
 62
     7
370
     9
100
AcDbPolyline
 90
        4
 70
     1
 43
3.0
 10
2267.628161489055
 20
1481.96216880618
 42
0.4142135623731
 10
2266.128161489055
 20
1483.46216880618
 42
0.4142135623731
 10
2264.628161489055
 20
1481.96216880618
 42
0.4142135623731
 10
2266.128161489055
 20
1480.46216880618
 42
0.4142135623731
  0
LINE
  5
2CE
330
1F
100
AcDbEntity
  8
0-B_寸法
  6
Continuous
 62
   120
370
     5
100
AcDbLine
 10
2266.128161489055
 20
1271.96216880618
 30
0.0
 11
2266.128161489055
 21
1841.96216880618
 31
0.0
  0
LINE
  5
2CF
330
1F
100
AcDbEntity
  8
0-B_寸法
  6
Continuous
 62
   120
370
     5
100
AcDbLine
 10
2446.128013025162
 20
1271.96216880618
 30
0.0
 11
2266.128161489055
 21
1271.96216880618
 31
0.0
  0
LWPOLYLINE
  5
2D0
330
1F
100
AcDbEntity
  8
0-B_寸法
  6
Continuous
 62
     7
370
     9
100
AcDbPolyline
 90
        4
 70
     1
 43
3.0
 10
2447.628013025161
 20
1271.96216880618
 42
0.4142135623731
 10
2446.128013025162
 20
1273.46216880618
 42
0.4142135623731
 10
2444.628013025162
 20
1271.96216880618
 42
0.4142135623731
 10
2446.128013025162
 20
1270.46216880618
 42
0.4142135623731
  0
LWPOLYLINE
  5
2D1
330
1F
100
AcDbEntity
  8
0-B_寸法
  6
Continuous
 62
     7
370
     9
100
AcDbPolyline
 90
        4
 70
     1
 43
3.0
 10
2267.628161489055
 20
1271.96216880618
 42
0.4142135623731
 10
2266.128161489055
 20
1273.46216880618
 42
0.4142135623731
 10
2264.628161489055
 20
1271.96216880618
 42
0.4142135623731
 10
2266.128161489055
 20
1270.46216880618
 42
0.4142135623731
  0
LINE
  5
2D2
330
1F
100
AcDbEntity
  8
0-B_寸法
  6
Continuous
 62
   120
370
     5
100
AcDbLine
 10
2446.128013025162
 20
1061.96216880618
 30
0.0
 11
2446.128013025162
 21
1841.96216880618
 31
0.0
  0
MTEXT
  5
2D3
330
1F
100
AcDbEntity
  8
0-B_寸法
  6
Continuous
 62
     7
370
   211
100
AcDbMText
 10
2292.378087257108
 20
1260.53966880618
 30
0.0
 40
97.15499999999999
 41
127.5
 46
0.0
 71
     7
 72
     1
  1
{\fＭＳ ゴシック|b0|i0|c128|p49;30}
 73
     1
 44
1.0
  0
LWPOLYLINE
  5
2D4
330
1F
100
AcDbEntity
  8
0-B_寸法
  6
Continuous
 62
     7
370
     9
100
AcDbPolyline
 90
        4
 70
     1
 43
3.0
 10
2447.628013025161
 20
1061.96216880618
 42
0.4142135623731
 10
2446.128013025162
 20
1063.46216880618
 42
0.4142135623731
 10
2444.628013025162
 20
1061.96216880618
 42
0.4142135623731
 10
2446.128013025162
 20
1060.46216880618
 42
0.4142135623731
  0
LINE
  5
2D5
330
1F
100
AcDbEntity
  8
0-0_補助線
  6
JWW_HOJO
 62
   120
370
     5
100
AcDbLine
 10
2806.589336672863
 20
1061.96216880618
 30
0.0
 11
2806.589336672863
 21
3131.96162460618
 31
0.0
  0
MTEXT
  5
2D6
330
1F
100
AcDbEntity
  8
0-B_寸法
  6
Continuous
 62
     7
370
     9
100
AcDbMText
 10
2086.589336672863
 20
886.5239004170079
 30
0.0
 40
68.58000000000001
 41
720.0
 46
0.0
 71
     7
 72
     1
  1
{\fＭＳ ゴシック|b0|i0|c128|p49;※図示：左引き手}
 73
     1
 44
1.0
  0
LINE
  5
2D7
330
1F
100
AcDbEntity
  8
0-0_補助線
  6
JWW_HOJO
 62
   120
370
     5
100
AcDbLine
 10
-2786.290927338522
 20
1061.96216880618
 30
0.0
 11
-2786.290927338522
 21
3131.96162460618
 31
0.0
  0
LWPOLYLINE
  5
2D8
330
1F
100
AcDbEntity
  8
0-B_寸法
  6
Continuous
 62
     7
370
     9
100
AcDbPolyline
 90
        4
 70
     1
 43
3.0
 10
-2244.791075802423
 20
1481.96216880618
 42
0.4142135623731
 10
-2246.291075802423
 20
1483.46216880618
 42
0.4142135623731
 10
-2247.791075802423
 20
1481.96216880618
 42
0.4142135623731
 10
-2246.291075802423
 20
1480.46216880618
 42
0.4142135623731
  0
LINE
  5
2D9
330
1F
100
AcDbEntity
  8
0-B_寸法
  6
Continuous
 62
   120
370
     5
100
AcDbLine
 10
-2246.291075802423
 20
1271.96216880618
 30
0.0
 11
-2246.291075802423
 21
1841.96216880618
 31
0.0
  0
LINE
  5
2DA
330
1F
100
AcDbEntity
  8
0-B_寸法
  6
Continuous
 62
   120
370
     5
100
AcDbLine
 10
2266.128161489055
 20
1271.96216880618
 30
0.0
 11
-2246.291075802423
 21
1271.96216880618
 31
0.0
  0
LWPOLYLINE
  5
2DB
330
1F
100
AcDbEntity
  8
0-B_寸法
  6
Continuous
 62
     7
370
     9
100
AcDbPolyline
 90
        4
 70
     1
 43
3.0
 10
-2244.791075802423
 20
1271.96216880618
 42
0.4142135623731
 10
-2246.291075802423
 20
1273.46216880618
 42
0.4142135623731
 10
-2247.791075802423
 20
1271.96216880618
 42
0.4142135623731
 10
-2246.291075802423
 20
1270.46216880618
 42
0.4142135623731
  0
LINE
  5
2DC
330
1F
100
AcDbEntity
  8
0-B_寸法
  6
Continuous
 62
   120
370
     5
100
AcDbLine
 10
-2246.291075802423
 20
1271.96216880618
 30
0.0
 11
-2426.290927338529
 21
1271.96216880618
 31
0.0
  0
LWPOLYLINE
  5
2DD
330
1F
100
AcDbEntity
  8
0-B_寸法
  6
Continuous
 62
     7
370
     9
100
AcDbPolyline
 90
        4
 70
     1
 43
3.0
 10
-2424.790927338529
 20
1271.96216880618
 42
0.4142135623731
 10
-2426.290927338529
 20
1273.46216880618
 42
0.4142135623731
 10
-2427.790927338529
 20
1271.96216880618
 42
0.4142135623731
 10
-2426.290927338529
 20
1270.46216880618
 42
0.4142135623731
  0
LINE
  5
2DE
330
1F
100
AcDbEntity
  8
0-B_寸法
  6
Continuous
 62
   120
370
     5
100
AcDbLine
 10
-2426.290927338529
 20
1061.96216880618
 30
0.0
 11
-2426.290927338529
 21
1841.96216880618
 31
0.0
  0
MTEXT
  5
2DF
330
1F
100
AcDbEntity
  8
0-B_寸法
  6
Continuous
 62
     7
370
   211
100
AcDbMText
 10
-2400.041001570476
 20
1260.53966880618
 30
0.0
 40
97.15499999999999
 41
127.5
 46
0.0
 71
     7
 72
     1
  1
{\fＭＳ ゴシック|b0|i0|c128|p49;30}
 73
     1
 44
1.0
  0
LINE
  5
2E0
330
1F
100
AcDbEntity
  8
0-B_寸法
  6
Continuous
 62
   120
370
     5
100
AcDbLine
 10
-2426.290927338529
 20
1061.96216880618
 30
0.0
 11
2446.128013025162
 21
1061.96216880618
 31
0.0
  0
LWPOLYLINE
  5
2E1
330
1F
100
AcDbEntity
  8
0-B_寸法
  6
Continuous
 62
     7
370
     9
100
AcDbPolyline
 90
        4
 70
     1
 43
3.0
 10
-2424.790927338529
 20
1061.96216880618
 42
0.4142135623731
 10
-2426.290927338529
 20
1063.46216880618
 42
0.4142135623731
 10
-2427.790927338529
 20
1061.96216880618
 42
0.4142135623731
 10
-2426.290927338529
 20
1060.46216880618
 42
0.4142135623731
  0
LINE
  5
2E2
330
1F
100
AcDbEntity
  8
0-0_補助線
  6
JWW_HOJO
 62
   120
370
     5
100
AcDbLine
 10
2806.589336672863
 20
3131.96162460618
 30
0.0
 11
-2786.290927338522
 21
3131.96162460618
 31
0.0
  0
LINE
  5
2E3
330
1F
100
AcDbEntity
  8
0-0_補助線
  6
JWW_HOJO
 62
   120
370
     5
100
AcDbLine
 10
-2786.290927338522
 20
1061.96216880618
 30
0.0
 11
2806.589336672863
 21
1061.96216880618
 31
0.0
  0
LINE
  5
2E4
330
1F
100
AcDbEntity
  8
0-0_補助線
  6
JWW_HOJO
 62
   120
370
     5
100
AcDbLine
 10
2806.589336672863
 20
1841.96216880618
 30
0.0
 11
-2786.290927338522
 21
1841.96216880618
 31
0.0
  0
LINE
  5
2E5
330
1F
100
AcDbEntity
  8
0-0_補助線
  6
JWW_HOJO
 62
   120
370
     5
100
AcDbLine
 10
-2786.290927338522
 20
1481.96216880618
 30
0.0
 11
2806.589336672863
 21
1481.96216880618
 31
0.0
  0
LINE
  5
2E6
330
1F
100
AcDbEntity
  8
0-0_補助線
  6
JWW_HOJO
 62
   120
370
     5
100
AcDbLine
 10
-2786.290927338522
 20
1271.96216880618
 30
0.0
 11
2806.589336672863
 21
1271.96216880618
 31
0.0
  0
MTEXT
  5
2E7
330
1F
100
AcDbEntity
  8
0-A_文字
  6
Continuous
 62
     7
370
     9
100
AcDbMText
 10
-2786.290927338522
 20
3186.514044362122
 30
0.0
 40
100.584
 41
660.0
 46
0.0
 71
     7
 72
     1
  1
{\fＭＳ ゴシック|b0|i0|c128|p49;■横断面図}
 73
     1
 44
1.0
  0
LINE
  5
2E8
330
1F
100
AcDbEntity
  8
0-0_補助線
  6
JWW_HOJO
 62
   120
370
     5
100
AcDbLine
 10
-1142.232729492244
 20
3131.96162460618
 30
0.0
 11
-1142.232729492244
 21
1841.96216880618
 31
0.0
  0
LINE
  5
2E9
330
1F
100
AcDbEntity
  8
0-0_補助線
  6
JWW_HOJO
 62
   120
370
     5
100
AcDbLine
 10
-1022.232729492244
 20
3131.96162460618
 30
0.0
 11
-1022.232729492244
 21
1841.96216880618
 31
0.0
  0
LWPOLYLINE
  5
2EA
330
1F
100
AcDbEntity
  8
0-B_寸法
  6
Continuous
 62
     7
370
     9
100
AcDbPolyline
 90
        4
 70
     1
 43
3.0
 10
-453.5814571566863
 20
1481.96216880618
 42
0.4142135623731
 10
-455.0814571566863
 20
1483.46216880618
 42
0.4142135623731
 10
-456.5814571566863
 20
1481.96216880618
 42
0.4142135623731
 10
-455.0814571566863
 20
1480.46216880618
 42
0.4142135623731
  0
LINE
  5
2EB
330
1F
100
AcDbEntity
  8
0-B_寸法
  6
Continuous
 62
   120
370
     5
100
AcDbLine
 10
-455.0814571566863
 20
1481.96216880618
 30
0.0
 11
-455.0814571566863
 21
1841.96216880618
 31
0.0
  0
LINE
  5
2EC
330
1F
100
AcDbEntity
  8
0-B_寸法
  6
Continuous
 62
   120
370
     5
100
AcDbLine
 10
-455.0814571566863
 20
1481.96216880618
 30
0.0
 11
294.918320147473
 21
1481.96216880618
 31
0.0
  0
LWPOLYLINE
  5
2ED
330
1F
100
AcDbEntity
  8
0-B_寸法
  6
Continuous
 62
     7
370
     9
100
AcDbPolyline
 90
        4
 70
     1
 43
3.0
 10
296.418320147473
 20
1481.96216880618
 42
0.4142135623731
 10
294.918320147473
 20
1483.46216880618
 42
0.4142135623731
 10
293.418320147473
 20
1481.96216880618
 42
0.4142135623731
 10
294.918320147473
 20
1480.46216880618
 42
0.4142135623731
  0
LINE
  5
2EE
330
1F
100
AcDbEntity
  8
0-B_寸法
  6
Continuous
 62
   120
370
     5
100
AcDbLine
 10
294.918320147473
 20
1481.96216880618
 30
0.0
 11
294.918320147473
 21
1841.96216880618
 31
0.0
  0
LINE
  5
2EF
330
1F
100
AcDbEntity
  8
0-B_寸法
  6
Continuous
 62
   120
370
     5
100
AcDbLine
 10
294.918320147473
 20
1481.96216880618
 30
0.0
 11
474.9185428433137
 21
1481.96216880618
 31
0.0
  0
LWPOLYLINE
  5
2F0
330
1F
100
AcDbEntity
  8
0-B_寸法
  6
Continuous
 62
     7
370
     9
100
AcDbPolyline
 90
        4
 70
     1
 43
3.0
 10
476.4185428433137
 20
1481.96216880618
 42
0.4142135623731
 10
474.9185428433137
 20
1483.46216880618
 42
0.4142135623731
 10
473.4185428433137
 20
1481.96216880618
 42
0.4142135623731
 10
474.9185428433137
 20
1480.46216880618
 42
0.4142135623731
  0
LINE
  5
2F1
330
1F
100
AcDbEntity
  8
0-B_寸法
  6
Continuous
 62
   120
370
     5
100
AcDbLine
 10
474.9185428433137
 20
1481.96216880618
 30
0.0
 11
474.9185428433137
 21
1841.96216880618
 31
0.0
  0
MTEXT
  5
2F2
330
1F
100
AcDbEntity
  8
0-B_寸法
  6
Continuous
 62
     7
370
   211
100
AcDbMText
 10
321.1684314953933
 20
1470.53966880618
 30
0.0
 40
97.15499999999999
 41
127.5
 46
0.0
 71
     7
 72
     1
  1
{\fＭＳ ゴシック|b0|i0|c128|p49;30}
 73
     1
 44
1.0
  0
LINE
  5
2F3
330
1F
100
AcDbEntity
  8
0-B_寸法
  6
Continuous
 62
   120
370
     5
100
AcDbLine
 10
474.9185428433137
 20
1481.96216880618
 30
0.0
 11
2266.128161489055
 21
1481.96216880618
 31
0.0
  0
LINE
  5
2F4
330
1F
100
AcDbEntity
  8
0-B_寸法
  6
Continuous
 62
   120
370
     5
100
AcDbLine
 10
-2246.291075802423
 20
1481.96216880618
 30
0.0
 11
-455.0814571566863
 21
1481.96216880618
 31
0.0
  0
LINE
  5
2F5
330
1F
100
AcDbEntity
  8
0-0_補助線
  6
JWW_HOJO
 62
   120
370
     5
100
AcDbLine
 10
1161.883684758309
 20
1841.96216880618
 30
0.0
 11
1161.883684758309
 21
3131.96162460618
 31
0.0
  0
LINE
  5
2F6
330
1F
100
AcDbEntity
  8
0-0_補助線
  6
JWW_HOJO
 62
   120
370
     5
100
AcDbLine
 10
1041.883684758309
 20
1841.96216880618
 30
0.0
 11
1041.883684758309
 21
3131.96162460618
 31
0.0
  0
MTEXT
  5
2F7
330
1F
100
AcDbEntity
  8
0-B_寸法
  6
Continuous
 62
     7
370
   211
100
AcDbMText
 10
-380.0815685046067
 20
1472.76216880618
 30
0.0
 40
101.6
 41
600.0
 46
0.0
 71
     7
 72
     1
  1
{\fＭＳ ゴシック|b0|i0|c128|p49;引残＝125}
 73
     1
 44
1.0
  0
LINE
  5
2F8
330
1F
100
AcDbEntity
  8
0-7_金物
  6
Continuous
 62
     7
370
     9
100
AcDbLine
 10
2284.128149915175
 20
2555.962218501591
 30
0.0
 11
2302.128149891622
 21
2555.962217500715
 31
0.0
  0
LINE
  5
2F9
330
1F
100
AcDbEntity
  8
0-7_金物
  6
Continuous
 62
     7
370
     9
100
AcDbLine
 10
2302.128149891622
 20
2555.962217500715
 30
0.0
 11
2302.128149861711
 21
2645.962219100161
 31
0.0
  0
LINE
  5
2FA
330
1F
100
AcDbEntity
  8
0-7_金物
  6
Continuous
 62
     7
370
     9
100
AcDbLine
 10
2284.128149200918
 20
2645.962217237957
 30
0.0
 11
2302.128149861711
 21
2645.962219100161
 31
0.0
  0
LINE
  5
2FB
330
1F
100
AcDbEntity
  8
0-7_金物
  6
Continuous
 62
     7
370
     9
100
AcDbLine
 10
2302.128149881159
 20
2585.962218510703
 30
0.0
 11
2332.128149574499
 21
2585.962218749131
 31
0.0
  0
LINE
  5
2FC
330
1F
100
AcDbEntity
  8
0-7_金物
  6
Continuous
 62
     7
370
     9
100
AcDbLine
 10
2332.128149574499
 20
2585.962218749131
 30
0.0
 11
2332.128149336411
 21
2615.962218327918
 31
0.0
  0
LINE
  5
2FD
330
1F
100
AcDbEntity
  8
0-7_金物
  6
Continuous
 62
     7
370
     9
100
AcDbLine
 10
2302.128149872175
 20
2615.962218090175
 30
0.0
 11
2332.128149336411
 21
2615.962218327918
 31
0.0
  0
ARC
  5
2FE
330
1F
100
AcDbEntity
  8
0-7_金物
  6
Continuous
 62
     7
370
     9
100
AcDbCircle
 10
2466.835493649161
 20
2600.962218347103
 30
0.0
 40
188.167407989502
100
AcDbArc
 50
166.1636811230468
 51
193.8362885449218
  0
LINE
  5
2FF
330
1F
100
AcDbEntity
  8
0-B_寸法
  6
Continuous
 62
   120
370
     5
100
AcDbLine
 10
2028.552152407879
 20
2351.962218538522
 30
0.0
 11
2176.128149861711
 21
2351.962218538522
 31
0.0
  0
LWPOLYLINE
  5
300
330
1F
100
AcDbEntity
  8
0-B_寸法
  6
Continuous
 62
     7
370
     9
100
AcDbPolyline
 90
        4
 70
     1
 43
3.0
 10
2030.052152407879
 20
2351.962218538529
 42
0.4142135623731
 10
2028.552152407879
 20
2353.462218538529
 42
0.4142135623731
 10
2027.052152407879
 20
2351.962218538529
 42
0.4142135623731
 10
2028.552152407879
 20
2350.462218538529
 42
0.4142135623731
  0
LINE
  5
301
330
1F
100
AcDbEntity
  8
0-4_枠
  6
Continuous
 62
    92
370
    13
100
AcDbLine
 10
2274.613431235949
 20
2756.962218538522
 30
0.0
 11
2266.128149861711
 21
2748.476937164285
 31
0.0
  0
LINE
  5
302
330
1F
100
AcDbEntity
  8
0-4_枠
  6
Continuous
 62
    92
370
    13
100
AcDbLine
 10
2269.127714986224
 20
2747.233861601676
 30
0.0
 11
2275.855911705783
 21
2753.962058321236
 31
0.0
  0
LINE
  5
303
330
1F
100
AcDbEntity
  8
0-4_枠
  6
Continuous
 62
    92
370
    13
100
AcDbLine
 10
2443.128149861713
 20
2666.962218538522
 30
0.0
 11
2443.128149861713
 21
2753.962058321236
 31
0.0
  0
LINE
  5
304
330
1F
100
AcDbEntity
  8
0-4_枠
  6
Continuous
 62
    92
370
    13
100
AcDbLine
 10
2275.855911705783
 20
2753.962058321236
 30
0.0
 11
2443.128149861713
 21
2753.962058321236
 31
0.0
  0
LINE
  5
305
330
1F
100
AcDbEntity
  8
0-4_枠
  6
Continuous
 62
    92
370
    13
100
AcDbLine
 10
2274.613431235949
 20
2756.962218538522
 30
0.0
 11
2446.128149861711
 21
2756.962218538522
 31
0.0
  0
LINE
  5
306
330
1F
100
AcDbEntity
  8
0-4_枠
  6
Continuous
 62
    92
370
    13
100
AcDbLine
 10
2443.128149861713
 20
2666.962218538522
 30
0.0
 11
2446.128149861711
 21
2666.962218538522
 31
0.0
  0
LINE
  5
307
330
1F
100
AcDbEntity
  8
0-C_ハッチ
  6
Continuous
 62
   120
370
     5
100
AcDbLine
 10
2276.49399154521
 20
2753.962058321235
 30
0.0
 11
2269.128149861715
 21
2746.596216637738
 31
0.0
  0
LINE
  5
308
330
1F
100
AcDbEntity
  8
0-4_枠
  6
Continuous
 62
    92
370
    13
100
AcDbLine
 10
2269.127714986224
 20
2747.233861601676
 30
0.0
 11
2269.127714986224
 21
2726.962218538524
 31
0.0
  0
LINE
  5
309
330
1F
100
AcDbEntity
  8
0-4_枠
  6
Continuous
 62
    92
370
    13
100
AcDbLine
 10
2266.128149861711
 20
2748.476937164285
 30
0.0
 11
2266.128149861711
 21
2723.962218538522
 31
0.0
  0
LINE
  5
30A
330
1F
100
AcDbEntity
  8
0-4_枠
  6
Continuous
 62
    92
370
    13
100
AcDbLine
 10
2266.128149861711
 20
2723.962218538522
 30
0.0
 11
2302.128149861711
 21
2723.962218538522
 31
0.0
  0
LINE
  5
30B
330
1F
100
AcDbEntity
  8
0-4_枠
  6
Continuous
 62
    92
370
    13
100
AcDbLine
 10
2269.127714986224
 20
2726.962218538524
 30
0.0
 11
2305.12814986171
 21
2726.962218538524
 31
0.0
  0
LINE
  5
30C
330
1F
100
AcDbEntity
  8
0-4_枠
  6
Continuous
 62
    92
370
    13
100
AcDbLine
 10
2302.128149861711
 20
2477.962218538524
 30
0.0
 11
2266.128149861711
 21
2477.962218538524
 31
0.0
  0
LINE
  5
30D
330
1F
100
AcDbEntity
  8
0-4_枠
  6
Continuous
 62
    92
370
    13
100
AcDbLine
 10
2305.12814986171
 20
2474.962218538521
 30
0.0
 11
2269.127714986224
 21
2474.962218538521
 31
0.0
  0
LINE
  5
30E
330
1F
100
AcDbEntity
  8
0-4_枠
  6
Continuous
 62
    92
370
    13
100
AcDbLine
 10
2302.128149861711
 20
2723.962218538522
 30
0.0
 11
2302.128149861711
 21
2477.962218538524
 31
0.0
  0
LINE
  5
30F
330
1F
100
AcDbEntity
  8
0-4_枠
  6
Continuous
 62
    92
370
    13
100
AcDbLine
 10
2305.12814986171
 20
2726.962218538524
 30
0.0
 11
2305.12814986171
 21
2474.962218538521
 31
0.0
  0
LINE
  5
310
330
1F
100
AcDbEntity
  8
0-4_枠
  6
Continuous
 62
    92
370
    13
100
AcDbLine
 10
2446.128149861711
 20
2351.962218538522
 30
0.0
 11
2446.128149861711
 21
2756.962218538522
 31
0.0
  0
LINE
  5
311
330
1F
100
AcDbEntity
  8
0-4_枠
  6
Continuous
 62
    92
370
    13
100
AcDbLine
 10
2446.128149861711
 20
2351.962218538522
 30
0.0
 11
2266.128149861711
 21
2351.962218538522
 31
0.0
  0
LINE
  5
312
330
1F
100
AcDbEntity
  8
0-4_枠
  6
Continuous
 62
    92
370
    13
100
AcDbLine
 10
2269.127714986224
 20
2351.962218538522
 30
0.0
 11
2269.127714986224
 21
2474.962218538521
 31
0.0
  0
LINE
  5
313
330
1F
100
AcDbEntity
  8
0-4_枠
  6
Continuous
 62
    92
370
    13
100
AcDbLine
 10
2266.128149861711
 20
2351.962218538522
 30
0.0
 11
2266.128149861711
 21
2477.962218538524
 31
0.0
  0
LINE
  5
314
330
1F
100
AcDbEntity
  8
0-C_ハッチ
  6
Continuous
 62
   120
370
     5
100
AcDbLine
 10
2446.128149861711
 20
2389.023490060745
 30
0.0
 11
2409.066878339489
 21
2351.962218538522
 31
0.0
  0
LINE
  5
315
330
1F
100
AcDbEntity
  8
0-C_ハッチ
  6
Continuous
 62
   120
370
     5
100
AcDbLine
 10
2446.128149861711
 20
2448.42045968039
 30
0.0
 11
2349.669908719844
 21
2351.962218538522
 31
0.0
  0
LINE
  5
316
330
1F
100
AcDbEntity
  8
0-C_ハッチ
  6
Continuous
 62
   120
370
     5
100
AcDbLine
 10
2446.128149861711
 20
2567.214398919739
 30
0.0
 11
2269.127714986224
 21
2390.213964044254
 31
0.0
  0
LINE
  5
317
330
1F
100
AcDbEntity
  8
0-C_ハッチ
  6
Continuous
 62
   120
370
     5
100
AcDbLine
 10
2446.128149861711
 20
2507.817429300094
 30
0.0
 11
2290.27293910014
 21
2351.962218538522
 31
0.0
  0
LINE
  5
318
330
1F
100
AcDbEntity
  8
0-C_ハッチ
  6
Continuous
 62
   120
370
     5
100
AcDbLine
 10
2294.478999860844
 20
2474.962218538521
 30
0.0
 11
2269.127714986224
 21
2449.610933663901
 31
0.0
  0
LINE
  5
319
330
1F
100
AcDbEntity
  8
0-C_ハッチ
  6
Continuous
 62
   120
370
     5
100
AcDbLine
 10
2446.128149861711
 20
2626.611368539388
 30
0.0
 11
2305.12814986171
 21
2485.611368539387
 31
0.0
  0
LINE
  5
31A
330
1F
100
AcDbEntity
  8
0-C_ハッチ
  6
Continuous
 62
   120
370
     5
100
AcDbLine
 10
2335.890961164857
 20
2753.962058321231
 30
0.0
 11
2305.12814986171
 21
2723.199247018083
 31
0.0
  0
LINE
  5
31B
330
1F
100
AcDbEntity
  8
0-C_ハッチ
  6
Continuous
 62
   120
370
     5
100
AcDbLine
 10
2395.287930784503
 20
2753.962058321231
 30
0.0
 11
2305.12814986171
 21
2663.802277398438
 31
0.0
  0
LINE
  5
31C
330
1F
100
AcDbEntity
  8
0-C_ハッチ
  6
Continuous
 62
   120
370
     5
100
AcDbLine
 10
2443.128584737202
 20
2742.405742654228
 30
0.0
 11
2305.12814986171
 21
2604.405307778736
 31
0.0
  0
LINE
  5
31D
330
1F
100
AcDbEntity
  8
0-C_ハッチ
  6
Continuous
 62
   120
370
     5
100
AcDbLine
 10
2443.128584737192
 20
2683.008773034574
 30
0.0
 11
2305.12814986171
 21
2545.008338159089
 31
0.0
  0
LINE
  5
31E
330
1F
100
AcDbEntity
  8
0-B_寸法
  6
Continuous
 62
   120
370
     5
100
AcDbLine
 10
2028.552152407879
 20
2351.962218538529
 30
0.0
 11
2028.552152407879
 21
2756.962218538522
 31
0.0
  0
LWPOLYLINE
  5
31F
330
1F
100
AcDbEntity
  8
0-B_寸法
  6
Continuous
 62
     7
370
     9
100
AcDbPolyline
 90
        4
 70
     1
 43
3.0
 10
2030.052152407879
 20
2756.962218538522
 42
0.4142135623731
 10
2028.552152407879
 20
2758.462218538522
 42
0.4142135623731
 10
2027.052152407879
 20
2756.962218538522
 42
0.4142135623731
 10
2028.552152407879
 20
2755.462218538522
 42
0.4142135623731
  0
LINE
  5
320
330
1F
100
AcDbEntity
  8
0-B_寸法
  6
Continuous
 62
   120
370
     5
100
AcDbLine
 10
2028.552152407879
 20
2756.962218538522
 30
0.0
 11
2176.128149861711
 21
2756.962218538522
 31
0.0
  0
LINE
  5
321
330
1F
100
AcDbEntity
  8
0-C_ハッチ
  6
JWW_DASHED1
 62
   120
370
     5
100
AcDbLine
 10
2459.647571905798
 20
2696.962218538529
 30
0.0
 11
2446.128892181178
 21
2683.443538813906
 31
0.0
  0
LINE
  5
322
330
1F
100
AcDbEntity
  8
0-C_ハッチ
  6
JWW_DASHED1
 62
   120
370
     5
100
AcDbLine
 10
2502.073978776996
 20
2696.962218538524
 30
0.0
 11
2446.128892181178
 21
2641.017131942708
 31
0.0
  0
LINE
  5
323
330
1F
100
AcDbEntity
  8
0-C_ハッチ
  6
JWW_DASHED1
 62
   120
370
     5
100
AcDbLine
 10
2544.500385648194
 20
2696.962218538522
 30
0.0
 11
2469.500385648198
 21
2621.962218538529
 31
0.0
  0
LINE
  5
324
330
1F
100
AcDbEntity
  8
0-C_ハッチ
  6
JWW_DASHED1
 62
   120
370
     5
100
AcDbLine
 10
2586.926792519407
 20
2696.962218538536
 30
0.0
 11
2511.926792519394
 21
2621.962218538522
 31
0.0
  0
LINE
  5
325
330
1F
100
AcDbEntity
  8
0-C_ハッチ
  6
JWW_DASHED1
 62
   120
370
     5
100
AcDbLine
 10
2629.353199390555
 20
2696.962218538538
 30
0.0
 11
2554.353199390561
 21
2621.962218538543
 31
0.0
  0
LINE
  5
326
330
1F
100
AcDbEntity
  8
0-C_ハッチ
  6
JWW_DASHED1
 62
   120
370
     5
100
AcDbLine
 10
2671.77960626175
 20
2696.962218538536
 30
0.0
 11
2596.779606261757
 21
2621.962218538543
 31
0.0
  0
LINE
  5
327
330
1F
100
AcDbEntity
  8
0-C_ハッチ
  6
JWW_DASHED1
 62
   120
370
     5
100
AcDbLine
 10
2714.206013132947
 20
2696.962218538529
 30
0.0
 11
2639.206013132952
 21
2621.962218538536
 31
0.0
  0
LINE
  5
328
330
1F
100
AcDbEntity
  8
0-C_ハッチ
  6
JWW_DASHED1
 62
   120
370
     5
100
AcDbLine
 10
2756.632420004142
 20
2696.962218538524
 30
0.0
 11
2681.632420004147
 21
2621.962218538533
 31
0.0
  0
LINE
  5
329
330
1F
100
AcDbEntity
  8
0-C_ハッチ
  6
JWW_DASHED1
 62
   120
370
     5
100
AcDbLine
 10
2799.058826875347
 20
2696.962218538531
 30
0.0
 11
2724.05882687535
 21
2621.962218538536
 31
0.0
  0
LINE
  5
32A
330
1F
100
AcDbEntity
  8
0-C_ハッチ
  6
JWW_DASHED1
 62
   120
370
     5
100
AcDbLine
 10
1629.690044679888
 20
2351.962218538528
 30
0.0
 11
1554.690044679892
 21
2276.962218538531
 31
0.0
  0
LINE
  5
32B
330
1F
100
AcDbEntity
  8
0-C_ハッチ
  6
JWW_DASHED1
 62
   120
370
     5
100
AcDbLine
 10
1672.116451551085
 20
2351.962218538522
 30
0.0
 11
1597.116451551088
 21
2276.962218538529
 31
0.0
  0
LINE
  5
32C
330
1F
100
AcDbEntity
  8
0-C_ハッチ
  6
JWW_DASHED1
 62
   120
370
     5
100
AcDbLine
 10
1714.542858422282
 20
2351.962218538522
 30
0.0
 11
1639.542858422285
 21
2276.962218538524
 31
0.0
  0
LINE
  5
32D
330
1F
100
AcDbEntity
  8
0-C_ハッチ
  6
JWW_DASHED1
 62
   120
370
     5
100
AcDbLine
 10
1756.969265293478
 20
2351.962218538516
 30
0.0
 11
1681.969265293482
 21
2276.962218538522
 31
0.0
  0
LINE
  5
32E
330
1F
100
AcDbEntity
  8
0-C_ハッチ
  6
JWW_DASHED1
 62
   120
370
     5
100
AcDbLine
 10
1799.395672164671
 20
2351.962218538514
 30
0.0
 11
1724.395672164678
 21
2276.962218538516
 31
0.0
  0
LINE
  5
32F
330
1F
100
AcDbEntity
  8
0-C_ハッチ
  6
JWW_DASHED1
 62
   120
370
     5
100
AcDbLine
 10
1841.822079035885
 20
2351.962218538524
 30
0.0
 11
1766.822079035875
 21
2276.962218538514
 31
0.0
  0
LINE
  5
330
330
1F
100
AcDbEntity
  8
0-C_ハッチ
  6
JWW_DASHED1
 62
   120
370
     5
100
AcDbLine
 10
1884.248485907037
 20
2351.962218538536
 30
0.0
 11
1809.248485907044
 21
2276.962218538536
 31
0.0
  0
LINE
  5
331
330
1F
100
AcDbEntity
  8
0-C_ハッチ
  6
JWW_DASHED1
 62
   120
370
     5
100
AcDbLine
 10
1926.674892778234
 20
2351.962218538529
 30
0.0
 11
1851.674892778241
 21
2276.962218538536
 31
0.0
  0
LINE
  5
332
330
1F
100
AcDbEntity
  8
0-C_ハッチ
  6
JWW_DASHED1
 62
   120
370
     5
100
AcDbLine
 10
1969.101299649431
 20
2351.962218538528
 30
0.0
 11
1894.101299649437
 21
2276.962218538529
 31
0.0
  0
LINE
  5
333
330
1F
100
AcDbEntity
  8
0-C_ハッチ
  6
JWW_DASHED1
 62
   120
370
     5
100
AcDbLine
 10
2011.527706520627
 20
2351.962218538522
 30
0.0
 11
1936.527706520634
 21
2276.962218538528
 31
0.0
  0
LINE
  5
334
330
1F
100
AcDbEntity
  8
0-C_ハッチ
  6
JWW_DASHED1
 62
   120
370
     5
100
AcDbLine
 10
2053.954113391824
 20
2351.962218538522
 30
0.0
 11
1978.954113391831
 21
2276.962218538522
 31
0.0
  0
LINE
  5
335
330
1F
100
AcDbEntity
  8
0-C_ハッチ
  6
JWW_DASHED1
 62
   120
370
     5
100
AcDbLine
 10
2096.38052026302
 20
2351.962218538516
 30
0.0
 11
2021.380520263027
 21
2276.962218538522
 31
0.0
  0
LINE
  5
336
330
1F
100
AcDbEntity
  8
0-C_ハッチ
  6
JWW_DASHED1
 62
   120
370
     5
100
AcDbLine
 10
2138.806927134217
 20
2351.962218538514
 30
0.0
 11
2063.806927134224
 21
2276.962218538516
 31
0.0
  0
LINE
  5
337
330
1F
100
AcDbEntity
  8
0-C_ハッチ
  6
JWW_DASHED1
 62
   120
370
     5
100
AcDbLine
 10
2181.233334005431
 20
2351.962218538524
 30
0.0
 11
2106.23333400542
 21
2276.962218538514
 31
0.0
  0
LINE
  5
338
330
1F
100
AcDbEntity
  8
0-C_ハッチ
  6
JWW_DASHED1
 62
   120
370
     5
100
AcDbLine
 10
2223.659740876583
 20
2351.962218538533
 30
0.0
 11
2148.659740876588
 21
2276.962218538536
 31
0.0
  0
LINE
  5
339
330
1F
100
AcDbEntity
  8
0-C_ハッチ
  6
JWW_DASHED1
 62
   120
370
     5
100
AcDbLine
 10
2266.086147747779
 20
2351.962218538529
 30
0.0
 11
2191.086147747783
 21
2276.962218538536
 31
0.0
  0
LINE
  5
33A
330
1F
100
AcDbEntity
  8
0-C_ハッチ
  6
JWW_DASHED1
 62
   120
370
     5
100
AcDbLine
 10
2308.512554618976
 20
2351.962218538528
 30
0.0
 11
2233.512554618981
 21
2276.962218538529
 31
0.0
  0
LINE
  5
33B
330
1F
100
AcDbEntity
  8
0-C_ハッチ
  6
JWW_DASHED1
 62
   120
370
     5
100
AcDbLine
 10
2350.938961490173
 20
2351.962218538522
 30
0.0
 11
2275.938961490176
 21
2276.962218538528
 31
0.0
  0
LINE
  5
33C
330
1F
100
AcDbEntity
  8
0-C_ハッチ
  6
JWW_DASHED1
 62
   120
370
     5
100
AcDbLine
 10
2393.365368361369
 20
2351.962218538517
 30
0.0
 11
2318.365368361373
 21
2276.962218538522
 31
0.0
  0
LINE
  5
33D
330
1F
100
AcDbEntity
  8
0-C_ハッチ
  6
JWW_DASHED1
 62
   120
370
     5
100
AcDbLine
 10
2435.791775232566
 20
2351.962218538516
 30
0.0
 11
2360.791775232569
 21
2276.962218538522
 31
0.0
  0
LINE
  5
33E
330
1F
100
AcDbEntity
  8
0-C_ハッチ
  6
JWW_DASHED1
 62
   120
370
     5
100
AcDbLine
 10
2478.218182103779
 20
2351.962218538528
 30
0.0
 11
2403.218182103766
 21
2276.962218538516
 31
0.0
  0
LINE
  5
33F
330
1F
100
AcDbEntity
  8
0-C_ハッチ
  6
JWW_DASHED1
 62
   120
370
     5
100
AcDbLine
 10
2520.644588974932
 20
2351.962218538536
 30
0.0
 11
2445.644588974922
 21
2276.962218538522
 31
0.0
  0
LINE
  5
340
330
1F
100
AcDbEntity
  8
0-C_ハッチ
  6
JWW_DASHED1
 62
   120
370
     5
100
AcDbLine
 10
2563.070995846128
 20
2351.962218538531
 30
0.0
 11
2488.070995846132
 21
2276.962218538536
 31
0.0
  0
LINE
  5
341
330
1F
100
AcDbEntity
  8
0-C_ハッチ
  6
JWW_DASHED1
 62
   120
370
     5
100
AcDbLine
 10
2605.497402717325
 20
2351.962218538529
 30
0.0
 11
2530.497402717328
 21
2276.962218538536
 31
0.0
  0
LINE
  5
342
330
1F
100
AcDbEntity
  8
0-C_ハッチ
  6
JWW_DASHED1
 62
   120
370
     5
100
AcDbLine
 10
2647.923809588522
 20
2351.962218538524
 30
0.0
 11
2572.923809588525
 21
2276.962218538529
 31
0.0
  0
LINE
  5
343
330
1F
100
AcDbEntity
  8
0-C_ハッチ
  6
JWW_DASHED1
 62
   120
370
     5
100
AcDbLine
 10
2690.350216459718
 20
2351.962218538522
 30
0.0
 11
2615.350216459722
 21
2276.962218538528
 31
0.0
  0
LINE
  5
344
330
1F
100
AcDbEntity
  8
0-C_ハッチ
  6
JWW_DASHED1
 62
   120
370
     5
100
AcDbLine
 10
2732.776623330915
 20
2351.962218538517
 30
0.0
 11
2657.776623330918
 21
2276.962218538522
 31
0.0
  0
LINE
  5
345
330
1F
100
AcDbEntity
  8
0-C_ハッチ
  6
JWW_DASHED1
 62
   120
370
     5
100
AcDbLine
 10
2775.203030202111
 20
2351.962218538516
 30
0.0
 11
2700.203030202115
 21
2276.962218538519
 31
0.0
  0
LINE
  5
346
330
1F
100
AcDbEntity
  8
0-2_柱
  6
Continuous
 62
    92
370
    13
100
AcDbLine
 10
2446.128149861711
 20
2351.962218538509
 30
0.0
 11
2446.128149861711
 21
2621.962218538529
 31
0.0
  0
LINE
  5
347
330
1F
100
AcDbEntity
  8
0-2_柱
  6
Continuous
 62
    92
370
    13
100
AcDbLine
 10
2716.128149861711
 20
2351.962218538509
 30
0.0
 11
2716.128149861711
 21
2621.962218538529
 31
0.0
  0
LINE
  5
348
330
1F
100
AcDbEntity
  8
0-2_柱
  6
Continuous
 62
     7
370
     9
100
AcDbLine
 10
2446.128149861711
 20
2351.962218538509
 30
0.0
 11
2716.128149861711
 21
2621.962218538529
 31
0.0
  0
LINE
  5
349
330
1F
100
AcDbEntity
  8
0-C_ハッチ
  6
JWW_DASHED1
 62
   120
370
     5
100
AcDbLine
 10
2263.908459734982
 20
2459.962218538521
 30
0.0
 11
2230.908459734997
 21
2426.962218538536
 31
0.0
  0
LINE
  5
34A
330
1F
100
AcDbEntity
  8
0-C_ハッチ
  6
JWW_DASHED1
 62
   120
370
     5
100
AcDbLine
 10
2221.482052863782
 20
2459.962218538521
 30
0.0
 11
2188.482052863783
 21
2426.962218538522
 31
0.0
  0
LINE
  5
34B
330
1F
100
AcDbEntity
  8
0-C_ハッチ
  6
JWW_DASHED1
 62
   120
370
     5
100
AcDbLine
 10
2179.055645992582
 20
2459.962218538521
 30
0.0
 11
2146.055645992585
 21
2426.962218538524
 31
0.0
  0
LINE
  5
34C
330
1F
100
AcDbEntity
  8
0-C_ハッチ
  6
JWW_DASHED1
 62
   120
370
     5
100
AcDbLine
 10
2136.629239121437
 20
2459.962218538521
 30
0.0
 11
2103.629239121437
 21
2426.962218538519
 31
0.0
  0
LINE
  5
34D
330
1F
100
AcDbEntity
  8
0-C_ハッチ
  6
JWW_DASHED1
 62
   120
370
     5
100
AcDbLine
 10
2094.202832250237
 20
2459.962218538521
 30
0.0
 11
2061.20283225024
 21
2426.962218538522
 31
0.0
  0
LINE
  5
34E
330
1F
100
AcDbEntity
  8
0-C_ハッチ
  6
JWW_DASHED1
 62
   120
370
     5
100
AcDbLine
 10
2051.776425379037
 20
2459.962218538521
 30
0.0
 11
2018.776425379038
 21
2426.962218538522
 31
0.0
  0
LINE
  5
34F
330
1F
100
AcDbEntity
  8
0-C_ハッチ
  6
JWW_DASHED1
 62
   120
370
     5
100
AcDbLine
 10
2009.350018507837
 20
2459.962218538521
 30
0.0
 11
1976.35001850784
 21
2426.962218538524
 31
0.0
  0
LINE
  5
350
330
1F
100
AcDbEntity
  8
0-C_ハッチ
  6
JWW_DASHED1
 62
   120
370
     5
100
AcDbLine
 10
1966.92361163664
 20
2459.962218538521
 30
0.0
 11
1933.923611636645
 21
2426.962218538529
 31
0.0
  0
LINE
  5
351
330
1F
100
AcDbEntity
  8
0-C_ハッチ
  6
JWW_DASHED1
 62
   120
370
     5
100
AcDbLine
 10
1924.497204765437
 20
2459.962218538521
 30
0.0
 11
1891.497204765446
 21
2426.962218538529
 31
0.0
  0
LINE
  5
352
330
1F
100
AcDbEntity
  8
0-C_ハッチ
  6
JWW_DASHED1
 62
   120
370
     5
100
AcDbLine
 10
1882.070797894237
 20
2459.962218538521
 30
0.0
 11
1849.070797894233
 21
2426.962218538517
 31
0.0
  0
LINE
  5
353
330
1F
100
AcDbEntity
  8
0-C_ハッチ
  6
JWW_DASHED1
 62
   120
370
     5
100
AcDbLine
 10
1839.64439102304
 20
2459.962218538521
 30
0.0
 11
1806.644391023038
 21
2426.962218538522
 31
0.0
  0
LINE
  5
354
330
1F
100
AcDbEntity
  8
0-C_ハッチ
  6
JWW_DASHED1
 62
   120
370
     5
100
AcDbLine
 10
1797.217984151891
 20
2459.962218538521
 30
0.0
 11
1764.217984151894
 21
2426.962218538522
 31
0.0
  0
LINE
  5
355
330
1F
100
AcDbEntity
  8
0-C_ハッチ
  6
JWW_DASHED1
 62
   120
370
     5
100
AcDbLine
 10
1754.791577280691
 20
2459.962218538521
 30
0.0
 11
1721.791577280698
 21
2426.962218538528
 31
0.0
  0
LINE
  5
356
330
1F
100
AcDbEntity
  8
0-C_ハッチ
  6
JWW_DASHED1
 62
   120
370
     5
100
AcDbLine
 10
1712.365170409491
 20
2459.962218538521
 30
0.0
 11
1679.365170409487
 21
2426.962218538517
 31
0.0
  0
LINE
  5
357
330
1F
100
AcDbEntity
  8
0-C_ハッチ
  6
JWW_DASHED1
 62
   120
370
     5
100
AcDbLine
 10
1669.938763538291
 20
2459.962218538521
 30
0.0
 11
1636.938763538292
 21
2426.962218538522
 31
0.0
  0
LINE
  5
358
330
1F
100
AcDbEntity
  8
0-C_ハッチ
  6
JWW_DASHED1
 62
   120
370
     5
100
AcDbLine
 10
1627.512356667091
 20
2459.962218538521
 30
0.0
 11
1594.512356667094
 21
2426.962218538522
 31
0.0
  0
LINE
  5
359
330
1F
100
AcDbEntity
  8
0-C_ハッチ
  6
JWW_DASHED1
 62
   120
370
     5
100
AcDbLine
 10
1585.085949795903
 20
2459.962218538521
 30
0.0
 11
1552.08594979588
 21
2426.962218538511
 31
0.0
  0
LINE
  5
35A
330
1F
100
AcDbEntity
  8
0-2_柱
  6
Continuous
 62
    92
370
    13
100
AcDbLine
 10
2086.128149861711
 20
2351.962218538522
 30
0.0
 11
2086.128149861711
 21
2426.962218538522
 31
0.0
  0
LINE
  5
35B
330
1F
100
AcDbEntity
  8
0-2_柱
  6
Continuous
 62
     7
370
     9
100
AcDbLine
 10
2266.128149861711
 20
2426.962218538522
 30
0.0
 11
2086.128149861711
 21
2351.962218538522
 31
0.0
  0
MTEXT
  5
35C
330
1F
100
AcDbEntity
  8
0-B_寸法
  6
Continuous
 62
     7
370
   211
100
AcDbMText
 10
2013.552152407879
 20
2450.718592258435
 30
0.0
 40
100.0125
 41
262.5
 46
0.0
 71
     7
 72
     1
  1
{\fＭＳ ゴシック|b0|i0|c128|p49;67.5}
 11
6.123031769111886E-17
 21
1.0
 31
0.0
 73
     1
 44
1.0
  0
LINE
  5
35D
330
1F
100
AcDbEntity
  8
0-C_ハッチ
  6
JWW_DASHED1
 62
   120
370
     5
100
AcDbLine
 10
557.61540290494
 20
2351.962218538529
 30
0.0
 11
482.6154029049417
 21
2276.962218538533
 31
0.0
  0
LINE
  5
35E
330
1F
100
AcDbEntity
  8
0-C_ハッチ
  6
JWW_DASHED1
 62
   120
370
     5
100
AcDbLine
 10
600.0418097761349
 20
2351.962218538524
 30
0.0
 11
525.04180977614
 21
2276.962218538529
 31
0.0
  0
LINE
  5
35F
330
1F
100
AcDbEntity
  8
0-C_ハッチ
  6
JWW_DASHED1
 62
   120
370
     5
100
AcDbLine
 10
642.4682166473332
 20
2351.962218538522
 30
0.0
 11
567.4682166473349
 21
2276.962218538528
 31
0.0
  0
LINE
  5
360
330
1F
100
AcDbEntity
  8
0-C_ハッチ
  6
JWW_DASHED1
 62
   120
370
     5
100
AcDbLine
 10
684.8946235185281
 20
2351.962218538517
 30
0.0
 11
609.8946235185332
 21
2276.962218538522
 31
0.0
  0
LINE
  5
361
330
1F
100
AcDbEntity
  8
0-C_ハッチ
  6
JWW_DASHED1
 62
   120
370
     5
100
AcDbLine
 10
727.3210303897417
 20
2351.962218538531
 30
0.0
 11
652.3210303897281
 21
2276.962218538519
 31
0.0
  0
LINE
  5
362
330
1F
100
AcDbEntity
  8
0-C_ハッチ
  6
JWW_DASHED1
 62
   120
370
     5
100
AcDbLine
 10
769.7474372608804
 20
2351.962218538524
 30
0.0
 11
694.7474372608872
 21
2276.962218538529
 31
0.0
  0
LINE
  5
363
330
1F
100
AcDbEntity
  8
0-C_ハッチ
  6
JWW_DASHED1
 62
   120
370
     5
100
AcDbLine
 10
812.173844132077
 20
2351.962218538522
 30
0.0
 11
737.1738441320804
 21
2276.962218538528
 31
0.0
  0
LINE
  5
364
330
1F
100
AcDbEntity
  8
0-C_ハッチ
  6
JWW_DASHED1
 62
   120
370
     5
100
AcDbLine
 10
854.5123109087319
 20
2351.874278443977
 30
0.0
 11
779.600251003294
 21
2276.962218538536
 31
0.0
  0
LINE
  5
365
330
1F
100
AcDbEntity
  8
0-C_ハッチ
  6
JWW_DASHED1
 62
   120
370
     5
100
AcDbLine
 10
529.3358358755683
 20
2459.962218538521
 30
0.0
 11
496.3358358755659
 21
2426.962218538522
 31
0.0
  0
LINE
  5
366
330
1F
100
AcDbEntity
  8
0-C_ハッチ
  6
JWW_DASHED1
 62
   120
370
     5
100
AcDbLine
 10
571.7622427467683
 20
2459.962218538521
 30
0.0
 11
538.7622427467625
 21
2426.962218538516
 31
0.0
  0
LINE
  5
367
330
1F
100
AcDbEntity
  8
0-C_ハッチ
  6
JWW_DASHED1
 62
   120
370
     5
100
AcDbLine
 10
614.1886496179683
 20
2459.962218538521
 30
0.0
 11
581.1886496179847
 21
2426.962218538538
 31
0.0
  0
LINE
  5
368
330
1F
100
AcDbEntity
  8
0-C_ハッチ
  6
JWW_DASHED1
 62
   120
370
     5
100
AcDbLine
 10
656.6150564891683
 20
2459.962218538521
 30
0.0
 11
623.6150564891796
 21
2426.962218538536
 31
0.0
  0
LINE
  5
369
330
1F
100
AcDbEntity
  8
0-C_ハッチ
  6
JWW_DASHED1
 62
   120
370
     5
100
AcDbLine
 10
699.0414633603683
 20
2459.962218538521
 30
0.0
 11
666.0414633603779
 21
2426.962218538531
 31
0.0
  0
LINE
  5
36A
330
1F
100
AcDbEntity
  8
0-C_ハッチ
  6
JWW_DASHED1
 62
   120
370
     5
100
AcDbLine
 10
741.4678702315683
 20
2459.962218538521
 30
0.0
 11
708.4678702315728
 21
2426.962218538529
 31
0.0
  0
LINE
  5
36B
330
1F
100
AcDbEntity
  8
0-C_ハッチ
  6
JWW_DASHED1
 62
   120
370
     5
100
AcDbLine
 10
783.8942771027683
 20
2459.962218538521
 30
0.0
 11
750.8942771027711
 21
2426.962218538524
 31
0.0
  0
LINE
  5
36C
330
1F
100
AcDbEntity
  8
0-C_ハッチ
  6
JWW_DASHED1
 62
   120
370
     5
100
AcDbLine
 10
826.3206839739684
 20
2459.962218538521
 30
0.0
 11
793.320683973966
 21
2426.962218538522
 31
0.0
  0
LINE
  5
36D
330
1F
100
AcDbEntity
  8
0-3_仕上げ
  6
Continuous
 62
    40
370
    15
100
AcDbLine
 10
2266.128149861711
 20
2426.962218538522
 30
0.0
 11
1162.070193269253
 21
2426.962218538522
 31
0.0
  0
LINE
  5
36E
330
1F
100
AcDbEntity
  8
0-3_仕上げ
  6
Continuous
 62
    40
370
    15
100
AcDbLine
 10
2266.128149861711
 20
2459.962218538521
 30
0.0
 11
1162.070193269253
 21
2459.962218538521
 31
0.0
  0
LINE
  5
36F
330
1F
100
AcDbEntity
  8
0-C_ハッチ
  6
JWW_DASHED1
 62
   120
370
     5
100
AcDbLine
 10
1502.410824066299
 20
2351.962218538528
 30
0.0
 11
1427.410824066302
 21
2276.962218538531
 31
0.0
  0
LINE
  5
370
330
1F
100
AcDbEntity
  8
0-C_ハッチ
  6
JWW_DASHED1
 62
   120
370
     5
100
AcDbLine
 10
1544.837230937495
 20
2351.962218538522
 30
0.0
 11
1469.837230937499
 21
2276.962218538529
 31
0.0
  0
LINE
  5
371
330
1F
100
AcDbEntity
  8
0-C_ハッチ
  6
JWW_DASHED1
 62
   120
370
     5
100
AcDbLine
 10
1587.263637808692
 20
2351.962218538522
 30
0.0
 11
1512.263637808695
 21
2276.962218538524
 31
0.0
  0
LINE
  5
372
330
1F
100
AcDbEntity
  8
0-C_ハッチ
  6
JWW_DASHED1
 62
   120
370
     5
100
AcDbLine
 10
1542.659542924703
 20
2459.962218538521
 30
0.0
 11
1509.659542924701
 21
2426.962218538522
 31
0.0
  0
LINE
  5
373
330
1F
100
AcDbEntity
  8
0-C_ハッチ
  6
JWW_DASHED1
 62
   120
370
     5
100
AcDbLine
 10
1500.233136053503
 20
2459.962218538521
 30
0.0
 11
1467.233136053504
 21
2426.962218538522
 31
0.0
  0
LINE
  5
374
330
1F
100
AcDbEntity
  8
0-C_ハッチ
  6
JWW_DASHED1
 62
   120
370
     5
100
AcDbLine
 10
1457.806729182312
 20
2459.962218538521
 30
0.0
 11
1424.806729182291
 21
2426.962218538511
 31
0.0
  0
LINE
  5
375
330
1F
100
AcDbEntity
  8
0-C_ハッチ
  6
JWW_DASHED1
 62
   120
370
     5
100
AcDbLine
 10
1375.131603452709
 20
2351.962218538528
 30
0.0
 11
1300.131603452712
 21
2276.962218538531
 31
0.0
  0
LINE
  5
376
330
1F
100
AcDbEntity
  8
0-C_ハッチ
  6
JWW_DASHED1
 62
   120
370
     5
100
AcDbLine
 10
1417.558010323905
 20
2351.962218538522
 30
0.0
 11
1342.558010323909
 21
2276.962218538529
 31
0.0
  0
LINE
  5
377
330
1F
100
AcDbEntity
  8
0-C_ハッチ
  6
JWW_DASHED1
 62
   120
370
     5
100
AcDbLine
 10
1459.984417195102
 20
2351.962218538522
 30
0.0
 11
1384.984417195105
 21
2276.962218538524
 31
0.0
  0
LINE
  5
378
330
1F
100
AcDbEntity
  8
0-C_ハッチ
  6
JWW_DASHED1
 62
   120
370
     5
100
AcDbLine
 10
1415.380322311115
 20
2459.962218538521
 30
0.0
 11
1382.380322311113
 21
2426.962218538522
 31
0.0
  0
LINE
  5
379
330
1F
100
AcDbEntity
  8
0-C_ハッチ
  6
JWW_DASHED1
 62
   120
370
     5
100
AcDbLine
 10
1372.953915439915
 20
2459.962218538521
 30
0.0
 11
1339.953915439914
 21
2426.962218538522
 31
0.0
  0
LINE
  5
37A
330
1F
100
AcDbEntity
  8
0-C_ハッチ
  6
JWW_DASHED1
 62
   120
370
     5
100
AcDbLine
 10
1330.527508568724
 20
2459.962218538521
 30
0.0
 11
1297.527508568701
 21
2426.962218538511
 31
0.0
  0
LINE
  5
37B
330
1F
100
AcDbEntity
  8
0-C_ハッチ
  6
JWW_DASHED1
 62
   120
370
     5
100
AcDbLine
 10
1247.852382839119
 20
2351.962218538528
 30
0.0
 11
1172.852382839124
 21
2276.962218538531
 31
0.0
  0
LINE
  5
37C
330
1F
100
AcDbEntity
  8
0-C_ハッチ
  6
JWW_DASHED1
 62
   120
370
     5
100
AcDbLine
 10
1290.278789710316
 20
2351.962218538522
 30
0.0
 11
1215.278789710319
 21
2276.962218538529
 31
0.0
  0
LINE
  5
37D
330
1F
100
AcDbEntity
  8
0-C_ハッチ
  6
JWW_DASHED1
 62
   120
370
     5
100
AcDbLine
 10
1332.705196581512
 20
2351.962218538522
 30
0.0
 11
1257.705196581516
 21
2276.962218538524
 31
0.0
  0
LINE
  5
37E
330
1F
100
AcDbEntity
  8
0-C_ハッチ
  6
JWW_DASHED1
 62
   120
370
     5
100
AcDbLine
 10
1288.101101697525
 20
2459.962218538521
 30
0.0
 11
1255.101101697525
 21
2426.962218538522
 31
0.0
  0
LINE
  5
37F
330
1F
100
AcDbEntity
  8
0-C_ハッチ
  6
JWW_DASHED1
 62
   120
370
     5
100
AcDbLine
 10
1245.674694826325
 20
2459.962218538521
 30
0.0
 11
1212.674694826326
 21
2426.962218538522
 31
0.0
  0
LINE
  5
380
330
1F
100
AcDbEntity
  8
0-C_ハッチ
  6
JWW_DASHED1
 62
   120
370
     5
100
AcDbLine
 10
1203.248287955132
 20
2459.962218538521
 30
0.0
 11
1170.248287955113
 21
2426.962218538511
 31
0.0
  0
LINE
  5
381
330
1F
100
AcDbEntity
  8
0-C_ハッチ
  6
JWW_DASHED1
 62
   120
370
     5
100
AcDbLine
 10
1205.425975967922
 20
2351.962218538522
 30
0.0
 11
1162.070193269253
 21
2308.606435839853
 31
0.0
  0
LINE
  5
382
330
1F
100
AcDbEntity
  8
0-C_ハッチ
  6
JWW_DASHED1
 62
   120
370
     5
100
AcDbLine
 10
1162.999569096726
 20
2351.962218538522
 30
0.0
 11
1162.070193269253
 21
2351.032842711052
 31
0.0
  0
LINE
  5
383
330
1F
100
AcDbEntity
  8
0-C_ハッチ
  6
JWW_DASHED1
 62
   120
370
     5
100
AcDbLine
 10
897.0266578744804
 20
2351.962218538522
 30
0.0
 11
822.0266578744872
 21
2276.962218538528
 31
0.0
  0
LINE
  5
384
330
1F
100
AcDbEntity
  8
0-C_ハッチ
  6
JWW_DASHED1
 62
   120
370
     5
100
AcDbLine
 10
939.3651246511354
 20
2351.874278443977
 30
0.0
 11
864.4530647456992
 21
2276.962218538536
 31
0.0
  0
LINE
  5
385
330
1F
100
AcDbEntity
  8
0-C_ハッチ
  6
JWW_DASHED1
 62
   120
370
     5
100
AcDbLine
 10
868.7470908451735
 20
2459.962218538521
 30
0.0
 11
835.7470908451762
 21
2426.962218538524
 31
0.0
  0
LINE
  5
386
330
1F
100
AcDbEntity
  8
0-C_ハッチ
  6
JWW_DASHED1
 62
   120
370
     5
100
AcDbLine
 10
911.1734977163735
 20
2459.962218538521
 30
0.0
 11
878.1734977163728
 21
2426.962218538522
 31
0.0
  0
LINE
  5
387
330
1F
100
AcDbEntity
  8
0-C_ハッチ
  6
JWW_DASHED1
 62
   120
370
     5
100
AcDbLine
 10
981.8794716168873
 20
2351.962218538522
 30
0.0
 11
906.8794716168924
 21
2276.962218538528
 31
0.0
  0
LINE
  5
388
330
1F
100
AcDbEntity
  8
0-C_ハッチ
  6
JWW_DASHED1
 62
   120
370
     5
100
AcDbLine
 10
1024.217938393542
 20
2351.874278443977
 30
0.0
 11
949.3058784881043
 21
2276.962218538536
 31
0.0
  0
LINE
  5
389
330
1F
100
AcDbEntity
  8
0-C_ハッチ
  6
JWW_DASHED1
 62
   120
370
     5
100
AcDbLine
 10
953.5999045875769
 20
2459.962218538521
 30
0.0
 11
920.5999045875797
 21
2426.962218538524
 31
0.0
  0
LINE
  5
38A
330
1F
100
AcDbEntity
  8
0-C_ハッチ
  6
JWW_DASHED1
 62
   120
370
     5
100
AcDbLine
 10
996.026311458777
 20
2459.962218538521
 30
0.0
 11
963.026311458778
 21
2426.962218538522
 31
0.0
  0
LINE
  5
38B
330
1F
100
AcDbEntity
  8
0-C_ハッチ
  6
JWW_DASHED1
 62
   120
370
     5
100
AcDbLine
 10
1038.452718329984
 20
2459.962218538521
 30
0.0
 11
1005.452718329987
 21
2426.962218538524
 31
0.0
  0
LINE
  5
38C
330
1F
100
AcDbEntity
  8
0-C_ハッチ
  6
JWW_DASHED1
 62
   120
370
     5
100
AcDbLine
 10
1042.070193269253
 20
2284.873719577283
 30
0.0
 11
1034.158692230508
 21
2276.962218538536
 31
0.0
  0
LINE
  5
38D
330
1F
100
AcDbEntity
  8
0-C_ハッチ
  6
JWW_DASHED1
 62
   120
370
     5
100
AcDbLine
 10
1042.070193269253
 20
2327.300126448483
 30
0.0
 11
991.7322853592975
 21
2276.962218538528
 31
0.0
  0
LINE
  5
38E
330
1F
100
AcDbEntity
  8
0-3_仕上げ
  6
Continuous
 62
    40
370
    15
100
AcDbLine
 10
1042.070193269253
 20
2459.962218538521
 30
0.0
 11
474.9185428433137
 21
2459.962218538521
 31
0.0
  0
LINE
  5
38F
330
1F
100
AcDbEntity
  8
0-3_仕上げ
  6
Continuous
 62
    40
370
    15
100
AcDbLine
 10
1042.070193269253
 20
2276.962218538522
 30
0.0
 11
474.9185428433137
 21
2276.962218538522
 31
0.0
  0
LINE
  5
390
330
1F
100
AcDbEntity
  8
0-C_ハッチ
  6
JWW_DASHED1
 62
   120
370
     5
100
AcDbLine
 10
515.1889960337417
 20
2351.962218538531
 30
0.0
 11
474.9185428433137
 21
2311.691765348102
 31
0.0
  0
LINE
  5
391
330
1F
100
AcDbEntity
  8
0-C_ハッチ
  6
JWW_DASHED1
 62
   120
370
     5
100
AcDbLine
 10
486.9094290044228
 20
2459.962218538521
 30
0.0
 11
474.9185428433137
 21
2447.971332377412
 31
0.0
  0
LINE
  5
392
330
1F
100
AcDbEntity
  8
0-3_仕上げ
  6
Continuous
 62
    40
370
    15
100
AcDbLine
 10
1042.070193269253
 20
2351.962218538522
 30
0.0
 11
474.9185428433137
 21
2351.962218538522
 31
0.0
  0
LINE
  5
393
330
1F
100
AcDbEntity
  8
0-3_仕上げ
  6
Continuous
 62
    40
370
    15
100
AcDbLine
 10
1042.070193269253
 20
2426.962218538522
 30
0.0
 11
474.9185428433137
 21
2426.962218538522
 31
0.0
  0
LINE
  5
394
330
1F
100
AcDbEntity
  8
0-B_寸法
  6
Continuous
 62
   120
370
     5
100
AcDbLine
 10
110.6908107777511
 20
2471.962218538522
 30
0.0
 11
264.5373120555584
 21
2471.962218538522
 31
0.0
  0
LWPOLYLINE
  5
395
330
1F
100
AcDbEntity
  8
0-B_寸法
  6
Continuous
 62
     7
370
     9
100
AcDbPolyline
 90
        4
 70
     1
 43
3.0
 10
112.1908107777511
 20
2471.962218538522
 42
0.4142135623731
 10
110.6908107777511
 20
2473.462218538522
 42
0.4142135623731
 10
109.1908107777511
 20
2471.962218538522
 42
0.4142135623731
 10
110.6908107777511
 20
2470.462218538522
 42
0.4142135623731
  0
LINE
  5
396
330
1F
100
AcDbEntity
  8
0-4_枠
  6
Continuous
 62
    92
370
    13
100
AcDbLine
 10
471.9185428433147
 20
2381.962218538522
 30
0.0
 11
474.9185428433137
 21
2381.962218538522
 31
0.0
  0
LINE
  5
397
330
1F
100
AcDbEntity
  8
0-4_枠
  6
Continuous
 62
    92
370
    13
100
AcDbLine
 10
471.9185428433147
 20
2381.962218538522
 30
0.0
 11
471.9185428433147
 21
2468.962218538522
 31
0.0
  0
LINE
  5
398
330
1F
100
AcDbEntity
  8
0-4_枠
  6
Continuous
 62
    92
370
    13
100
AcDbLine
 10
474.9185428433137
 20
2471.962218538522
 30
0.0
 11
294.9185428433137
 21
2471.962218538522
 31
0.0
  0
LINE
  5
399
330
1F
100
AcDbEntity
  8
0-4_枠
  6
Continuous
 62
    92
370
    13
100
AcDbLine
 10
471.9185428433147
 20
2468.962218538522
 30
0.0
 11
297.9185428433161
 21
2468.962218538522
 31
0.0
  0
LINE
  5
39A
330
1F
100
AcDbEntity
  8
0-B_寸法
  6
Continuous
 62
   120
370
     5
100
AcDbLine
 10
260.9685619786589
 20
2510.962218538523
 30
0.0
 11
110.6908107777511
 21
2510.962218538523
 31
0.0
  0
LWPOLYLINE
  5
39B
330
1F
100
AcDbEntity
  8
0-B_寸法
  6
Continuous
 62
     7
370
     9
100
AcDbPolyline
 90
        4
 70
     1
 43
3.0
 10
112.1908107777511
 20
2510.962218538523
 42
0.4142135623731
 10
110.6908107777511
 20
2512.462218538523
 42
0.4142135623731
 10
109.1908107777511
 20
2510.962218538523
 42
0.4142135623731
 10
110.6908107777511
 20
2509.462218538523
 42
0.4142135623731
  0
LINE
  5
39C
330
1F
100
AcDbEntity
  8
0-B_寸法
  6
Continuous
 62
   120
370
     5
100
AcDbLine
 10
260.9685619786589
 20
2690.962218538523
 30
0.0
 11
110.6908107777511
 21
2690.962218538523
 31
0.0
  0
LWPOLYLINE
  5
39D
330
1F
100
AcDbEntity
  8
0-B_寸法
  6
Continuous
 62
     7
370
     9
100
AcDbPolyline
 90
        4
 70
     1
 43
3.0
 10
112.1908107777511
 20
2690.962218538523
 42
0.4142135623731
 10
110.6908107777511
 20
2692.462218538523
 42
0.4142135623731
 10
109.1908107777511
 20
2690.962218538523
 42
0.4142135623731
 10
110.6908107777511
 20
2689.462218538523
 42
0.4142135623731
  0
LINE
  5
39E
330
1F
100
AcDbEntity
  8
0-B_寸法
  6
Continuous
 62
   120
370
     5
100
AcDbLine
 10
110.6908107777511
 20
2690.962218538523
 30
0.0
 11
110.6908107777511
 21
2510.962218538523
 31
0.0
  0
LINE
  5
39F
330
1F
100
AcDbEntity
  8
0-C_ハッチ
  6
Continuous
 62
   120
370
     5
100
AcDbLine
 10
324.957268674377
 20
2468.96221853852
 30
0.0
 11
297.9185428433161
 21
2441.923492707461
 31
0.0
  0
LINE
  5
3A0
330
1F
100
AcDbEntity
  8
0-C_ハッチ
  6
Continuous
 62
   120
370
     5
100
AcDbLine
 10
471.9185428433215
 20
2437.73258384847
 30
0.0
 11
297.9185428433161
 21
2263.732583848464
 31
0.0
  0
LINE
  5
3A1
330
1F
100
AcDbEntity
  8
0-C_ハッチ
  6
Continuous
 62
   120
370
     5
100
AcDbLine
 10
384.3542382940208
 20
2468.962218538518
 30
0.0
 11
297.9185428433161
 21
2382.526523087814
 31
0.0
  0
LINE
  5
3A2
330
1F
100
AcDbEntity
  8
0-C_ハッチ
  6
Continuous
 62
   120
370
     5
100
AcDbLine
 10
443.7512079137244
 20
2468.962218538522
 30
0.0
 11
297.9185428433161
 21
2323.129553468112
 31
0.0
  0
LINE
  5
3A3
330
1F
100
AcDbEntity
  8
0-B_寸法
  6
Continuous
 62
   120
370
     5
100
AcDbLine
 10
110.6908107777511
 20
2216.962218538522
 30
0.0
 11
264.5373120555584
 21
2216.962218538522
 31
0.0
  0
LWPOLYLINE
  5
3A4
330
1F
100
AcDbEntity
  8
0-B_寸法
  6
Continuous
 62
     7
370
     9
100
AcDbPolyline
 90
        4
 70
     1
 43
3.0
 10
112.1908107777511
 20
2216.962218538522
 42
0.4142135623731
 10
110.6908107777511
 20
2218.462218538522
 42
0.4142135623731
 10
109.1908107777511
 20
2216.962218538522
 42
0.4142135623731
 10
110.6908107777511
 20
2215.462218538522
 42
0.4142135623731
  0
LINE
  5
3A5
330
1F
100
AcDbEntity
  8
0-B_寸法
  6
Continuous
 62
   120
370
     5
100
AcDbLine
 10
110.6908107777511
 20
2471.962218538522
 30
0.0
 11
110.6908107777511
 21
2216.962218538522
 31
0.0
  0
LINE
  5
3A6
330
1F
100
AcDbEntity
  8
0-4_枠
  6
Continuous
 62
    92
370
    13
100
AcDbLine
 10
471.9185428433147
 20
2306.962218538522
 30
0.0
 11
474.9185428433137
 21
2306.962218538522
 31
0.0
  0
LINE
  5
3A7
330
1F
100
AcDbEntity
  8
0-4_枠
  6
Continuous
 62
    92
370
    13
100
AcDbLine
 10
474.9185428433137
 20
2471.962218538522
 30
0.0
 11
474.9185428433137
 21
2216.962218538522
 31
0.0
  0
LINE
  5
3A8
330
1F
100
AcDbEntity
  8
0-4_枠
  6
Continuous
 62
    92
370
    13
100
AcDbLine
 10
471.9185428433147
 20
2306.962218538522
 30
0.0
 11
471.9185428433147
 21
2219.962218538521
 31
0.0
  0
LINE
  5
3A9
330
1F
100
AcDbEntity
  8
0-4_枠
  6
Continuous
 62
    92
370
    13
100
AcDbLine
 10
303.4038242175527
 20
2216.962218538522
 30
0.0
 11
474.9185428433137
 21
2216.962218538522
 31
0.0
  0
LINE
  5
3AA
330
1F
100
AcDbEntity
  8
0-4_枠
  6
Continuous
 62
    92
370
    13
100
AcDbLine
 10
294.9185428433137
 20
2225.44749991276
 30
0.0
 11
294.9185428433137
 21
2471.962218538522
 31
0.0
  0
LINE
  5
3AB
330
1F
100
AcDbEntity
  8
0-4_枠
  6
Continuous
 62
    92
370
    13
100
AcDbLine
 10
303.4038242175527
 20
2216.962218538522
 30
0.0
 11
294.9185428433137
 21
2225.44749991276
 31
0.0
  0
LINE
  5
3AC
330
1F
100
AcDbEntity
  8
0-4_枠
  6
Continuous
 62
    92
370
    13
100
AcDbLine
 10
297.9185428433161
 20
2468.962218538522
 30
0.0
 11
297.9185428433161
 21
2226.69014059988
 31
0.0
  0
LINE
  5
3AD
330
1F
100
AcDbEntity
  8
0-4_枠
  6
Continuous
 62
    92
370
    13
100
AcDbLine
 10
304.6464649046723
 20
2219.962218538521
 30
0.0
 11
297.9185428433161
 21
2226.69014059988
 31
0.0
  0
LINE
  5
3AE
330
1F
100
AcDbEntity
  8
0-4_枠
  6
Continuous
 62
    92
370
    13
100
AcDbLine
 10
471.9185428433147
 20
2219.962218538521
 30
0.0
 11
304.6464649046723
 21
2219.962218538521
 31
0.0
  0
LINE
  5
3AF
330
1F
100
AcDbEntity
  8
0-C_ハッチ
  6
Continuous
 62
   120
370
     5
100
AcDbLine
 10
474.9185428433137
 20
2381.335614228764
 30
0.0
 11
313.5451471530749
 21
2219.962218538521
 31
0.0
  0
LINE
  5
3B0
330
1F
100
AcDbEntity
  8
0-C_ハッチ
  6
Continuous
 62
   120
370
     5
100
AcDbLine
 10
474.9185428433137
 20
2321.938644609117
 30
0.0
 11
372.9421167727222
 21
2219.962218538521
 31
0.0
  0
LINE
  5
3B1
330
1F
100
AcDbEntity
  8
0-C_ハッチ
  6
Continuous
 62
   120
370
     5
100
AcDbLine
 10
471.9185428433147
 20
2259.541674989412
 30
0.0
 11
432.3390863924257
 21
2219.962218538521
 31
0.0
  0
LINE
  5
3B2
330
1F
100
AcDbEntity
  8
0-2_柱
  6
Continuous
 62
    92
370
    13
100
AcDbLine
 10
654.9185428433136
 20
2426.962218538522
 30
0.0
 11
654.9185428433136
 21
2351.962218538522
 31
0.0
  0
LINE
  5
3B3
330
1F
100
AcDbEntity
  8
0-2_柱
  6
Continuous
 62
     7
370
     9
100
AcDbLine
 10
474.9185428433137
 20
2351.962218538522
 30
0.0
 11
654.9185428433136
 21
2426.962218538522
 31
0.0
  0
MTEXT
  5
3B4
330
1F
100
AcDbEntity
  8
0-B_寸法
  6
Continuous
 62
     7
370
     0
100
AcDbMText
 10
95.69076128978878
 20
2526.682218538523
 30
0.0
 40
91.44
 41
120.0
 46
0.0
 71
     7
 72
     1
  1
{\fＭＳ ゴシック|b0|i0|c128|p49;30}
 11
6.123031769111886E-17
 21
1.0
 31
0.0
 73
     1
 44
1.0
  0
MTEXT
  5
3B5
330
1F
100
AcDbEntity
  8
0-B_寸法
  6
Continuous
 62
     7
370
     0
100
AcDbMText
 10
104.0680412537338
 20
2210.182218538522
 30
0.0
 40
91.44
 41
240.0
 46
0.0
 71
     7
 72
     1
  1
{\fＭＳ ゴシック|b0|i0|c128|p49;42.5}
 11
6.123031769111886E-17
 21
1.0
 31
0.0
 73
     1
 44
1.0
  0
LINE
  5
3B6
330
1F
100
AcDbEntity
  8
0-6_扉
  6
JWW_DASHED2
 62
    40
370
    15
100
AcDbLine
 10
-455.0814571566863
 20
2510.962217369345
 30
0.0
 11
1041.883684758309
 21
2510.962217369345
 31
0.0
  0
LINE
  5
3B7
330
1F
100
AcDbEntity
  8
0-6_扉
  6
JWW_DASHED2
 62
    40
370
    15
100
AcDbLine
 10
1041.883684758309
 20
2690.962217369345
 30
0.0
 11
-455.0814571566863
 21
2690.962217369345
 31
0.0
  0
LINE
  5
3B8
330
1F
100
AcDbEntity
  8
0-6_扉
  6
JWW_DASHED2
 62
    40
370
    15
100
AcDbLine
 10
1161.883684758309
 20
2510.962217369345
 30
0.0
 11
2284.128161489058
 21
2510.962217369345
 31
0.0
  0
LINE
  5
3B9
330
1F
100
AcDbEntity
  8
0-6_扉
  6
JWW_DASHED2
 62
    40
370
    15
100
AcDbLine
 10
2284.128161489058
 20
2690.962217369345
 30
0.0
 11
1161.883684758309
 21
2690.962217369345
 31
0.0
  0
LINE
  5
3BA
330
1F
100
AcDbEntity
  8
0-6_扉
  6
Continuous
 62
   200
370
    20
100
AcDbLine
 10
-1022.232729492244
 20
2510.962217369345
 30
0.0
 11
474.9185428433137
 21
2510.962217369345
 31
0.0
  0
LINE
  5
3BB
330
1F
100
AcDbEntity
  8
0-6_扉
  6
Continuous
 62
   200
370
    20
100
AcDbLine
 10
474.9185428433137
 20
2690.962217369345
 30
0.0
 11
-1022.232729492244
 21
2690.962217369345
 31
0.0
  0
CIRCLE
  5
3BC
330
1F
100
AcDbEntity
  8
0-5_ケーシング
  6
JWW_DASHED2
 62
    92
370
    13
100
AcDbCircle
 10
-149.0814571566867
 20
2186.962217369346
 30
0.0
 40
96.0
  0
CIRCLE
  5
3BD
330
1F
100
AcDbEntity
  8
0-5_ケーシング
  6
JWW_DASHED2
 62
    92
370
    13
100
AcDbCircle
 10
-149.0814571566867
 20
3014.962217369344
 30
0.0
 40
96.0
  0
LINE
  5
3BE
330
1F
100
AcDbEntity
  8
0-5_ケーシング
  6
JWW_DASHED2
 62
    92
370
    13
100
AcDbLine
 10
-275.081457156688
 20
2690.962217369345
 30
0.0
 11
-23.08145715669212
 21
2690.962217369345
 31
0.0
  0
LINE
  5
3BF
330
1F
100
AcDbEntity
  8
0-5_ケーシング
  6
JWW_DASHED2
 62
    92
370
    13
100
AcDbLine
 10
-204.5814571566908
 20
2936.631189034462
 30
0.0
 11
-230.081457156688
 21
2708.962217369346
 31
0.0
  0
LINE
  5
3C0
330
1F
100
AcDbEntity
  8
0-5_ケーシング
  6
JWW_DASHED2
 62
    92
370
    13
100
AcDbLine
 10
-93.5814571566894
 20
2936.631189034462
 30
0.0
 11
-68.08145715669212
 21
2708.962217369346
 31
0.0
  0
LINE
  5
3C1
330
1F
100
AcDbEntity
  8
0-5_ケーシング
  6
JWW_DASHED2
 62
    92
370
    13
100
AcDbLine
 10
-23.08145715669212
 20
2702.962217369345
 30
0.0
 11
-23.08145715669212
 21
2690.962217369345
 31
0.0
  0
ARC
  5
3C2
330
1F
100
AcDbEntity
  8
0-5_ケーシング
  6
JWW_DASHED2
 62
    92
370
    13
100
AcDbCircle
 10
-29.08145715668667
 20
2702.962217369345
 30
0.0
 40
6.0
100
AcDbArc
 50
0.0
 51
90.0
  0
LINE
  5
3C3
330
1F
100
AcDbEntity
  8
0-5_ケーシング
  6
JWW_DASHED2
 62
    92
370
    13
100
AcDbLine
 10
-269.0814571566867
 20
2708.962217369346
 30
0.0
 11
-29.08145715668667
 21
2708.962217369346
 31
0.0
  0
LINE
  5
3C4
330
1F
100
AcDbEntity
  8
0-5_ケーシング
  6
JWW_DASHED2
 62
    92
370
    13
100
AcDbLine
 10
-275.081457156688
 20
2702.962217369345
 30
0.0
 11
-275.081457156688
 21
2690.962217369345
 31
0.0
  0
ARC
  5
3C5
330
1F
100
AcDbEntity
  8
0-5_ケーシング
  6
JWW_DASHED2
 62
    92
370
    13
100
AcDbCircle
 10
-269.0814571566867
 20
2702.962217369345
 30
0.0
 40
6.0
100
AcDbArc
 50
90.0
 51
180.0
  0
LINE
  5
3C6
330
1F
100
AcDbEntity
  8
0-5_ケーシング
  6
JWW_DASHED2
 62
    92
370
    13
100
AcDbLine
 10
-23.08145715669212
 20
2510.962217369345
 30
0.0
 11
-275.081457156688
 21
2510.962217369345
 31
0.0
  0
LINE
  5
3C7
330
1F
100
AcDbEntity
  8
0-5_ケーシング
  6
JWW_DASHED2
 62
    92
370
    13
100
AcDbLine
 10
-93.5814571566894
 20
2265.293245704228
 30
0.0
 11
-68.08145715669212
 21
2492.962217369345
 31
0.0
  0
LINE
  5
3C8
330
1F
100
AcDbEntity
  8
0-5_ケーシング
  6
JWW_DASHED2
 62
    92
370
    13
100
AcDbLine
 10
-204.5814571566908
 20
2265.293245704228
 30
0.0
 11
-230.081457156688
 21
2492.962217369345
 31
0.0
  0
LINE
  5
3C9
330
1F
100
AcDbEntity
  8
0-5_ケーシング
  6
JWW_DASHED2
 62
    92
370
    13
100
AcDbLine
 10
-275.081457156688
 20
2498.962217369346
 30
0.0
 11
-275.081457156688
 21
2510.962217369345
 31
0.0
  0
ARC
  5
3CA
330
1F
100
AcDbEntity
  8
0-5_ケーシング
  6
JWW_DASHED2
 62
    92
370
    13
100
AcDbCircle
 10
-269.0814571566867
 20
2498.962217369346
 30
0.0
 40
6.0
100
AcDbArc
 50
180.0
 51
270.0
  0
LINE
  5
3CB
330
1F
100
AcDbEntity
  8
0-5_ケーシング
  6
JWW_DASHED2
 62
    92
370
    13
100
AcDbLine
 10
-29.08145715668667
 20
2492.962217369345
 30
0.0
 11
-269.0814571566867
 21
2492.962217369345
 31
0.0
  0
LINE
  5
3CC
330
1F
100
AcDbEntity
  8
0-5_ケーシング
  6
JWW_DASHED2
 62
    92
370
    13
100
AcDbLine
 10
-23.08145715669212
 20
2498.962217369346
 30
0.0
 11
-23.08145715669212
 21
2510.962217369345
 31
0.0
  0
ARC
  5
3CD
330
1F
100
AcDbEntity
  8
0-5_ケーシング
  6
JWW_DASHED2
 62
    92
370
    13
100
AcDbCircle
 10
-29.08145715668667
 20
2498.962217369346
 30
0.0
 40
6.0
100
AcDbArc
 50
270.0
 51
0.0
  0
CIRCLE
  5
3CE
330
1F
100
AcDbEntity
  8
0-5_ケーシング
  6
JWW_DASHED1
 62
    92
370
    13
100
AcDbCircle
 10
-149.0814571566867
 20
3014.962217369344
 30
0.0
 40
66.0
  0
CIRCLE
  5
3CF
330
1F
100
AcDbEntity
  8
0-5_ケーシング
  6
JWW_DASHED1
 62
    92
370
    13
100
AcDbCircle
 10
-149.0814571566867
 20
2186.962217369346
 30
0.0
 40
66.0
  0
LINE
  5
3D0
330
1F
100
AcDbEntity
  8
0-6_扉
  6
Continuous
 62
   200
370
    20
100
AcDbLine
 10
474.9185428433137
 20
2510.962217369345
 30
0.0
 11
474.9185428433137
 21
2690.962217369345
 31
0.0
  0
LINE
  5
3D1
330
1F
100
AcDbEntity
  8
0-6_扉
  6
JWW_DASHED2
 62
    40
370
    15
100
AcDbLine
 10
-455.0814571566863
 20
2510.962217369345
 30
0.0
 11
-455.0814571566863
 21
2690.962217369345
 31
0.0
  0
LINE
  5
3D2
330
1F
100
AcDbEntity
  8
0-6_扉
  6
Continuous
 62
   200
370
    20
100
AcDbLine
 10
-1142.232729492244
 20
2690.962217369345
 30
0.0
 11
-2264.291075802424
 21
2690.962217369345
 31
0.0
  0
LINE
  5
3D3
330
1F
100
AcDbEntity
  8
0-6_扉
  6
Continuous
 62
   200
370
    20
100
AcDbLine
 10
-2089.273991390613
 20
2510.962217369345
 30
0.0
 11
-1142.232729492244
 21
2510.962217369345
 31
0.0
  0
LINE
  5
3D4
330
1F
100
AcDbEntity
  8
0-6_扉
  6
Continuous
 62
   200
370
    20
100
AcDbLine
 10
-2264.291075802424
 20
2510.962217369345
 30
0.0
 11
-2226.516279170534
 21
2510.962217369345
 31
0.0
  0
CIRCLE
  5
3D5
330
1F
100
AcDbEntity
  8
0-5_ケーシング
  6
Continuous
 62
    92
370
    13
100
AcDbCircle
 10
-1958.291075802422
 20
3014.962217369344
 30
0.0
 40
96.0
  0
LINE
  5
3D6
330
1F
100
AcDbEntity
  8
0-5_ケーシング
  6
Continuous
 62
    92
370
    13
100
AcDbLine
 10
-2084.291075802424
 20
2690.962217369345
 30
0.0
 11
-1832.291075802427
 21
2690.962217369345
 31
0.0
  0
LINE
  5
3D7
330
1F
100
AcDbEntity
  8
0-5_ケーシング
  6
Continuous
 62
    92
370
    13
100
AcDbLine
 10
-2013.791075802426
 20
2936.631189034462
 30
0.0
 11
-2039.291075802423
 21
2708.962217369346
 31
0.0
  0
LINE
  5
3D8
330
1F
100
AcDbEntity
  8
0-5_ケーシング
  6
Continuous
 62
    92
370
    13
100
AcDbLine
 10
-1902.791075802425
 20
2936.631189034462
 30
0.0
 11
-1877.291075802427
 21
2708.962217369346
 31
0.0
  0
CIRCLE
  5
3D9
330
1F
100
AcDbEntity
  8
0-5_ケーシング
  6
JWW_DASHED1
 62
    92
370
    13
100
AcDbCircle
 10
-1958.291075802422
 20
3014.962217369344
 30
0.0
 40
66.0
  0
LINE
  5
3DA
330
1F
100
AcDbEntity
  8
0-5_ケーシング
  6
Continuous
 62
    92
370
    13
100
AcDbLine
 10
-1832.291075802427
 20
2702.962217369345
 30
0.0
 11
-1832.291075802427
 21
2690.962217369345
 31
0.0
  0
ARC
  5
3DB
330
1F
100
AcDbEntity
  8
0-5_ケーシング
  6
Continuous
 62
    92
370
    13
100
AcDbCircle
 10
-1838.291075802422
 20
2702.962217369345
 30
0.0
 40
6.0
100
AcDbArc
 50
0.0
 51
90.0
  0
LINE
  5
3DC
330
1F
100
AcDbEntity
  8
0-5_ケーシング
  6
Continuous
 62
    92
370
    13
100
AcDbLine
 10
-2078.291075802422
 20
2708.962217369346
 30
0.0
 11
-1838.291075802422
 21
2708.962217369346
 31
0.0
  0
ARC
  5
3DD
330
1F
100
AcDbEntity
  8
0-5_ケーシング
  6
Continuous
 62
    92
370
    13
100
AcDbCircle
 10
-2078.291075802422
 20
2702.962217369345
 30
0.0
 40
6.0
100
AcDbArc
 50
90.0
 51
180.0
  0
CIRCLE
  5
3DE
330
1F
100
AcDbEntity
  8
0-5_ケーシング
  6
Continuous
 62
    92
370
    13
100
AcDbCircle
 10
-1958.291075802422
 20
2186.962217369346
 30
0.0
 40
96.0
  0
LINE
  5
3DF
330
1F
100
AcDbEntity
  8
0-5_ケーシング
  6
Continuous
 62
    92
370
    13
100
AcDbLine
 10
-1832.291075802427
 20
2510.962217369345
 30
0.0
 11
-2084.291075802424
 21
2510.962217369345
 31
0.0
  0
LINE
  5
3E0
330
1F
100
AcDbEntity
  8
0-5_ケーシング
  6
Continuous
 62
    92
370
    13
100
AcDbLine
 10
-1902.791075802425
 20
2265.293245704228
 30
0.0
 11
-1877.291075802427
 21
2492.962217369345
 31
0.0
  0
LINE
  5
3E1
330
1F
100
AcDbEntity
  8
0-5_ケーシング
  6
Continuous
 62
    92
370
    13
100
AcDbLine
 10
-2013.791075802426
 20
2265.293245704228
 30
0.0
 11
-2039.291075802423
 21
2492.962217369345
 31
0.0
  0
CIRCLE
  5
3E2
330
1F
100
AcDbEntity
  8
0-5_ケーシング
  6
JWW_DASHED1
 62
    92
370
    13
100
AcDbCircle
 10
-1958.291075802422
 20
2186.962217369346
 30
0.0
 40
66.0
  0
ARC
  5
3E3
330
1F
100
AcDbEntity
  8
0-5_ケーシング
  6
Continuous
 62
    92
370
    13
100
AcDbCircle
 10
-2078.291075802422
 20
2498.962217369346
 30
0.0
 40
6.0
100
AcDbArc
 50
180.0
 51
270.0
  0
LINE
  5
3E4
330
1F
100
AcDbEntity
  8
0-5_ケーシング
  6
Continuous
 62
    92
370
    13
100
AcDbLine
 10
-1838.291075802422
 20
2492.962217369345
 30
0.0
 11
-2078.291075802422
 21
2492.962217369345
 31
0.0
  0
LINE
  5
3E5
330
1F
100
AcDbEntity
  8
0-5_ケーシング
  6
Continuous
 62
    92
370
    13
100
AcDbLine
 10
-1832.291075802427
 20
2498.962217369346
 30
0.0
 11
-1832.291075802427
 21
2510.962217369345
 31
0.0
  0
ARC
  5
3E6
330
1F
100
AcDbEntity
  8
0-5_ケーシング
  6
Continuous
 62
    92
370
    13
100
AcDbCircle
 10
-1838.291075802422
 20
2498.962217369346
 30
0.0
 40
6.0
100
AcDbArc
 50
270.0
 51
0.0
  0
LINE
  5
3E7
330
1F
100
AcDbEntity
  8
0-6_扉
  6
Continuous
 62
   200
370
    20
100
AcDbLine
 10
-2264.291075802424
 20
2690.962217369345
 30
0.0
 11
-2264.291075802424
 21
2510.962217369345
 31
0.0
  0
LINE
  5
3E8
330
1F
100
AcDbEntity
  8
0-5_ケーシング
  6
Continuous
 62
    92
370
    13
100
AcDbLine
 10
-2084.291075802424
 20
2702.962217369345
 30
0.0
 11
-2084.291075802424
 21
2690.962217369345
 31
0.0
  0
LINE
  5
3E9
330
1F
100
AcDbEntity
  8
0-5_ケーシング
  6
Continuous
 62
    92
370
    13
100
AcDbLine
 10
-2084.291075802424
 20
2498.962217369346
 30
0.0
 11
-2084.291075802424
 21
2510.962217369345
 31
0.0
  0
LINE
  5
3EA
330
1F
100
AcDbEntity
  8
0-6_扉
  6
JWW_DASHED2
 62
    40
370
    15
100
AcDbLine
 10
2284.128161489058
 20
2510.962217369345
 30
0.0
 11
2284.128161489058
 21
2690.962217369345
 31
0.0
  0
ARC
  5
3EB
330
1F
100
AcDbEntity
  8
0-7_金物
  6
Continuous
 62
     7
370
     9
100
AcDbCircle
 10
-2446.998419873889
 20
2600.962169007276
 30
0.0
 40
188.167407989502
100
AcDbArc
 50
346.1637114550782
 51
13.83631887695315
  0
LINE
  5
3EC
330
1F
100
AcDbEntity
  8
0-7_金物
  6
Continuous
 62
     7
370
     9
100
AcDbLine
 10
-2282.291076096906
 20
2615.96216875035
 30
0.0
 11
-2312.291075561142
 21
2615.962168988094
 31
0.0
  0
LINE
  5
3ED
330
1F
100
AcDbEntity
  8
0-7_金物
  6
Continuous
 62
     7
370
     9
100
AcDbLine
 10
-2312.291075799229
 20
2585.962169409305
 30
0.0
 11
-2312.291075561142
 21
2615.962168988094
 31
0.0
  0
LINE
  5
3EE
330
1F
100
AcDbEntity
  8
0-7_金物
  6
Continuous
 62
     7
370
     9
100
AcDbLine
 10
-2282.291076105884
 20
2585.962169170876
 30
0.0
 11
-2312.291075799229
 21
2585.962169409305
 31
0.0
  0
LINE
  5
3EF
330
1F
100
AcDbEntity
  8
0-7_金物
  6
Continuous
 62
     7
370
     9
100
AcDbLine
 10
-2264.291075425649
 20
2645.962167898133
 30
0.0
 11
-2282.291076086442
 21
2645.962169760337
 31
0.0
  0
LINE
  5
3F0
330
1F
100
AcDbEntity
  8
0-7_金物
  6
Continuous
 62
     7
370
     9
100
AcDbLine
 10
-2282.291076116348
 20
2555.962168160891
 30
0.0
 11
-2282.291076086442
 21
2645.962169760337
 31
0.0
  0
LINE
  5
3F1
330
1F
100
AcDbEntity
  8
0-7_金物
  6
Continuous
 62
     7
370
     9
100
AcDbLine
 10
-2264.291076139904
 20
2555.962169161769
 30
0.0
 11
-2282.291076116348
 21
2555.962168160891
 31
0.0
  0
LINE
  5
3F2
330
1F
100
AcDbEntity
  8
0-2_柱
  6
Continuous
 62
    92
370
    13
100
AcDbLine
 10
-2426.29107611633
 20
2351.962168973777
 30
0.0
 11
-2426.29107611633
 21
2621.962168973786
 31
0.0
  0
LINE
  5
3F3
330
1F
100
AcDbEntity
  8
0-C_ハッチ
  6
JWW_DASHED1
 62
   120
370
     5
100
AcDbLine
 10
-2434.250965940075
 20
2276.962168973792
 30
0.0
 11
-2426.291076116347
 21
2284.922058797517
 31
0.0
  0
LINE
  5
3F4
330
1F
100
AcDbEntity
  8
0-C_ハッチ
  6
JWW_DASHED1
 62
   120
370
     5
100
AcDbLine
 10
-2450.499882750371
 20
2621.962168973786
 30
0.0
 11
-2426.291076116347
 21
2646.17097560781
 31
0.0
  0
LINE
  5
3F5
330
1F
100
AcDbEntity
  8
0-C_ハッチ
  6
JWW_DASHED1
 62
   120
370
     5
100
AcDbLine
 10
-2519.103779682472
 20
2276.962168973792
 30
0.0
 11
-2444.103779682472
 21
2351.962168973792
 31
0.0
  0
LINE
  5
3F6
330
1F
100
AcDbEntity
  8
0-C_ハッチ
  6
JWW_DASHED1
 62
   120
370
     5
100
AcDbLine
 10
-2535.352696492773
 20
2621.962168973777
 30
0.0
 11
-2460.352696492763
 21
2696.962168973786
 31
0.0
  0
LINE
  5
3F7
330
1F
100
AcDbEntity
  8
0-C_ハッチ
  6
JWW_DASHED1
 62
   120
370
     5
100
AcDbLine
 10
-2492.926289621563
 20
2621.962168973789
 30
0.0
 11
-2426.291076116347
 21
2688.597382479003
 31
0.0
  0
LINE
  5
3F8
330
1F
100
AcDbEntity
  8
0-C_ハッチ
  6
JWW_DASHED1
 62
   120
370
     5
100
AcDbLine
 10
-2476.677372811261
 20
2276.962168973806
 30
0.0
 11
-2426.291076116347
 21
2327.348465668701
 31
0.0
  0
LINE
  5
3F9
330
1F
100
AcDbEntity
  8
0-C_ハッチ
  6
JWW_DASHED1
 62
   120
370
     5
100
AcDbLine
 10
-2561.530186553672
 20
2276.962168973796
 30
0.0
 11
-2486.530186553658
 21
2351.962168973806
 31
0.0
  0
LINE
  5
3FA
330
1F
100
AcDbEntity
  8
0-C_ハッチ
  6
JWW_DASHED1
 62
   120
370
     5
100
AcDbLine
 10
-2603.956593424882
 20
2276.962168973786
 30
0.0
 11
-2528.956593424885
 21
2351.962168973779
 31
0.0
  0
LINE
  5
3FB
330
1F
100
AcDbEntity
  8
0-C_ハッチ
  6
JWW_DASHED1
 62
   120
370
     5
100
AcDbLine
 10
-2646.383000296082
 20
2276.962168973782
 30
0.0
 11
-2571.383000296085
 21
2351.962168973782
 31
0.0
  0
LINE
  5
3FC
330
1F
100
AcDbEntity
  8
0-C_ハッチ
  6
JWW_DASHED1
 62
   120
370
     5
100
AcDbLine
 10
-2688.809407167275
 20
2276.962168973786
 30
0.0
 11
-2613.809407167282
 21
2351.962168973786
 31
0.0
  0
LINE
  5
3FD
330
1F
100
AcDbEntity
  8
0-C_ハッチ
  6
JWW_DASHED1
 62
   120
370
     5
100
AcDbLine
 10
-2731.235814038475
 20
2276.962168973789
 30
0.0
 11
-2656.235814038475
 21
2351.962168973786
 31
0.0
  0
LINE
  5
3FE
330
1F
100
AcDbEntity
  8
0-C_ハッチ
  6
JWW_DASHED1
 62
   120
370
     5
100
AcDbLine
 10
-2773.662220909614
 20
2276.962168973796
 30
0.0
 11
-2698.662220909617
 21
2351.962168973792
 31
0.0
  0
LINE
  5
3FF
330
1F
100
AcDbEntity
  8
0-C_ハッチ
  6
JWW_DASHED1
 62
   120
370
     5
100
AcDbLine
 10
-2577.779103363966
 20
2621.962168973779
 30
0.0
 11
-2502.779103363959
 21
2696.962168973791
 31
0.0
  0
LINE
  5
400
330
1F
100
AcDbEntity
  8
0-C_ハッチ
  6
JWW_DASHED1
 62
   120
370
     5
100
AcDbLine
 10
-2620.205510235171
 20
2621.962168973779
 30
0.0
 11
-2545.205510235173
 21
2696.962168973777
 31
0.0
  0
LINE
  5
401
330
1F
100
AcDbEntity
  8
0-C_ハッチ
  6
JWW_DASHED1
 62
   120
370
     5
100
AcDbLine
 10
-2662.631917106366
 20
2621.962168973784
 30
0.0
 11
-2587.631917106371
 21
2696.962168973779
 31
0.0
  0
LINE
  5
402
330
1F
100
AcDbEntity
  8
0-C_ハッチ
  6
JWW_DASHED1
 62
   120
370
     5
100
AcDbLine
 10
-2705.058323977508
 20
2621.962168973791
 30
0.0
 11
-2630.058323977508
 21
2696.962168973786
 31
0.0
  0
LINE
  5
403
330
1F
100
AcDbEntity
  8
0-C_ハッチ
  6
JWW_DASHED1
 62
   120
370
     5
100
AcDbLine
 10
-2747.484730848703
 20
2621.962168973792
 30
0.0
 11
-2672.484730848705
 21
2696.962168973791
 31
0.0
  0
LINE
  5
404
330
1F
100
AcDbEntity
  8
0-2_柱
  6
Continuous
 62
     7
370
     9
100
AcDbLine
 10
-2696.291076116338
 20
2351.962168973792
 30
0.0
 11
-2426.29107611633
 21
2621.962168973786
 31
0.0
  0
LINE
  5
405
330
1F
100
AcDbEntity
  8
0-2_柱
  6
Continuous
 62
    92
370
    13
100
AcDbLine
 10
-2696.291076116338
 20
2351.962168973792
 30
0.0
 11
-2696.291076116338
 21
2621.962168973786
 31
0.0
  0
LINE
  5
406
330
1F
100
AcDbEntity
  8
0-C_ハッチ
  6
Continuous
 62
   120
370
     5
100
AcDbLine
 10
-2423.291076116333
 20
2253.689814151781
 30
0.0
 11
-2249.290641240844
 21
2427.690249027274
 31
0.0
  0
LINE
  5
407
330
1F
100
AcDbEntity
  8
0-C_ハッチ
  6
Continuous
 62
   120
370
     5
100
AcDbLine
 10
-2338.225216930527
 20
2219.961734098293
 30
0.0
 11
-2249.290641240844
 21
2308.896309787976
 31
0.0
  0
LINE
  5
408
330
1F
100
AcDbEntity
  8
0-C_ハッチ
  6
Continuous
 62
   120
370
     5
100
AcDbLine
 10
-2278.828247310825
 20
2219.961734098293
 30
0.0
 11
-2249.290641240844
 21
2249.499340168275
 31
0.0
  0
LINE
  5
409
330
1F
100
AcDbEntity
  8
0-C_ハッチ
  6
Continuous
 62
   120
370
     5
100
AcDbLine
 10
-2397.622186550174
 20
2219.961734098293
 30
0.0
 11
-2249.290641240844
 21
2368.293279407624
 31
0.0
  0
LINE
  5
40A
330
1F
100
AcDbEntity
  8
0-C_ハッチ
  6
Continuous
 62
   120
370
     5
100
AcDbLine
 10
-2426.291076116333
 20
2310.086783771484
 30
0.0
 11
-2261.415690914039
 21
2474.96216897378
 31
0.0
  0
LINE
  5
40B
330
1F
100
AcDbEntity
  8
0-C_ハッチ
  6
Continuous
 62
   120
370
     5
100
AcDbLine
 10
-2426.291076116343
 20
2547.674662250172
 30
0.0
 11
-2285.29107611633
 21
2688.674662250183
 31
0.0
  0
LINE
  5
40C
330
1F
100
AcDbEntity
  8
0-4_枠
  6
Continuous
 62
    92
370
    13
100
AcDbLine
 10
-2249.290641240844
 20
2228.44701547253
 30
0.0
 11
-2249.290641240844
 21
2474.96216897378
 31
0.0
  0
LINE
  5
40D
330
1F
100
AcDbEntity
  8
0-4_枠
  6
Continuous
 62
    92
370
    13
100
AcDbLine
 10
-2246.29107611633
 20
2225.447450348018
 30
0.0
 11
-2246.29107611633
 21
2477.962168973781
 31
0.0
  0
LINE
  5
40E
330
1F
100
AcDbEntity
  8
0-4_枠
  6
Continuous
 62
    92
370
    13
100
AcDbLine
 10
-2426.29107611633
 20
2216.962168973781
 30
0.0
 11
-2426.29107611633
 21
2756.962168973781
 31
0.0
  0
LINE
  5
40F
330
1F
100
AcDbEntity
  8
0-4_枠
  6
Continuous
 62
    92
370
    13
100
AcDbLine
 10
-2423.291076116333
 20
2306.962168973779
 30
0.0
 11
-2423.291076116333
 21
2219.961734098293
 31
0.0
  0
LINE
  5
410
330
1F
100
AcDbEntity
  8
0-4_枠
  6
Continuous
 62
    92
370
    13
100
AcDbLine
 10
-2257.775922615082
 20
2219.961734098293
 30
0.0
 11
-2423.291076116333
 21
2219.961734098293
 31
0.0
  0
LINE
  5
411
330
1F
100
AcDbEntity
  8
0-4_枠
  6
Continuous
 62
    92
370
    13
100
AcDbLine
 10
-2254.776357490576
 20
2216.962168973781
 30
0.0
 11
-2426.29107611633
 21
2216.962168973781
 31
0.0
  0
LINE
  5
412
330
1F
100
AcDbEntity
  8
0-4_枠
  6
Continuous
 62
    92
370
    13
100
AcDbLine
 10
-2423.291076116333
 20
2306.962168973779
 30
0.0
 11
-2426.29107611633
 21
2306.962168973779
 31
0.0
  0
LINE
  5
413
330
1F
100
AcDbEntity
  8
0-4_枠
  6
Continuous
 62
    92
370
    13
100
AcDbLine
 10
-2249.290641240844
 20
2228.44701547253
 30
0.0
 11
-2257.775922615082
 21
2219.961734098293
 31
0.0
  0
LINE
  5
414
330
1F
100
AcDbEntity
  8
0-4_枠
  6
Continuous
 62
    92
370
    13
100
AcDbLine
 10
-2254.776357490576
 20
2216.962168973781
 30
0.0
 11
-2246.29107611633
 21
2225.447450348018
 31
0.0
  0
LINE
  5
415
330
1F
100
AcDbEntity
  8
0-4_枠
  6
Continuous
 62
    92
370
    13
100
AcDbLine
 10
-2285.29107611633
 20
2474.96216897378
 30
0.0
 11
-2285.29107611633
 21
2726.962168973781
 31
0.0
  0
LINE
  5
416
330
1F
100
AcDbEntity
  8
0-4_枠
  6
Continuous
 62
    92
370
    13
100
AcDbLine
 10
-2282.291076116333
 20
2477.962168973781
 30
0.0
 11
-2282.291076116333
 21
2723.962168973781
 31
0.0
  0
LINE
  5
417
330
1F
100
AcDbEntity
  8
0-4_枠
  6
Continuous
 62
    92
370
    13
100
AcDbLine
 10
-2285.29107611633
 20
2474.96216897378
 30
0.0
 11
-2249.290641240844
 21
2474.96216897378
 31
0.0
  0
LINE
  5
418
330
1F
100
AcDbEntity
  8
0-4_枠
  6
Continuous
 62
    92
370
    13
100
AcDbLine
 10
-2282.291076116333
 20
2477.962168973781
 30
0.0
 11
-2246.29107611633
 21
2477.962168973781
 31
0.0
  0
LINE
  5
419
330
1F
100
AcDbEntity
  8
0-4_枠
  6
Continuous
 62
    92
370
    13
100
AcDbLine
 10
-2285.29107611633
 20
2726.962168973781
 30
0.0
 11
-2249.290641240844
 21
2726.962168973781
 31
0.0
  0
LINE
  5
41A
330
1F
100
AcDbEntity
  8
0-4_枠
  6
Continuous
 62
    92
370
    13
100
AcDbLine
 10
-2282.291076116333
 20
2723.962168973781
 30
0.0
 11
-2246.29107611633
 21
2723.962168973781
 31
0.0
  0
LINE
  5
41B
330
1F
100
AcDbEntity
  8
0-4_枠
  6
Continuous
 62
    92
370
    13
100
AcDbLine
 10
-2249.290641240844
 20
2747.233812036934
 30
0.0
 11
-2249.290641240844
 21
2726.962168973781
 31
0.0
  0
LINE
  5
41C
330
1F
100
AcDbEntity
  8
0-4_枠
  6
Continuous
 62
    92
370
    13
100
AcDbLine
 10
-2246.29107611633
 20
2748.476887599541
 30
0.0
 11
-2246.29107611633
 21
2723.962168973781
 31
0.0
  0
LINE
  5
41D
330
1F
100
AcDbEntity
  8
0-C_ハッチ
  6
Continuous
 62
   120
370
     5
100
AcDbLine
 10
-2423.291076116333
 20
2728.865571109179
 30
0.0
 11
-2398.194638469019
 21
2753.962008756493
 31
0.0
  0
LINE
  5
41E
330
1F
100
AcDbEntity
  8
0-C_ハッチ
  6
Continuous
 62
   120
370
     5
100
AcDbLine
 10
-2423.291076116343
 20
2669.468601489467
 30
0.0
 11
-2338.797668849309
 21
2753.962008756503
 31
0.0
  0
LINE
  5
41F
330
1F
100
AcDbEntity
  8
0-C_ハッチ
  6
Continuous
 62
   120
370
     5
100
AcDbLine
 10
-2426.291076116333
 20
2607.07163186983
 30
0.0
 11
-2279.40069922968
 21
2753.96200875648
 31
0.0
  0
LINE
  5
420
330
1F
100
AcDbEntity
  8
0-C_ハッチ
  6
Continuous
 62
   120
370
     5
100
AcDbLine
 10
-2426.291076116326
 20
2488.277692630487
 30
0.0
 11
-2285.291076116349
 21
2629.277692630465
 31
0.0
  0
LINE
  5
421
330
1F
100
AcDbEntity
  8
0-C_ハッチ
  6
Continuous
 62
   120
370
     5
100
AcDbLine
 10
-2426.29107611634
 20
2428.880723010828
 30
0.0
 11
-2285.29107611633
 21
2569.880723010838
 31
0.0
  0
LINE
  5
422
330
1F
100
AcDbEntity
  8
0-C_ハッチ
  6
Continuous
 62
   120
370
     5
100
AcDbLine
 10
-2426.291076116325
 20
2369.483753391141
 30
0.0
 11
-2285.291076116344
 21
2510.483753391122
 31
0.0
  0
LINE
  5
423
330
1F
100
AcDbEntity
  8
0-4_枠
  6
Continuous
 62
    92
370
    13
100
AcDbLine
 10
-2423.291076116333
 20
2666.962168973781
 30
0.0
 11
-2423.291076116333
 21
2753.962008756494
 31
0.0
  0
LINE
  5
424
330
1F
100
AcDbEntity
  8
0-4_枠
  6
Continuous
 62
    92
370
    13
100
AcDbLine
 10
-2423.291076116333
 20
2666.962168973781
 30
0.0
 11
-2426.29107611633
 21
2666.962168973781
 31
0.0
  0
LINE
  5
425
330
1F
100
AcDbEntity
  8
0-4_枠
  6
Continuous
 62
    92
370
    13
100
AcDbLine
 10
-2256.018837960408
 20
2753.962008756494
 30
0.0
 11
-2423.291076116333
 21
2753.962008756494
 31
0.0
  0
LINE
  5
426
330
1F
100
AcDbEntity
  8
0-4_枠
  6
Continuous
 62
    92
370
    13
100
AcDbLine
 10
-2254.776357490576
 20
2756.962168973781
 30
0.0
 11
-2426.29107611633
 21
2756.962168973781
 31
0.0
  0
LINE
  5
427
330
1F
100
AcDbEntity
  8
0-4_枠
  6
Continuous
 62
    92
370
    13
100
AcDbLine
 10
-2256.018837960408
 20
2753.962008756494
 30
0.0
 11
-2249.290641240844
 21
2747.233812036934
 31
0.0
  0
LINE
  5
428
330
1F
100
AcDbEntity
  8
0-4_枠
  6
Continuous
 62
    92
370
    13
100
AcDbLine
 10
-2246.29107611633
 20
2748.476887599541
 30
0.0
 11
-2254.776357490576
 21
2756.962168973781
 31
0.0
  0
LWPOLYLINE
  5
429
330
1F
100
AcDbEntity
  8
0-B_寸法
  6
Continuous
 62
     7
370
     9
100
AcDbPolyline
 90
        4
 70
     1
 43
3.0
 10
-2096.833601271231
 20
2756.962168973781
 42
0.4142135623731
 10
-2098.333601271231
 20
2758.462168973781
 42
0.4142135623731
 10
-2099.833601271231
 20
2756.962168973781
 42
0.4142135623731
 10
-2098.333601271231
 20
2755.462168973781
 42
0.4142135623731
  0
LWPOLYLINE
  5
42A
330
1F
100
AcDbEntity
  8
0-B_寸法
  6
Continuous
 62
     7
370
     9
100
AcDbPolyline
 90
        4
 70
     1
 43
3.0
 10
-2096.833601271234
 20
2216.962168973781
 42
0.4142135623731
 10
-2098.333601271234
 20
2218.462168973781
 42
0.4142135623731
 10
-2099.833601271234
 20
2216.962168973781
 42
0.4142135623731
 10
-2098.333601271234
 20
2215.462168973781
 42
0.4142135623731
  0
LINE
  5
42B
330
1F
100
AcDbEntity
  8
0-B_寸法
  6
Continuous
 62
   120
370
     5
100
AcDbLine
 10
-2098.333601271234
 20
2216.962168973781
 30
0.0
 11
-2098.333601271231
 21
2756.962168973781
 31
0.0
  0
MTEXT
  5
42C
330
1F
100
AcDbEntity
  8
0-B_寸法
  6
Continuous
 62
     7
370
     0
100
AcDbMText
 10
-2113.333601271234
 20
2436.682168973781
 30
0.0
 40
91.44
 41
120.0
 46
0.0
 71
     7
 72
     1
  1
{\fＭＳ ゴシック|b0|i0|c128|p49;90}
 11
6.123031769111886E-17
 21
1.0
 31
0.0
 73
     1
 44
1.0
  0
LINE
  5
42D
330
1F
100
AcDbEntity
  8
0-B_寸法
  6
Continuous
 62
   120
370
     5
100
AcDbLine
 10
-2098.333601271231
 20
2756.962168973781
 30
0.0
 11
-2218.333601271233
 21
2756.962168973781
 31
0.0
  0
LINE
  5
42E
330
1F
100
AcDbEntity
  8
0-B_寸法
  6
Continuous
 62
   120
370
     5
100
AcDbLine
 10
-2098.333601271234
 20
2216.962168973781
 30
0.0
 11
-2218.333601271233
 21
2216.962168973781
 31
0.0
  0
LINE
  5
42F
330
1F
100
AcDbEntity
  8
0-3_仕上げ
  6
Continuous
 62
    40
370
    15
100
AcDbLine
 10
2806.589336672863
 20
2696.962218538529
 30
0.0
 11
2446.128892181178
 21
2696.962218538529
 31
0.0
  0
LINE
  5
430
330
1F
100
AcDbEntity
  8
0-3_仕上げ
  6
Continuous
 62
    40
370
    15
100
AcDbLine
 10
2806.589336672863
 20
2276.962218538522
 30
0.0
 11
1162.070193269253
 21
2276.962218538522
 31
0.0
  0
LINE
  5
431
330
1F
100
AcDbEntity
  8
0-3_仕上げ
  6
Continuous
 62
    40
370
    15
100
AcDbLine
 10
2806.589336672863
 20
2351.962218538522
 30
0.0
 11
1162.070193269253
 21
2351.962218538522
 31
0.0
  0
LINE
  5
432
330
1F
100
AcDbEntity
  8
0-3_仕上げ
  6
Continuous
 62
    40
370
    15
100
AcDbLine
 10
2806.589336672863
 20
2621.962218538529
 30
0.0
 11
2446.128892181178
 21
2621.962218538529
 31
0.0
  0
LINE
  5
433
330
1F
100
AcDbEntity
  8
0-C_ハッチ
  6
JWW_DASHED1
 62
   120
370
     5
100
AcDbLine
 10
2806.589336672863
 20
2662.066321464849
 30
0.0
 11
2766.485233746547
 21
2621.962218538533
 31
0.0
  0
LINE
  5
434
330
1F
100
AcDbEntity
  8
0-C_ハッチ
  6
JWW_DASHED1
 62
   120
370
     5
100
AcDbLine
 10
2806.589336672863
 20
2340.922118138068
 30
0.0
 11
2742.629437073311
 21
2276.962218538516
 31
0.0
  0
LINE
  5
435
330
1F
100
AcDbEntity
  8
0-C_ハッチ
  6
JWW_DASHED1
 62
   120
370
     5
100
AcDbLine
 10
2806.589336672863
 20
2298.495711266923
 30
0.0
 11
2785.055843944481
 21
2276.962218538541
 31
0.0
  0
LINE
  5
436
330
1F
100
AcDbEntity
  8
0-3_仕上げ
  6
Continuous
 62
    40
370
    15
100
AcDbLine
 10
-2426.291076116347
 20
2696.962168973786
 30
0.0
 11
-2786.290927338522
 21
2696.962168973786
 31
0.0
  0
LINE
  5
437
330
1F
100
AcDbEntity
  8
0-3_仕上げ
  6
Continuous
 62
    40
370
    15
100
AcDbLine
 10
-2426.291076116347
 20
2276.962168973792
 30
0.0
 11
-2786.290927338522
 21
2276.962168973792
 31
0.0
  0
LINE
  5
438
330
1F
100
AcDbEntity
  8
0-1_通り芯
  6
JWW_CENTER1
 62
   120
370
     5
100
AcDbLine
 10
-2786.290927338522
 20
2486.962168973789
 30
0.0
 11
2806.589336672863
 21
2486.962168973789
 31
0.0
  0
LINE
  5
439
330
1F
100
AcDbEntity
  8
0-3_仕上げ
  6
Continuous
 62
    40
370
    15
100
AcDbLine
 10
-2426.291076116347
 20
2351.962168973792
 30
0.0
 11
-2786.290927338522
 21
2351.962168973792
 31
0.0
  0
LINE
  5
43A
330
1F
100
AcDbEntity
  8
0-3_仕上げ
  6
Continuous
 62
    40
370
    15
100
AcDbLine
 10
-2426.291076116347
 20
2621.962168973786
 30
0.0
 11
-2786.290927338522
 21
2621.962168973786
 31
0.0
  0
LINE
  5
43B
330
1F
100
AcDbEntity
  8
0-C_ハッチ
  6
JWW_DASHED1
 62
   120
370
     5
100
AcDbLine
 10
-2786.290927338522
 20
2306.759869416086
 30
0.0
 11
-2741.088627780814
 21
2351.962168973796
 31
0.0
  0
LINE
  5
43C
330
1F
100
AcDbEntity
  8
0-C_ハッチ
  6
JWW_DASHED1
 62
   120
370
     5
100
AcDbLine
 10
-2786.290927338522
 20
2625.582379355172
 30
0.0
 11
-2714.911137719905
 21
2696.962168973792
 31
0.0
  0
LINE
  5
43D
330
1F
100
AcDbEntity
  8
0-C_ハッチ
  6
JWW_DASHED1
 62
   120
370
     5
100
AcDbLine
 10
-2786.290927338522
 20
2668.008786226372
 30
0.0
 11
-2757.337544591098
 21
2696.962168973796
 31
0.0
  0
LWPOLYLINE
  5
43E
330
1F
100
AcDbEntity
  8
0-B_寸法
  6
Continuous
 62
     7
370
     9
100
AcDbPolyline
 90
        4
 70
     1
 43
3.0
 10
-3204.790927338543
 20
2696.962168973793
 42
0.4142135623731
 10
-3206.290927338543
 20
2698.462168973793
 42
0.4142135623731
 10
-3207.790927338543
 20
2696.962168973793
 42
0.4142135623731
 10
-3206.290927338543
 20
2695.462168973794
 42
0.4142135623731
  0
LWPOLYLINE
  5
43F
330
1F
100
AcDbEntity
  8
0-B_寸法
  6
Continuous
 62
     7
370
     9
100
AcDbPolyline
 90
        4
 70
     1
 43
3.0
 10
-3204.790927338543
 20
2276.962168973788
 42
0.4142135623731
 10
-3206.290927338543
 20
2278.462168973788
 42
0.4142135623731
 10
-3207.790927338543
 20
2276.962168973788
 42
0.4142135623731
 10
-3206.290927338543
 20
2275.462168973788
 42
0.4142135623731
  0
LINE
  5
440
330
1F
100
AcDbEntity
  8
0-B_寸法
  6
Continuous
 62
   120
370
     5
100
AcDbLine
 10
-3206.290927338543
 20
2276.962168973788
 30
0.0
 11
-3206.290927338543
 21
2696.962168973793
 31
0.0
  0
LWPOLYLINE
  5
441
330
1F
100
AcDbEntity
  8
0-B_寸法
  6
Continuous
 62
     7
370
     9
100
AcDbPolyline
 90
        4
 70
     1
 43
3.0
 10
-3024.790927338543
 20
2276.962168973788
 42
0.4142135623731
 10
-3026.290927338543
 20
2278.462168973788
 42
0.4142135623731
 10
-3027.790927338543
 20
2276.962168973788
 42
0.4142135623731
 10
-3026.290927338543
 20
2275.462168973788
 42
0.4142135623731
  0
LINE
  5
442
330
1F
100
AcDbEntity
  8
0-B_寸法
  6
Continuous
 62
   120
370
     5
100
AcDbLine
 10
-3026.290927338543
 20
2351.962168973791
 30
0.0
 11
-3026.290927338543
 21
2276.962168973788
 31
0.0
  0
LWPOLYLINE
  5
443
330
1F
100
AcDbEntity
  8
0-B_寸法
  6
Continuous
 62
     7
370
     9
100
AcDbPolyline
 90
        4
 70
     1
 43
3.0
 10
-3024.790927338543
 20
2351.962168973791
 42
0.4142135623731
 10
-3026.290927338543
 20
2353.462168973791
 42
0.4142135623731
 10
-3027.790927338543
 20
2351.962168973791
 42
0.4142135623731
 10
-3026.290927338543
 20
2350.462168973791
 42
0.4142135623731
  0
LINE
  5
444
330
1F
100
AcDbEntity
  8
0-B_寸法
  6
Continuous
 62
   120
370
     5
100
AcDbLine
 10
-3026.290927338543
 20
2621.962168973795
 30
0.0
 11
-3026.290927338543
 21
2351.962168973791
 31
0.0
  0
LWPOLYLINE
  5
445
330
1F
100
AcDbEntity
  8
0-B_寸法
  6
Continuous
 62
     7
370
     9
100
AcDbPolyline
 90
        4
 70
     1
 43
3.0
 10
-3024.790927338543
 20
2621.962168973795
 42
0.4142135623731
 10
-3026.290927338543
 20
2623.462168973795
 42
0.4142135623731
 10
-3027.790927338543
 20
2621.962168973795
 42
0.4142135623731
 10
-3026.290927338543
 20
2620.462168973795
 42
0.4142135623731
  0
LWPOLYLINE
  5
446
330
1F
100
AcDbEntity
  8
0-B_寸法
  6
Continuous
 62
     7
370
     9
100
AcDbPolyline
 90
        4
 70
     1
 43
3.0
 10
-3024.790927338543
 20
2696.962168973795
 42
0.4142135623731
 10
-3026.290927338543
 20
2698.462168973795
 42
0.4142135623731
 10
-3027.790927338543
 20
2696.962168973795
 42
0.4142135623731
 10
-3026.290927338543
 20
2695.462168973795
 42
0.4142135623731
  0
LINE
  5
447
330
1F
100
AcDbEntity
  8
0-B_寸法
  6
Continuous
 62
   120
370
     5
100
AcDbLine
 10
-3026.290927338543
 20
2696.962168973795
 30
0.0
 11
-3026.290927338543
 21
2621.962168973795
 31
0.0
  0
LINE
  5
448
330
1F
100
AcDbEntity
  8
0-B_寸法
  6
Continuous
 62
   120
370
     5
100
AcDbLine
 10
-3206.290927338543
 20
2696.962168973793
 30
0.0
 11
-2846.290927338543
 21
2696.962168973793
 31
0.0
  0
LINE
  5
449
330
1F
100
AcDbEntity
  8
0-B_寸法
  6
Continuous
 62
   120
370
     5
100
AcDbLine
 10
-3206.290927338543
 20
2276.962168973788
 30
0.0
 11
-2846.290927338543
 21
2276.962168973788
 31
0.0
  0
LINE
  5
44A
330
1F
100
AcDbEntity
  8
0-B_寸法
  6
Continuous
 62
   120
370
     5
100
AcDbLine
 10
-3026.290927338543
 20
2351.962168973791
 30
0.0
 11
-2846.290927338543
 21
2351.962168973791
 31
0.0
  0
LINE
  5
44B
330
1F
100
AcDbEntity
  8
0-B_寸法
  6
Continuous
 62
   120
370
     5
100
AcDbLine
 10
-3026.290927338543
 20
2621.962168973795
 30
0.0
 11
-2846.290927338543
 21
2621.962168973795
 31
0.0
  0
MTEXT
  5
44C
330
1F
100
AcDbEntity
  8
0-B_寸法
  6
Continuous
 62
     7
370
   211
100
AcDbMText
 10
-3221.290927338543
 20
2412.682168973791
 30
0.0
 40
91.44
 41
120.0
 46
0.0
 71
     7
 72
     1
  1
{\fＭＳ ゴシック|b0|i0|c128|p49;70}
 11
6.123031769111886E-17
 21
1.0
 31
0.0
 73
     1
 44
1.0
  0
MTEXT
  5
44D
330
1F
100
AcDbEntity
  8
0-B_寸法
  6
Continuous
 62
     7
370
   211
100
AcDbMText
 10
-3041.290927338543
 20
2412.682168973793
 30
0.0
 40
91.44
 41
120.0
 46
0.0
 71
     7
 72
     1
  1
{\fＭＳ ゴシック|b0|i0|c128|p49;45}
 11
6.123031769111886E-17
 21
1.0
 31
0.0
 73
     1
 44
1.0
  0
MTEXT
  5
44E
330
1F
100
AcDbEntity
  8
0-B_寸法
  6
Continuous
 62
     7
370
   211
100
AcDbMText
 10
-3041.290927338543
 20
2004.682168973787
 30
0.0
 40
91.44
 41
240.0
 46
0.0
 71
     7
 72
     1
  1
{\fＭＳ ゴシック|b0|i0|c128|p49;12.5}
 11
6.123031769111886E-17
 21
1.0
 31
0.0
 73
     1
 44
1.0
  0
MTEXT
  5
44F
330
1F
100
AcDbEntity
  8
0-B_寸法
  6
Continuous
 62
     7
370
   211
100
AcDbMText
 10
-3041.290927338543
 20
2700.682168973795
 30
0.0
 40
91.44
 41
240.0
 46
0.0
 71
     7
 72
     1
  1
{\fＭＳ ゴシック|b0|i0|c128|p49;12.5}
 11
6.123031769111886E-17
 21
1.0
 31
0.0
 73
     1
 44
1.0
  0
MTEXT
  5
450
330
1F
100
AcDbEntity
  8
0-B_寸法
  6
Continuous
 62
     7
370
     0
100
AcDbMText
 10
-1473.686266479557
 20
2526.682217369344
 30
0.0
 40
91.43999999999997
 41
660.0
 46
0.0
 71
     7
 72
     1
  1
{\fＭＳ ゴシック|b0|i0|c128|p49;ＤＷ＝1,158}
 73
     1
 44
1.0
  0
MTEXT
  5
451
330
1F
100
AcDbEntity
  8
0-B_寸法
  6
Continuous
 62
     7
370
   211
100
AcDbMText
 10
-1988.186266479554
 20
1473.096379332496
 30
0.0
 40
102.2684210526316
 41
1275.0
 46
0.0
 71
     7
 72
     1
  1
{\fＭＳ ゴシック|b0|i0|c128|p49;有効開口寸法＝1,000}
 73
     1
 44
1.0
  0
MTEXT
  5
452
330
1F
100
AcDbEntity
  8
0-B_寸法
  6
Continuous
 62
     7
370
   211
100
AcDbMText
 10
1205.523352166184
 20
1472.25416880618
 30
0.0
 40
100.584
 41
330.0
 46
0.0
 71
     7
 72
     1
  1
{\fＭＳ ゴシック|b0|i0|c128|p49;1,000}
 73
     1
 44
1.0
  0
MTEXT
  5
453
330
1F
100
AcDbEntity
  8
0-B_寸法
  6
Continuous
 62
     7
370
   211
100
AcDbMText
 10
-217.2671013008991
 20
1262.877623351635
 30
0.0
 40
101.8309090909091
 41
735.0
 46
0.0
 71
     7
 72
     1
  1
{\fＭＳ ゴシック|b0|i0|c128|p49;枠内＝2,155}
 73
     1
 44
1.0
  0
MTEXT
  5
454
330
1F
100
AcDbEntity
  8
0-B_寸法
  6
Continuous
 62
     7
370
   211
100
AcDbMText
 10
-217.2671013008991
 20
1052.877623351635
 30
0.0
 40
101.8309090909091
 41
735.0
 46
0.0
 71
     7
 72
     1
  1
{\fＭＳ ゴシック|b0|i0|c128|p49;枠外＝2,215}
 73
     1
 44
1.0
  0
LINE
  5
455
330
1F
100
AcDbEntity
  8
1-4_枠
  6
JWW_CENTER1
 62
   120
370
     5
100
AcDbLine
 10
2552.165823330657
 20
-2298.723992660482
 30
0.0
 11
2552.165823330657
 21
-2748.723992660482
 31
0.0
  0
LINE
  5
456
330
1F
100
AcDbEntity
  8
1-B_寸法
  6
Continuous
 62
   120
370
     5
100
AcDbLine
 10
2325.275887645074
 20
-2103.723992660482
 30
0.0
 11
2439.665823330657
 21
-2103.723992660482
 31
0.0
  0
LINE
  5
457
330
1F
100
AcDbEntity
  8
1-B_寸法
  6
Continuous
 62
   120
370
     5
100
AcDbLine
 10
2664.665823330657
 20
-2103.723992660482
 30
0.0
 11
2664.665823330657
 21
-2223.723992660482
 31
0.0
  0
LWPOLYLINE
  5
458
330
1F
100
AcDbEntity
  8
1-B_寸法
  6
Continuous
 62
     7
370
     9
100
AcDbPolyline
 90
        4
 70
     1
 43
3.0
 10
2666.165823330657
 20
-2103.723992660482
 42
0.4142135623731
 10
2664.665823330657
 20
-2102.223992660482
 42
0.4142135623731
 10
2663.165823330657
 20
-2103.723992660482
 42
0.4142135623731
 10
2664.665823330657
 20
-2105.223992660482
 42
0.4142135623731
  0
LINE
  5
459
330
1F
100
AcDbEntity
  8
1-B_寸法
  6
Continuous
 62
   120
370
     5
100
AcDbLine
 10
2439.665823330657
 20
-2103.723992660482
 30
0.0
 11
2664.665823330657
 21
-2103.723992660482
 31
0.0
  0
LINE
  5
45A
330
1F
100
AcDbEntity
  8
1-B_寸法
  6
Continuous
 62
   120
370
     5
100
AcDbLine
 10
2439.665823330657
 20
-2103.723992660482
 30
0.0
 11
2439.665823330657
 21
-2223.723992660482
 31
0.0
  0
LINE
  5
45B
330
1F
100
AcDbEntity
  8
1-B_寸法
  6
Continuous
 62
   120
370
     5
100
AcDbLine
 10
2394.665823330657
 20
-2103.723992660482
 30
0.0
 11
2394.665823330657
 21
-2223.723992660482
 31
0.0
  0
LWPOLYLINE
  5
45C
330
1F
100
AcDbEntity
  8
1-B_寸法
  6
Continuous
 62
     7
370
     9
100
AcDbPolyline
 90
        4
 70
     1
 43
3.0
 10
2441.165823330657
 20
-2103.723992660482
 42
0.4142135623731
 10
2439.665823330657
 20
-2102.223992660482
 42
0.4142135623731
 10
2438.165823330657
 20
-2103.723992660482
 42
0.4142135623731
 10
2439.665823330657
 20
-2105.223992660482
 42
0.4142135623731
  0
LWPOLYLINE
  5
45D
330
1F
100
AcDbEntity
  8
1-B_寸法
  6
Continuous
 62
     7
370
     9
100
AcDbPolyline
 90
        4
 70
     1
 43
3.0
 10
2396.165823330657
 20
-2103.723992660482
 42
0.4142135623731
 10
2394.665823330657
 20
-2102.223992660482
 42
0.4142135623731
 10
2393.165823330657
 20
-2103.723992660482
 42
0.4142135623731
 10
2394.665823330657
 20
-2105.223992660482
 42
0.4142135623731
  0
LINE
  5
45E
330
1F
100
AcDbEntity
  8
1-B_寸法
  6
Continuous
 62
   120
370
     5
100
AcDbLine
 10
2394.665823330657
 20
-2001.076751130468
 30
0.0
 11
2394.665823330657
 21
-2103.723992660482
 31
0.0
  0
LWPOLYLINE
  5
45F
330
1F
100
AcDbEntity
  8
1-B_寸法
  6
Continuous
 62
     7
370
     9
100
AcDbPolyline
 90
        4
 70
     1
 43
3.0
 10
2396.165823330657
 20
-2001.076751130468
 42
0.4142135623731
 10
2394.665823330657
 20
-1999.576751130468
 42
0.4142135623731
 10
2393.165823330657
 20
-2001.076751130468
 42
0.4142135623731
 10
2394.665823330657
 20
-2002.576751130468
 42
0.4142135623731
  0
LINE
  5
460
330
1F
100
AcDbEntity
  8
1-B_寸法
  6
Continuous
 62
   120
370
     5
100
AcDbLine
 10
2394.665823330657
 20
-2001.076751130468
 30
0.0
 11
2664.665823330657
 21
-2001.076751130468
 31
0.0
  0
LINE
  5
461
330
1F
100
AcDbEntity
  8
1-B_寸法
  6
Continuous
 62
   120
370
     5
100
AcDbLine
 10
2664.665823330657
 20
-2001.076751130468
 30
0.0
 11
2664.665823330657
 21
-2103.723992660482
 31
0.0
  0
LWPOLYLINE
  5
462
330
1F
100
AcDbEntity
  8
1-B_寸法
  6
Continuous
 62
     7
370
     9
100
AcDbPolyline
 90
        4
 70
     1
 43
3.0
 10
2666.165823330657
 20
-2001.076751130468
 42
0.4142135623731
 10
2664.665823330657
 20
-1999.576751130468
 42
0.4142135623731
 10
2663.165823330657
 20
-2001.076751130468
 42
0.4142135623731
 10
2664.665823330657
 20
-2002.576751130468
 42
0.4142135623731
  0
LINE
  5
463
330
1F
100
AcDbEntity
  8
1-B_寸法
  6
Continuous
 62
   120
370
     5
100
AcDbLine
 10
2242.368626037992
 20
-2748.723992660482
 30
0.0
 11
2242.368626037992
 21
-2298.723992660482
 31
0.0
  0
LINE
  5
464
330
1F
100
AcDbEntity
  8
1-B_寸法
  6
Continuous
 62
   120
370
     5
100
AcDbLine
 10
2242.368626037992
 20
-2298.723992660482
 30
0.0
 11
2339.441507414136
 21
-2298.723992660482
 31
0.0
  0
LWPOLYLINE
  5
465
330
1F
100
AcDbEntity
  8
1-B_寸法
  6
Continuous
 62
     7
370
     9
100
AcDbPolyline
 90
        4
 70
     1
 43
3.0
 10
2243.868626037992
 20
-2298.723992660482
 42
0.4142135623731
 10
2242.368626037992
 20
-2297.223992660482
 42
0.4142135623731
 10
2240.868626037992
 20
-2298.723992660482
 42
0.4142135623731
 10
2242.368626037992
 20
-2300.223992660482
 42
0.4142135623731
  0
LINE
  5
466
330
1F
100
AcDbEntity
  8
1-7_金物
  6
Continuous
 62
     7
370
     9
100
AcDbLine
 10
2529.665823330657
 20
-2598.723992660482
 30
0.0
 11
2574.665823330657
 21
-2598.723992660482
 31
0.0
  0
LINE
  5
467
330
1F
100
AcDbEntity
  8
1-7_金物
  6
Continuous
 62
     7
370
     9
100
AcDbLine
 10
2574.665823330657
 20
-2628.723992660482
 30
0.0
 11
2529.665823330657
 21
-2628.723992660482
 31
0.0
  0
LINE
  5
468
330
1F
100
AcDbEntity
  8
1-7_金物
  6
Continuous
 62
     7
370
     9
100
AcDbLine
 10
2529.665823330657
 20
-2688.723992660482
 30
0.0
 11
2574.665823330657
 21
-2688.723992660482
 31
0.0
  0
LINE
  5
469
330
1F
100
AcDbEntity
  8
1-7_金物
  6
Continuous
 62
     7
370
     9
100
AcDbLine
 10
2529.665823330657
 20
-2718.723992660482
 30
0.0
 11
2574.665823330657
 21
-2718.723992660482
 31
0.0
  0
LINE
  5
46A
330
1F
100
AcDbEntity
  8
1-7_金物
  6
Continuous
 62
     7
370
     9
100
AcDbLine
 10
2574.665823330657
 20
-2448.723992660482
 30
0.0
 11
2529.665823330657
 21
-2448.723992660482
 31
0.0
  0
LINE
  5
46B
330
1F
100
AcDbEntity
  8
1-7_金物
  6
Continuous
 62
     7
370
     9
100
AcDbLine
 10
2574.665823330657
 20
-2328.723992660482
 30
0.0
 11
2529.665823330657
 21
-2328.723992660482
 31
0.0
  0
LINE
  5
46C
330
1F
100
AcDbEntity
  8
1-7_金物
  6
Continuous
 62
     7
370
     9
100
AcDbLine
 10
2574.665823330657
 20
-2358.723992660482
 30
0.0
 11
2529.665823330657
 21
-2358.723992660482
 31
0.0
  0
LINE
  5
46D
330
1F
100
AcDbEntity
  8
1-7_金物
  6
Continuous
 62
     7
370
     9
100
AcDbLine
 10
2529.665823330657
 20
-2418.723992660482
 30
0.0
 11
2574.665823330657
 21
-2418.723992660482
 31
0.0
  0
ARC
  5
46E
330
1F
100
AcDbEntity
  8
1-7_金物
  6
Continuous
 62
     7
370
     9
100
AcDbCircle
 10
2529.665823330657
 20
-2658.723992660482
 30
0.0
 40
30.0
100
AcDbArc
 50
90.0
 51
270.0
  0
ARC
  5
46F
330
1F
100
AcDbEntity
  8
1-7_金物
  6
Continuous
 62
     7
370
     9
100
AcDbCircle
 10
2529.665823330657
 20
-2658.723992660482
 30
0.0
 40
60.0
100
AcDbArc
 50
90.0
 51
270.0
  0
ARC
  5
470
330
1F
100
AcDbEntity
  8
1-7_金物
  6
Continuous
 62
     7
370
     9
100
AcDbCircle
 10
2529.665823330657
 20
-2388.723992660482
 30
0.0
 40
30.0
100
AcDbArc
 50
90.0
 51
270.0
  0
ARC
  5
471
330
1F
100
AcDbEntity
  8
1-7_金物
  6
Continuous
 62
     7
370
     9
100
AcDbCircle
 10
2529.665823330657
 20
-2388.723992660482
 30
0.0
 40
60.0
100
AcDbArc
 50
90.0
 51
270.0
  0
ARC
  5
472
330
1F
100
AcDbEntity
  8
1-7_金物
  6
Continuous
 62
     7
370
     9
100
AcDbCircle
 10
2574.665823330657
 20
-2658.723992660482
 30
0.0
 40
30.0
100
AcDbArc
 50
270.0
 51
90.0
  0
ARC
  5
473
330
1F
100
AcDbEntity
  8
1-7_金物
  6
Continuous
 62
     7
370
     9
100
AcDbCircle
 10
2574.665823330657
 20
-2388.723992660482
 30
0.0
 40
30.0
100
AcDbArc
 50
270.0
 51
90.0
  0
ARC
  5
474
330
1F
100
AcDbEntity
  8
1-7_金物
  6
Continuous
 62
     7
370
     9
100
AcDbCircle
 10
2574.665823330657
 20
-2388.723992660482
 30
0.0
 40
60.0
100
AcDbArc
 50
270.0
 51
90.0
  0
ARC
  5
475
330
1F
100
AcDbEntity
  8
1-7_金物
  6
Continuous
 62
     7
370
     9
100
AcDbCircle
 10
2574.665823330657
 20
-2658.723992660482
 30
0.0
 40
60.0
100
AcDbArc
 50
270.0
 51
90.0
  0
LINE
  5
476
330
1F
100
AcDbEntity
  8
1-7_金物
  6
Continuous
 62
     7
370
     9
100
AcDbLine
 10
2469.665823330657
 20
-2298.723992660482
 30
0.0
 11
2634.665823330657
 21
-2298.723992660482
 31
0.0
  0
LINE
  5
477
330
1F
100
AcDbEntity
  8
1-7_金物
  6
Continuous
 62
     7
370
     9
100
AcDbLine
 10
2634.665823330657
 20
-2748.723992660482
 30
0.0
 11
2469.665823330657
 21
-2748.723992660482
 31
0.0
  0
ARC
  5
478
330
1F
100
AcDbEntity
  8
1-7_金物
  6
Continuous
 62
     7
370
     9
100
AcDbCircle
 10
2634.665823330657
 20
-2718.723992660482
 30
0.0
 40
30.0
100
AcDbArc
 50
270.0
 51
0.0
  0
LINE
  5
479
330
1F
100
AcDbEntity
  8
1-7_金物
  6
Continuous
 62
     7
370
     9
100
AcDbLine
 10
2664.665823330657
 20
-2718.723992660482
 30
0.0
 11
2664.665823330657
 21
-2328.723992660482
 31
0.0
  0
ARC
  5
47A
330
1F
100
AcDbEntity
  8
1-7_金物
  6
Continuous
 62
     7
370
     9
100
AcDbCircle
 10
2634.665823330657
 20
-2328.723992660482
 30
0.0
 40
30.0
100
AcDbArc
 50
0.0
 51
90.0
  0
ARC
  5
47B
330
1F
100
AcDbEntity
  8
1-7_金物
  6
Continuous
 62
     7
370
     9
100
AcDbCircle
 10
2469.665823330657
 20
-2718.723992660482
 30
0.0
 40
30.0
100
AcDbArc
 50
180.0
 51
270.0
  0
LINE
  5
47C
330
1F
100
AcDbEntity
  8
1-7_金物
  6
Continuous
 62
     7
370
     9
100
AcDbLine
 10
2439.665823330657
 20
-2718.723992660482
 30
0.0
 11
2439.665823330657
 21
-2328.723992660482
 31
0.0
  0
ARC
  5
47D
330
1F
100
AcDbEntity
  8
1-7_金物
  6
Continuous
 62
     7
370
     9
100
AcDbCircle
 10
2469.665823330657
 20
-2328.723992660482
 30
0.0
 40
30.0
100
AcDbArc
 50
90.0
 51
180.0
  0
ARC
  5
47E
330
1F
100
AcDbEntity
  8
1-7_金物
  6
Continuous
 62
     7
370
     9
100
AcDbCircle
 10
2432.165823330657
 20
-2441.223992660482
 30
0.0
 40
7.5
100
AcDbArc
 50
0.0
 51
90.0
  0
LINE
  5
47F
330
1F
100
AcDbEntity
  8
1-7_金物
  6
Continuous
 62
     7
370
     9
100
AcDbLine
 10
2432.165823330657
 20
-2433.723992660482
 30
0.0
 11
2402.165823330657
 21
-2433.723992660482
 31
0.0
  0
ARC
  5
480
330
1F
100
AcDbEntity
  8
1-7_金物
  6
Continuous
 62
     7
370
     9
100
AcDbCircle
 10
2432.165823330657
 20
-2606.223992660482
 30
0.0
 40
7.5
100
AcDbArc
 50
270.0
 51
0.0
  0
LINE
  5
481
330
1F
100
AcDbEntity
  8
1-7_金物
  6
Continuous
 62
     7
370
     9
100
AcDbLine
 10
2432.165823330657
 20
-2613.723992660482
 30
0.0
 11
2402.165823330657
 21
-2613.723992660482
 31
0.0
  0
ARC
  5
482
330
1F
100
AcDbEntity
  8
1-7_金物
  6
Continuous
 62
     7
370
     9
100
AcDbCircle
 10
2402.165823330657
 20
-2606.223992660482
 30
0.0
 40
7.5
100
AcDbArc
 50
180.0
 51
270.0
  0
LINE
  5
483
330
1F
100
AcDbEntity
  8
1-7_金物
  6
Continuous
 62
     7
370
     9
100
AcDbLine
 10
2394.665823330657
 20
-2606.223992660482
 30
0.0
 11
2394.665823330657
 21
-2441.223992660482
 31
0.0
  0
ARC
  5
484
330
1F
100
AcDbEntity
  8
1-7_金物
  6
Continuous
 62
     7
370
     9
100
AcDbCircle
 10
2402.165823330657
 20
-2441.223992660482
 30
0.0
 40
7.5
100
AcDbArc
 50
90.0
 51
180.0
  0
LINE
  5
485
330
1F
100
AcDbEntity
  8
1-B_寸法
  6
Continuous
 62
   120
370
     5
100
AcDbLine
 10
2242.368626037992
 20
-2748.723992660482
 30
0.0
 11
2339.441507414136
 21
-2748.723992660482
 31
0.0
  0
LWPOLYLINE
  5
486
330
1F
100
AcDbEntity
  8
1-B_寸法
  6
Continuous
 62
     7
370
     9
100
AcDbPolyline
 90
        4
 70
     1
 43
3.0
 10
2243.868626037992
 20
-2748.723992660482
 42
0.4142135623731
 10
2242.368626037992
 20
-2747.223992660482
 42
0.4142135623731
 10
2240.868626037992
 20
-2748.723992660482
 42
0.4142135623731
 10
2242.368626037992
 20
-2750.223992660482
 42
0.4142135623731
  0
LWPOLYLINE
  5
487
330
1F
100
AcDbEntity
  8
1-B_寸法
  6
Continuous
 62
     7
370
     9
100
AcDbPolyline
 90
        4
 70
     1
 43
3.0
 10
2666.165823330657
 20
-2943.820128729996
 42
0.4142135623731
 10
2664.665823330657
 20
-2942.320128729996
 42
0.4142135623731
 10
2663.165823330657
 20
-2943.820128729996
 42
0.4142135623731
 10
2664.665823330657
 20
-2945.320128729996
 42
0.4142135623731
  0
LINE
  5
488
330
1F
100
AcDbEntity
  8
1-B_寸法
  6
Continuous
 62
   120
370
     5
100
AcDbLine
 10
2664.665823330657
 20
-2823.723992660482
 30
0.0
 11
2664.665823330657
 21
-2943.820128729996
 31
0.0
  0
LINE
  5
489
330
1F
100
AcDbEntity
  8
0-A_文字
  6
Continuous
 62
   120
370
     5
100
AcDbLine
 10
2592.109135047681
 20
-2402.29550153533
 30
0.0
 11
2719.452451742078
 21
-2214.092492160057
 31
0.0
  0
MTEXT
  5
48A
330
1F
100
AcDbEntity
  8
1-A_文字
  6
Continuous
 62
     7
370
     9
100
AcDbMText
 10
2715.878383022591
 20
-2215.808008604608
 30
0.0
 40
68.58
 41
810.0
 46
0.0
 71
     7
 72
     1
  1
{\fＭＳ ゴシック|b0|i0|c128|p49;振れ止め金具(床用)}
 73
     1
 44
1.0
  0
MTEXT
  5
48B
330
1F
100
AcDbEntity
  8
1-B_寸法
  6
Continuous
 62
     7
370
   211
100
AcDbMText
 10
2469.665823330657
 20
-2000.356751130468
 30
0.0
 40
91.44
 41
120.0
 46
0.0
 71
     7
 72
     1
  1
{\fＭＳ ゴシック|b0|i0|c128|p49;18}
 73
     1
 44
1.0
  0
MTEXT
  5
48C
330
1F
100
AcDbEntity
  8
1-B_寸法
  6
Continuous
 62
     7
370
   211
100
AcDbMText
 10
2325.275887645074
 20
-2253.003992660482
 30
0.0
 40
91.44
 41
60.0
 46
0.0
 71
     7
 72
     1
  1
{\fＭＳ ゴシック|b0|i0|c128|p49;3}
 73
     1
 44
1.0
  0
MTEXT
  5
48D
330
1F
100
AcDbEntity
  8
1-B_寸法
  6
Continuous
 62
     7
370
   211
100
AcDbMText
 10
2503.415823330657
 20
-2253.003992660482
 30
0.0
 40
91.44
 41
120.0
 46
0.0
 71
     7
 72
     1
  1
{\fＭＳ ゴシック|b0|i0|c128|p49;15}
 73
     1
 44
1.0
  0
MTEXT
  5
48E
330
1F
100
AcDbEntity
  8
1-B_寸法
  6
Continuous
 62
     7
370
   211
100
AcDbMText
 10
2227.368626037992
 20
-2598.003992660482
 30
0.0
 40
91.44
 41
120.0
 46
0.0
 71
     7
 72
     1
  1
{\fＭＳ ゴシック|b0|i0|c128|p49;30}
 11
6.123031769111886E-17
 21
1.0
 31
0.0
 73
     1
 44
1.0
  0
LINE
  5
48F
330
1F
100
AcDbEntity
  8
0-7_金物
  6
Continuous
 62
     7
370
     9
100
AcDbLine
 10
3774.11843475745
 20
-3017.033277609486
 30
0.0
 11
1764.967020447968
 21
-3017.033277609486
 31
0.0
  0
LINE
  5
490
330
1F
100
AcDbEntity
  8
0-7_金物
  6
Continuous
 62
     7
370
     9
100
AcDbLine
 10
1764.967020447968
 20
-3017.033277609486
 30
0.0
 11
1764.967020447968
 21
-1756.323177943122
 31
0.0
  0
LINE
  5
491
330
1F
100
AcDbEntity
  8
0-7_金物
  6
Continuous
 62
     7
370
     9
100
AcDbLine
 10
3774.11843475745
 20
-1756.323177943122
 30
0.0
 11
3774.11843475745
 21
-3017.033277609486
 31
0.0
  0
LINE
  5
492
330
1F
100
AcDbEntity
  8
0-7_金物
  6
Continuous
 62
     7
370
     9
100
AcDbLine
 10
1764.967020447968
 20
-1756.323177943122
 30
0.0
 11
3774.11843475745
 21
-1756.323177943122
 31
0.0
  0
LINE
  5
493
330
1F
100
AcDbEntity
  8
0-6_扉
  6
Continuous
 62
    40
370
    15
100
AcDbLine
 10
2982.963826092129
 20
-1079.820062243471
 30
0.0
 11
3555.72031885323
 21
-749.1389469677434
 31
0.0
  0
LINE
  5
494
330
1F
100
AcDbEntity
  8
0-B_寸法
  6
JWW_CENTER1
 62
   120
370
     5
100
AcDbLine
 10
2982.963826092129
 20
-1079.820062243471
 30
0.0
 11
3145.5999201837
 21
-1173.718054947189
 31
0.0
  0
LWPOLYLINE
  5
495
330
1F
100
AcDbEntity
  8
0-B_寸法
  6
Continuous
 62
     7
370
     9
100
AcDbPolyline
 90
        4
 70
     1
 43
3.0
 10
3212.688358731654
 20
-1211.585557598577
 42
0.4142135623731
 10
3211.188358731654
 20
-1210.085557598577
 42
0.4142135623731
 10
3209.688358731654
 20
-1211.585557598577
 42
0.4142135623731
 10
3211.188358731654
 20
-1213.085557598577
 42
0.4142135623731
  0
LINE
  5
496
330
1F
100
AcDbEntity
  8
0-B_寸法
  6
Continuous
 62
   120
370
     5
100
AcDbLine
 10
3211.188358731654
 20
-1211.585557598577
 30
0.0
 11
3157.36211840666
 21
-1180.508963257476
 31
0.0
  0
LWPOLYLINE
  5
497
330
1F
100
AcDbEntity
  8
0-B_寸法
  6
Continuous
 62
     7
370
     9
100
AcDbPolyline
 90
        4
 70
     1
 43
3.0
 10
3126.922284132132
 20
-1261.102623879595
 42
0.4142135623731
 10
3125.422284132132
 20
-1259.602623879595
 42
0.4142135623731
 10
3123.922284132132
 20
-1261.102623879595
 42
0.4142135623731
 10
3125.422284132132
 20
-1262.602623879595
 42
0.4142135623731
  0
LINE
  5
498
330
1F
100
AcDbEntity
  8
0-B_寸法
  6
Continuous
 62
   120
370
     5
100
AcDbLine
 10
3211.188358741891
 20
-1211.585557616311
 30
0.0
 11
3125.422284132132
 21
-1261.102623879594
 31
0.0
  0
LINE
  5
499
330
1F
100
AcDbEntity
  8
0-B_寸法
  6
Continuous
 62
   120
370
     5
100
AcDbLine
 10
3073.578843345234
 20
-1231.170799385562
 30
0.0
 11
3125.422284132132
 21
-1261.102623879595
 31
0.0
  0
LWPOLYLINE
  5
49A
330
1F
100
AcDbEntity
  8
0-B_寸法
  6
Continuous
 62
     7
370
     9
100
AcDbPolyline
 90
        4
 70
     1
 43
3.0
 10
2486.850644726732
 20
-1367.117246356136
 42
0.4142135623731
 10
2485.350644726732
 20
-1365.617246356136
 42
0.4142135623731
 10
2483.850644726732
 20
-1367.117246356136
 42
0.4142135623731
 10
2485.350644726732
 20
-1368.617246356136
 42
0.4142135623731
  0
LINE
  5
49B
330
1F
100
AcDbEntity
  8
0-B_寸法
  6
JWW_CENTER1
 62
   120
370
     5
100
AcDbLine
 10
2982.963826092129
 20
-1079.820062243471
 30
0.0
 11
2566.175954973761
 21
-1320.452651828634
 31
0.0
  0
LINE
  5
49C
330
1F
100
AcDbEntity
  8
0-B_寸法
  6
Continuous
 62
   120
370
     5
100
AcDbLine
 10
2548.09520402017
 20
-1330.891658157884
 30
0.0
 11
2485.350644726732
 21
-1367.117246356136
 31
0.0
  0
LINE
  5
49D
330
1F
100
AcDbEntity
  8
0-0_補助線
  6
JWW_HOJO
 62
   120
370
     5
100
AcDbLine
 10
2727.492123987357
 20
-1068.099884943087
 30
0.0
 11
2748.705327422953
 21
-1117.08967979875
 31
0.0
  0
LINE
  5
49E
330
1F
100
AcDbEntity
  8
0-0_補助線
  6
JWW_HOJO
 62
   120
370
     5
100
AcDbLine
 10
2754.91853085855
 20
-1114.337128512666
 30
0.0
 11
2739.91853085855
 21
-1062.594782370919
 31
0.0
  0
LINE
  5
49F
330
1F
100
AcDbEntity
  8
0-0_補助線
  6
JWW_HOJO
 62
   120
370
     5
100
AcDbLine
 10
2754.389388152397
 20
-1059.134130221406
 30
0.0
 11
2762.153959505473
 21
-1112.60680243791
 31
0.0
  0
LINE
  5
4A0
330
1F
100
AcDbEntity
  8
0-0_補助線
  6
JWW_HOJO
 62
   120
370
     5
100
AcDbLine
 10
2769.91853085855
 20
-1112.016620436978
 30
0.0
 11
2769.91853085855
 21
-1057.953766219541
 31
0.0
  0
LINE
  5
4A1
330
1F
100
AcDbEntity
  8
0-0_補助線
  6
JWW_HOJO
 62
   120
370
     5
100
AcDbLine
 10
2785.4476735647
 20
-1059.134130221406
 30
0.0
 11
2777.683102211626
 21
-1112.60680243791
 31
0.0
  0
LINE
  5
4A2
330
1F
100
AcDbEntity
  8
0-0_補助線
  6
JWW_HOJO
 62
   120
370
     5
100
AcDbLine
 10
2784.91853085855
 20
-1114.337128512666
 30
0.0
 11
2799.91853085855
 21
-1062.594782370919
 31
0.0
  0
LINE
  5
4A3
330
1F
100
AcDbEntity
  8
0-0_補助線
  6
JWW_HOJO
 62
   120
370
     5
100
AcDbLine
 10
2812.344937729743
 20
-1068.099884943087
 30
0.0
 11
2791.131734294146
 21
-1117.08967979875
 31
0.0
  0
LINE
  5
4A4
330
1F
100
AcDbEntity
  8
0-0_補助線
  6
JWW_HOJO
 62
   120
370
     5
100
AcDbLine
 10
2795.899292972082
 20
-1120.676874474822
 30
0.0
 11
2821.880055085618
 21
-1075.27427429523
 31
0.0
  0
LINE
  5
4A5
330
1F
100
AcDbEntity
  8
0-0_補助線
  6
JWW_HOJO
 62
   120
370
     5
100
AcDbLine
 10
2827.874080435895
 20
-1083.629027649238
 30
0.0
 11
2798.896305647221
 21
-1124.854251151826
 31
0.0
  0
LINE
  5
4A6
330
1F
100
AcDbEntity
  8
0-0_補助線
  6
JWW_HOJO
 62
   120
370
     5
100
AcDbLine
 10
2695.672318833962
 20
-1086.471058013961
 30
0.0
 11
2716.88552226956
 21
-1135.460852869624
 31
0.0
  0
LINE
  5
4A7
330
1F
100
AcDbEntity
  8
0-0_補助線
  6
JWW_HOJO
 62
   120
370
     5
100
AcDbLine
 10
2638.999699938182
 20
-982.3677439456761
 30
0.0
 11
2637.336009386073
 21
-984.4053404169539
 31
0.0
  0
LINE
  5
4A8
330
1F
100
AcDbEntity
  8
0-0_補助線
  6
JWW_HOJO
 62
   120
370
     5
100
AcDbLine
 10
2678.098725705155
 20
-1110.965955441793
 30
0.0
 11
2697.152783060702
 21
-1136.286762307275
 31
0.0
  0
LINE
  5
4A9
330
1F
100
AcDbEntity
  8
0-0_補助線
  6
JWW_HOJO
 62
   120
370
     5
100
AcDbLine
 10
2702.744931031653
 20
-1138.954698430025
 30
0.0
 11
2680.143176127811
 21
-1102.000200720113
 31
0.0
  0
LINE
  5
4AA
330
1F
100
AcDbEntity
  8
0-0_補助線
  6
JWW_HOJO
 62
   120
370
     5
100
AcDbLine
 10
2827.874080435895
 20
-1101.560537092599
 30
0.0
 11
2816.71951863654
 21
-1114.271709759308
 31
0.0
  0
LINE
  5
4AB
330
1F
100
AcDbEntity
  8
0-0_補助線
  6
JWW_HOJO
 62
   120
370
     5
100
AcDbLine
 10
2807.754647107461
 20
-1119.739885325183
 30
0.0
 11
2829.918530858553
 21
-1092.594782370919
 31
0.0
  0
LINE
  5
4AC
330
1F
100
AcDbEntity
  8
0-0_補助線
  6
JWW_HOJO
 62
   120
370
     5
100
AcDbLine
 10
2711.58222141066
 20
-1114.027817620272
 30
0.0
 11
2796.435035153046
 21
-1163.017612475935
 31
0.0
  0
LINE
  5
4AD
330
1F
100
AcDbEntity
  8
0-0_補助線
  6
JWW_HOJO
 62
   120
370
     5
100
AcDbLine
 10
2812.344937729743
 20
-1104.842231084834
 30
0.0
 11
2695.672318833962
 21
-1172.203199011372
 31
0.0
  0
ELLIPSE
  5
4AE
330
1F
100
AcDbEntity
  8
0-7_金物
  6
Continuous
 62
     7
370
     9
100
AcDbEllipse
 10
2754.008628281853
 20
-758.1923912374853
 30
0.0
 11
28.25850499469571
 21
0.0
 31
0.0
210
0.0
220
0.0
230
1.0
 40
0.5
 41
0.0
 42
6.283185307179586
  0
LINE
  5
4AF
330
1F
100
AcDbEntity
  8
0-7_金物
  6
Continuous
 62
     7
370
     9
100
AcDbLine
 10
2730.097585594032
 20
-765.7224168369853
 30
0.0
 11
2741.042852971674
 21
-784.6801760374856
 31
0.0
  0
LINE
  5
4B0
330
1F
100
AcDbEntity
  8
0-7_金物
  6
Continuous
 62
     7
370
     9
100
AcDbLine
 10
2754.008628281853
 20
-980.392397787485
 30
0.0
 11
2741.042852971674
 21
-784.6801760374856
 31
0.0
  0
LINE
  5
4B1
330
1F
100
AcDbEntity
  8
0-7_金物
  6
Continuous
 62
     7
370
     9
100
AcDbLine
 10
2777.919670969671
 20
-765.7224168369853
 30
0.0
 11
2766.974403592032
 21
-784.6801760374856
 31
0.0
  0
LINE
  5
4B2
330
1F
100
AcDbEntity
  8
0-7_金物
  6
Continuous
 62
     7
370
     9
100
AcDbLine
 10
2754.008628281853
 20
-980.392397787485
 30
0.0
 11
2766.974403592032
 21
-784.6801760374856
 31
0.0
  0
LINE
  5
4B3
330
1F
100
AcDbEntity
  8
0-7_金物
  6
Continuous
 62
     7
370
     9
100
AcDbLine
 10
2766.348543156094
 20
-794.1272421397613
 30
0.0
 11
2742.560896515256
 21
-807.5943225131457
 31
0.0
  0
LINE
  5
4B4
330
1F
100
AcDbEntity
  8
0-7_金物
  6
Continuous
 62
     7
370
     9
100
AcDbLine
 10
2755.346572147459
 20
-960.1967704338952
 30
0.0
 11
2752.767418545131
 21
-961.6569261770118
 31
0.0
  0
LINE
  5
4B5
330
1F
100
AcDbEntity
  8
0-7_金物
  6
Continuous
 62
     7
370
     9
100
AcDbLine
 10
2765.701368390881
 20
-803.8960379217687
 30
0.0
 11
2743.161280164074
 21
-816.6568286110199
 31
0.0
  0
LINE
  5
4B6
330
1F
100
AcDbEntity
  8
0-7_金物
  6
Continuous
 62
     7
370
     9
100
AcDbLine
 10
2765.054193625669
 20
-813.6648337037777
 30
0.0
 11
2743.761663812887
 21
-825.7193347088948
 31
0.0
  0
LINE
  5
4B7
330
1F
100
AcDbEntity
  8
0-7_金物
  6
Continuous
 62
     7
370
     9
100
AcDbLine
 10
2764.407018860453
 20
-823.4336294857851
 30
0.0
 11
2744.362047461705
 21
-834.7818408067698
 31
0.0
  0
LINE
  5
4B8
330
1F
100
AcDbEntity
  8
0-7_金物
  6
Continuous
 62
     7
370
     9
100
AcDbLine
 10
2763.75984409524
 20
-833.2024252677925
 30
0.0
 11
2744.962431110522
 21
-843.844346904643
 31
0.0
  0
LINE
  5
4B9
330
1F
100
AcDbEntity
  8
0-7_金物
  6
Continuous
 62
     7
370
     9
100
AcDbLine
 10
2763.112669330024
 20
-842.9712210497999
 30
0.0
 11
2745.562814759336
 21
-852.9068530025179
 31
0.0
  0
LINE
  5
4BA
330
1F
100
AcDbEntity
  8
0-7_金物
  6
Continuous
 62
     7
370
     9
100
AcDbLine
 10
2762.465494564811
 20
-852.7400168318072
 30
0.0
 11
2746.163198408152
 21
-861.9693591003928
 31
0.0
  0
LINE
  5
4BB
330
1F
100
AcDbEntity
  8
0-7_金物
  6
Continuous
 62
     7
370
     9
100
AcDbLine
 10
2761.818319799599
 20
-862.5088126138163
 30
0.0
 11
2746.763582056971
 21
-871.0318651982677
 31
0.0
  0
LINE
  5
4BC
330
1F
100
AcDbEntity
  8
0-7_金物
  6
Continuous
 62
     7
370
     9
100
AcDbLine
 10
2761.171145034383
 20
-872.2776083958237
 30
0.0
 11
2747.363965705785
 21
-880.0943712961409
 31
0.0
  0
LINE
  5
4BD
330
1F
100
AcDbEntity
  8
0-7_金物
  6
Continuous
 62
     7
370
     9
100
AcDbLine
 10
2760.52397026917
 20
-882.046404177831
 30
0.0
 11
2747.9643493546
 21
-889.1568773940159
 31
0.0
  0
LINE
  5
4BE
330
1F
100
AcDbEntity
  8
0-7_金物
  6
Continuous
 62
     7
370
     9
100
AcDbLine
 10
2759.876795503956
 20
-891.8151999598401
 30
0.0
 11
2748.564733003416
 21
-898.2193834918908
 31
0.0
  0
LINE
  5
4BF
330
1F
100
AcDbEntity
  8
0-7_金物
  6
Continuous
 62
     7
370
     9
100
AcDbLine
 10
2759.229620738744
 20
-901.5839957418475
 30
0.0
 11
2749.165116652233
 21
-907.2818895897647
 31
0.0
  0
LINE
  5
4C0
330
1F
100
AcDbEntity
  8
0-7_金物
  6
Continuous
 62
     7
370
     9
100
AcDbLine
 10
2758.582445973529
 20
-911.3527915238549
 30
0.0
 11
2749.765500301049
 21
-916.3443956876406
 31
0.0
  0
LINE
  5
4C1
330
1F
100
AcDbEntity
  8
0-7_金物
  6
Continuous
 62
     7
370
     9
100
AcDbLine
 10
2757.935271208315
 20
-921.1215873058622
 30
0.0
 11
2750.365883949865
 21
-925.4069017855138
 31
0.0
  0
LINE
  5
4C2
330
1F
100
AcDbEntity
  8
0-7_金物
  6
Continuous
 62
     7
370
     9
100
AcDbLine
 10
2757.2880964431
 20
-930.8903830878703
 30
0.0
 11
2750.966267598682
 21
-934.4694078833877
 31
0.0
  0
LINE
  5
4C3
330
1F
100
AcDbEntity
  8
0-7_金物
  6
Continuous
 62
     7
370
     9
100
AcDbLine
 10
2756.640921677886
 20
-940.6591788698787
 30
0.0
 11
2751.566651247498
 21
-943.5319139812636
 31
0.0
  0
LINE
  5
4C4
330
1F
100
AcDbEntity
  8
0-7_金物
  6
Continuous
 62
     7
370
     9
100
AcDbLine
 10
2755.993746912674
 20
-950.4279746518861
 30
0.0
 11
2752.167034896313
 21
-952.5944200791369
 31
0.0
  0
LINE
  5
4C5
330
1F
100
AcDbEntity
  8
0-7_金物
  6
Continuous
 62
     7
370
     9
100
AcDbLine
 10
2730.729031024727
 20
-755.0907172264849
 30
0.0
 11
2730.729031024727
 21
-761.2940652484846
 31
0.0
  0
LINE
  5
4C6
330
1F
100
AcDbEntity
  8
0-7_金物
  6
Continuous
 62
     7
370
     9
100
AcDbLine
 10
2777.288225537854
 20
-761.2940652484846
 30
0.0
 11
2777.288225537854
 21
-755.0907172264849
 31
0.0
  0
LINE
  5
4C7
330
1F
100
AcDbEntity
  8
0-7_金物
  6
Continuous
 62
     7
370
     9
100
AcDbLine
 10
2750.906954270852
 20
-770.3903207674844
 30
0.0
 11
2757.110302292852
 21
-770.3903207674844
 31
0.0
  0
LINE
  5
4C8
330
1F
100
AcDbEntity
  8
0-7_金物
  6
Continuous
 62
     7
370
     9
100
AcDbLine
 10
2750.906954270852
 20
-745.9944617074844
 30
0.0
 11
2757.110302292852
 21
-745.9944617074844
 31
0.0
  0
LINE
  5
4C9
330
1F
100
AcDbEntity
  8
0-7_金物
  6
Continuous
 62
     7
370
     9
100
AcDbLine
 10
2730.729031024727
 20
-755.0907172264849
 30
0.0
 11
2750.906954270852
 21
-755.0907172264849
 31
0.0
  0
LINE
  5
4CA
330
1F
100
AcDbEntity
  8
0-7_金物
  6
Continuous
 62
     7
370
     9
100
AcDbLine
 10
2757.110302292852
 20
-755.0907172264849
 30
0.0
 11
2777.288225537854
 21
-755.0907172264849
 31
0.0
  0
LINE
  5
4CB
330
1F
100
AcDbEntity
  8
0-7_金物
  6
Continuous
 62
     7
370
     9
100
AcDbLine
 10
2730.729031024727
 20
-761.2940652484846
 30
0.0
 11
2750.906954270852
 21
-761.2940652484846
 31
0.0
  0
LINE
  5
4CC
330
1F
100
AcDbEntity
  8
0-7_金物
  6
Continuous
 62
     7
370
     9
100
AcDbLine
 10
2757.110302292852
 20
-761.2940652484846
 30
0.0
 11
2777.288225537854
 21
-761.2940652484846
 31
0.0
  0
LINE
  5
4CD
330
1F
100
AcDbEntity
  8
0-7_金物
  6
Continuous
 62
     7
370
     9
100
AcDbLine
 10
2757.110302292852
 20
-770.3903207674844
 30
0.0
 11
2757.110302292852
 21
-761.2940652484846
 31
0.0
  0
LINE
  5
4CE
330
1F
100
AcDbEntity
  8
0-7_金物
  6
Continuous
 62
     7
370
     9
100
AcDbLine
 10
2757.110302292852
 20
-755.0907172264849
 30
0.0
 11
2757.110302292852
 21
-745.9944617074844
 31
0.0
  0
LINE
  5
4CF
330
1F
100
AcDbEntity
  8
0-7_金物
  6
Continuous
 62
     7
370
     9
100
AcDbLine
 10
2750.906954270852
 20
-770.3903207674844
 30
0.0
 11
2750.906954270852
 21
-761.2940652484846
 31
0.0
  0
LINE
  5
4D0
330
1F
100
AcDbEntity
  8
0-7_金物
  6
Continuous
 62
     7
370
     9
100
AcDbLine
 10
2750.906954270852
 20
-755.0907172264849
 30
0.0
 11
2750.906954270852
 21
-745.9944617074844
 31
0.0
  0
ELLIPSE
  5
4D1
330
1F
100
AcDbEntity
  8
0-7_金物
  6
Continuous
 62
     7
370
     9
100
AcDbEllipse
 10
2563.089797361484
 20
-647.9653528122421
 30
0.0
 11
28.25850499469571
 21
0.0
 31
0.0
210
0.0
220
0.0
230
1.0
 40
0.5
 41
0.0
 42
6.283185307179586
  0
LINE
  5
4D2
330
1F
100
AcDbEntity
  8
0-7_金物
  6
Continuous
 62
     7
370
     9
100
AcDbLine
 10
2539.178754673666
 20
-655.4953784117422
 30
0.0
 11
2550.124022051305
 21
-674.4531376122425
 31
0.0
  0
LINE
  5
4D3
330
1F
100
AcDbEntity
  8
0-7_金物
  6
Continuous
 62
     7
370
     9
100
AcDbLine
 10
2587.000840049303
 20
-655.4953784117422
 30
0.0
 11
2576.055572671663
 21
-674.4531376122425
 31
0.0
  0
LINE
  5
4D4
330
1F
100
AcDbEntity
  8
0-7_金物
  6
Continuous
 62
     7
370
     9
100
AcDbLine
 10
2575.429712235727
 20
-683.9002037145192
 30
0.0
 11
2551.642065594889
 21
-697.3672840879029
 31
0.0
  0
LINE
  5
4D5
330
1F
100
AcDbEntity
  8
0-7_金物
  6
Continuous
 62
     7
370
     9
100
AcDbLine
 10
2564.427741227093
 20
-849.969732008652
 30
0.0
 11
2561.848587624761
 21
-851.429887751768
 31
0.0
  0
LINE
  5
4D6
330
1F
100
AcDbEntity
  8
0-7_金物
  6
Continuous
 62
     7
370
     9
100
AcDbLine
 10
2574.782537470513
 20
-693.6689994965249
 30
0.0
 11
2552.242449243704
 21
-706.4297901857761
 31
0.0
  0
LINE
  5
4D7
330
1F
100
AcDbEntity
  8
0-7_金物
  6
Continuous
 62
     7
370
     9
100
AcDbLine
 10
2574.135362705299
 20
-703.4377952785346
 30
0.0
 11
2552.842832892522
 21
-715.4922962836517
 31
0.0
  0
LINE
  5
4D8
330
1F
100
AcDbEntity
  8
0-7_金物
  6
Continuous
 62
     7
370
     9
100
AcDbLine
 10
2573.488187940087
 20
-713.206591060542
 30
0.0
 11
2553.443216541337
 21
-724.5548023815277
 31
0.0
  0
LINE
  5
4D9
330
1F
100
AcDbEntity
  8
0-7_金物
  6
Continuous
 62
     7
370
     9
100
AcDbLine
 10
2572.841013174872
 20
-722.9753868425494
 30
0.0
 11
2554.043600190153
 21
-733.6173084794009
 31
0.0
  0
LINE
  5
4DA
330
1F
100
AcDbEntity
  8
0-7_金物
  6
Continuous
 62
     7
370
     9
100
AcDbLine
 10
2572.193838409657
 20
-732.7441826245567
 30
0.0
 11
2554.64398383897
 21
-742.6798145772748
 31
0.0
  0
LINE
  5
4DB
330
1F
100
AcDbEntity
  8
0-7_金物
  6
Continuous
 62
     7
370
     9
100
AcDbLine
 10
2571.546663644443
 20
-742.5129784065641
 30
0.0
 11
2555.244367487784
 21
-751.742320675149
 31
0.0
  0
LINE
  5
4DC
330
1F
100
AcDbEntity
  8
0-7_金物
  6
Continuous
 62
     7
370
     9
100
AcDbLine
 10
2570.899488879229
 20
-752.2817741885742
 30
0.0
 11
2555.844751136602
 21
-760.8048267730246
 31
0.0
  0
LINE
  5
4DD
330
1F
100
AcDbEntity
  8
0-7_金物
  6
Continuous
 62
     7
370
     9
100
AcDbLine
 10
2570.252314114017
 20
-762.0505699705799
 30
0.0
 11
2556.445134785419
 21
-769.8673328708978
 31
0.0
  0
LINE
  5
4DE
330
1F
100
AcDbEntity
  8
0-7_金物
  6
Continuous
 62
     7
370
     9
100
AcDbLine
 10
2569.605139348802
 20
-771.819365752589
 30
0.0
 11
2557.045518434233
 21
-778.9298389687738
 31
0.0
  0
LINE
  5
4DF
330
1F
100
AcDbEntity
  8
0-7_金物
  6
Continuous
 62
     7
370
     9
100
AcDbLine
 10
2568.957964583588
 20
-781.588161534597
 30
0.0
 11
2557.645902083048
 21
-787.9923450666477
 31
0.0
  0
LINE
  5
4E0
330
1F
100
AcDbEntity
  8
0-7_金物
  6
Continuous
 62
     7
370
     9
100
AcDbLine
 10
2568.310789818375
 20
-791.3569573166044
 30
0.0
 11
2558.246285731867
 21
-797.0548511645219
 31
0.0
  0
LINE
  5
4E1
330
1F
100
AcDbEntity
  8
0-7_金物
  6
Continuous
 62
     7
370
     9
100
AcDbLine
 10
2567.663615053163
 20
-801.1257530986118
 30
0.0
 11
2558.846669380681
 21
-806.1173572623975
 31
0.0
  0
LINE
  5
4E2
330
1F
100
AcDbEntity
  8
0-7_金物
  6
Continuous
 62
     7
370
     9
100
AcDbLine
 10
2567.016440287947
 20
-810.8945488806191
 30
0.0
 11
2559.447053029497
 21
-815.1798633602707
 31
0.0
  0
LINE
  5
4E3
330
1F
100
AcDbEntity
  8
0-7_金物
  6
Continuous
 62
     7
370
     9
100
AcDbLine
 10
2566.369265522732
 20
-820.6633446626275
 30
0.0
 11
2560.047436678313
 21
-824.2423694581449
 31
0.0
  0
LINE
  5
4E4
330
1F
100
AcDbEntity
  8
0-7_金物
  6
Continuous
 62
     7
370
     9
100
AcDbLine
 10
2565.722090757518
 20
-830.4321404446349
 30
0.0
 11
2560.64782032713
 21
-833.3048755560205
 31
0.0
  0
LINE
  5
4E5
330
1F
100
AcDbEntity
  8
0-7_金物
  6
Continuous
 62
     7
370
     9
100
AcDbLine
 10
2565.074915992305
 20
-840.200936226644
 30
0.0
 11
2561.248203975946
 21
-842.3673816538937
 31
0.0
  0
LINE
  5
4E6
330
1F
100
AcDbEntity
  8
0-7_金物
  6
Continuous
 62
     7
370
     9
100
AcDbLine
 10
2539.810200104361
 20
-644.8636788012421
 30
0.0
 11
2539.810200104361
 21
-651.0670268232425
 31
0.0
  0
LINE
  5
4E7
330
1F
100
AcDbEntity
  8
0-7_金物
  6
Continuous
 62
     7
370
     9
100
AcDbLine
 10
2586.369394617484
 20
-651.0670268232425
 30
0.0
 11
2586.369394617484
 21
-644.8636788012421
 31
0.0
  0
LINE
  5
4E8
330
1F
100
AcDbEntity
  8
0-7_金物
  6
Continuous
 62
     7
370
     9
100
AcDbLine
 10
2559.988123350484
 20
-660.1632823422412
 30
0.0
 11
2566.191471372485
 21
-660.1632823422412
 31
0.0
  0
LINE
  5
4E9
330
1F
100
AcDbEntity
  8
0-7_金物
  6
Continuous
 62
     7
370
     9
100
AcDbLine
 10
2559.988123350484
 20
-635.7674232822424
 30
0.0
 11
2566.191471372485
 21
-635.7674232822424
 31
0.0
  0
LINE
  5
4EA
330
1F
100
AcDbEntity
  8
0-7_金物
  6
Continuous
 62
     7
370
     9
100
AcDbLine
 10
2539.810200104361
 20
-644.8636788012421
 30
0.0
 11
2559.988123350484
 21
-644.8636788012421
 31
0.0
  0
LINE
  5
4EB
330
1F
100
AcDbEntity
  8
0-7_金物
  6
Continuous
 62
     7
370
     9
100
AcDbLine
 10
2566.191471372485
 20
-644.8636788012421
 30
0.0
 11
2586.369394617484
 21
-644.8636788012421
 31
0.0
  0
LINE
  5
4EC
330
1F
100
AcDbEntity
  8
0-7_金物
  6
Continuous
 62
     7
370
     9
100
AcDbLine
 10
2539.810200104361
 20
-651.0670268232425
 30
0.0
 11
2559.988123350484
 21
-651.0670268232425
 31
0.0
  0
LINE
  5
4ED
330
1F
100
AcDbEntity
  8
0-7_金物
  6
Continuous
 62
     7
370
     9
100
AcDbLine
 10
2566.191471372485
 20
-651.0670268232425
 30
0.0
 11
2586.369394617484
 21
-651.0670268232425
 31
0.0
  0
LINE
  5
4EE
330
1F
100
AcDbEntity
  8
0-7_金物
  6
Continuous
 62
     7
370
     9
100
AcDbLine
 10
2566.191471372485
 20
-660.1632823422412
 30
0.0
 11
2566.191471372485
 21
-651.0670268232425
 31
0.0
  0
LINE
  5
4EF
330
1F
100
AcDbEntity
  8
0-7_金物
  6
Continuous
 62
     7
370
     9
100
AcDbLine
 10
2566.191471372485
 20
-644.8636788012421
 30
0.0
 11
2566.191471372485
 21
-635.7674232822424
 31
0.0
  0
LINE
  5
4F0
330
1F
100
AcDbEntity
  8
0-7_金物
  6
Continuous
 62
     7
370
     9
100
AcDbLine
 10
2559.988123350484
 20
-660.1632823422412
 30
0.0
 11
2559.988123350484
 21
-651.0670268232425
 31
0.0
  0
LINE
  5
4F1
330
1F
100
AcDbEntity
  8
0-7_金物
  6
Continuous
 62
     7
370
     9
100
AcDbLine
 10
2559.988123350484
 20
-644.8636788012421
 30
0.0
 11
2559.988123350484
 21
-635.7674232822424
 31
0.0
  0
LINE
  5
4F2
330
1F
100
AcDbEntity
  8
0-7_金物
  6
Continuous
 62
     7
370
     9
100
AcDbLine
 10
2562.566587409257
 20
-862.267753569864
 30
0.0
 11
2550.124022051305
 21
-674.4531376122425
 31
0.0
  0
LINE
  5
4F3
330
1F
100
AcDbEntity
  8
0-7_金物
  6
Continuous
 62
     7
370
     9
100
AcDbLine
 10
2563.573267264882
 20
-862.8676107371322
 30
0.0
 11
2576.055572671663
 21
-674.4531376122425
 31
0.0
  0
ELLIPSE
  5
4F4
330
1F
100
AcDbEntity
  8
0-7_金物
  6
Continuous
 62
     7
370
     9
100
AcDbEllipse
 10
2462.327081042401
 20
-1000.738917016549
 30
0.0
 11
-30.00000000000005
 21
3.673819061467138E-15
 31
0.0
210
0.0
220
0.0
230
1.0
 40
0.5773502691896267
 41
5.497787143782136
 42
7.068583470577034
  0
LINE
  5
4F5
330
1F
100
AcDbEntity
  8
0-7_金物
  6
Continuous
 62
     7
370
     9
100
AcDbLine
 10
2432.327081042401
 20
-1000.738917016549
 30
0.0
 11
2432.327081042401
 21
-1037.481263158297
 31
0.0
  0
LINE
  5
4F6
330
1F
100
AcDbEntity
  8
0-7_金物
  6
Continuous
 62
     7
370
     9
100
AcDbLine
 10
2433.34930625373
 20
-1005.22179437739
 30
0.0
 11
2433.34930625373
 21
-1041.964140519138
 31
0.0
  0
LINE
  5
4F7
330
1F
100
AcDbEntity
  8
0-7_金物
  6
Continuous
 62
     7
370
     9
100
AcDbLine
 10
2436.346318928868
 20
-1009.399171054394
 30
0.0
 11
2436.346318928868
 21
-1046.141517196141
 31
0.0
  0
LINE
  5
4F8
330
1F
100
AcDbEntity
  8
0-7_金物
  6
Continuous
 62
     7
370
     9
100
AcDbLine
 10
2441.113877606804
 20
-1012.986365730465
 30
0.0
 11
2441.113877606804
 21
-1049.728711872214
 31
0.0
  0
ELLIPSE
  5
4F9
330
1F
100
AcDbEntity
  8
0-7_金物
  6
Continuous
 62
     7
370
     9
100
AcDbEllipse
 10
2738.098725705155
 20
-1159.955750297456
 30
0.0
 11
-29.99999999999994
 21
-4.364184794797269E-14
 31
0.0
210
0.0
220
0.0
230
1.0
 40
0.5773502691896277
 41
0.7853981633974482
 42
2.356194490192345
  0
ELLIPSE
  5
4FA
330
1F
100
AcDbEntity
  8
0-7_金物
  6
Continuous
 62
     7
370
     9
100
AcDbEllipse
 10
2738.098725705155
 20
-1196.698096439204
 30
0.0
 11
-29.99999999999994
 21
-4.364184794797269E-14
 31
0.0
210
0.0
220
0.0
230
1.0
 40
0.5773502691896277
 41
0.7853981633974488
 42
2.356194490192345
  0
LINE
  5
4FB
330
1F
100
AcDbEntity
  8
0-7_金物
  6
Continuous
 62
     7
370
     9
100
AcDbLine
 10
2716.88552226956
 20
-1172.203199011372
 30
0.0
 11
2716.88552226956
 21
-1208.945545153119
 31
0.0
  0
LINE
  5
4FC
330
1F
100
AcDbEntity
  8
0-7_金物
  6
Continuous
 62
     7
370
     9
100
AcDbLine
 10
2723.098725705155
 20
-1174.955750297456
 30
0.0
 11
2723.098725705155
 21
-1211.698096439204
 31
0.0
  0
LINE
  5
4FD
330
1F
100
AcDbEntity
  8
0-7_金物
  6
Continuous
 62
     7
370
     9
100
AcDbLine
 10
2730.33415435208
 20
-1176.686076372213
 30
0.0
 11
2730.33415435208
 21
-1213.42842251396
 31
0.0
  0
LINE
  5
4FE
330
1F
100
AcDbEntity
  8
0-7_金物
  6
Continuous
 62
     7
370
     9
100
AcDbLine
 10
2738.098725705155
 20
-1177.276258373145
 30
0.0
 11
2738.098725705155
 21
-1214.018604514893
 31
0.0
  0
LINE
  5
4FF
330
1F
100
AcDbEntity
  8
0-7_金物
  6
Continuous
 62
     7
370
     9
100
AcDbLine
 10
2745.863297058229
 20
-1176.686076372213
 30
0.0
 11
2745.863297058229
 21
-1213.42842251396
 31
0.0
  0
LINE
  5
500
330
1F
100
AcDbEntity
  8
0-7_金物
  6
Continuous
 62
     7
370
     9
100
AcDbLine
 10
2753.098725705155
 20
-1174.955750297456
 30
0.0
 11
2753.098725705155
 21
-1211.698096439204
 31
0.0
  0
ELLIPSE
  5
501
330
1F
100
AcDbEntity
  8
0-7_金物
  6
Continuous
 62
     7
370
     9
100
AcDbEllipse
 10
2854.771344600936
 20
-1092.594782370919
 30
0.0
 11
-30.00000000000001
 21
3.673819061467133E-15
 31
0.0
210
0.0
220
0.0
230
1.0
 40
0.5773502691896252
 41
2.356194490192344
 42
3.92699081698724
  0
LINE
  5
502
330
1F
100
AcDbEntity
  8
0-7_金物
  6
Continuous
 62
     7
370
     9
100
AcDbLine
 10
2880.752106714468
 20
-1101.255036408763
 30
0.0
 11
2880.752106714468
 21
-1137.997382550511
 31
0.0
  0
LINE
  5
503
330
1F
100
AcDbEntity
  8
0-7_金物
  6
Continuous
 62
     7
370
     9
100
AcDbLine
 10
2883.749119389609
 20
-1097.077659731759
 30
0.0
 11
2883.749119389609
 21
-1133.820005873507
 31
0.0
  0
LINE
  5
504
330
1F
100
AcDbEntity
  8
0-7_金物
  6
Continuous
 62
     7
370
     9
100
AcDbLine
 10
2884.771344600936
 20
-1092.594782370919
 30
0.0
 11
2884.771344600936
 21
-1129.337128512666
 31
0.0
  0
LINE
  5
505
330
1F
100
AcDbEntity
  8
0-7_金物
  6
Continuous
 62
     7
370
     9
100
AcDbLine
 10
2875.984548036532
 20
-1141.584577226582
 30
0.0
 11
2759.311929140753
 21
-1208.945545153119
 31
0.0
  0
LINE
  5
506
330
1F
100
AcDbEntity
  8
0-7_金物
  6
Continuous
 62
     7
370
     9
100
AcDbLine
 10
2875.984548036532
 20
-1104.842231084834
 30
0.0
 11
2759.311929140753
 21
-1172.203199011372
 31
0.0
  0
LINE
  5
507
330
1F
100
AcDbEntity
  8
0-7_金物
  6
Continuous
 62
     7
370
     9
100
AcDbLine
 10
2875.984548036532
 20
-1104.842231084834
 30
0.0
 11
2875.984548036532
 21
-1141.584577226582
 31
0.0
  0
LINE
  5
508
330
1F
100
AcDbEntity
  8
0-7_金物
  6
Continuous
 62
     7
370
     9
100
AcDbLine
 10
2759.311929140753
 20
-1172.203199011372
 30
0.0
 11
2759.311929140753
 21
-1208.945545153119
 31
0.0
  0
ELLIPSE
  5
509
330
1F
100
AcDbEntity
  8
0-7_金物
  6
Continuous
 62
     7
370
     9
100
AcDbEllipse
 10
2769.91853085855
 20
-1092.594782370919
 30
0.0
 11
60.00000000000004
 21
0.0
 31
0.0
210
0.0
220
0.0
230
1.0
 40
0.5773502691896252
 41
5.497787143782138
 42
8.63937979737193
  0
LINE
  5
50A
330
1F
100
AcDbEntity
  8
0-7_金物
  6
Continuous
 62
     7
370
     9
100
AcDbLine
 10
2638.999699938182
 20
-982.3677439456761
 30
0.0
 11
2638.999699938182
 21
-1019.110090087423
 31
0.0
  0
ELLIPSE
  5
50B
330
1F
100
AcDbEntity
  8
0-7_金物
  6
Continuous
 62
     7
370
     9
100
AcDbEllipse
 10
2738.098725705155
 20
-1110.965955441793
 30
0.0
 11
59.99999999999998
 21
0.0
 31
0.0
210
0.0
220
0.0
230
1.0
 40
0.5773502691896258
 41
2.356194490192344
 42
5.497787143782136
  0
LINE
  5
50C
330
1F
100
AcDbEntity
  8
0-7_金物
  6
Continuous
 62
     7
370
     9
100
AcDbLine
 10
2748.705327422953
 20
-1117.08967979875
 30
0.0
 11
2716.88552226956
 21
-1135.460852869624
 31
0.0
  0
ELLIPSE
  5
50D
330
1F
100
AcDbEntity
  8
0-7_金物
  6
Continuous
 62
     7
370
     9
100
AcDbEllipse
 10
2462.327081042401
 20
-1037.481263158297
 30
0.0
 11
-30.00000000000001
 21
-1.699649535696902E-14
 31
0.0
210
0.0
220
0.0
230
1.0
 40
0.5773502691896268
 41
0.0
 42
0.7853981633974476
  0
ELLIPSE
  5
50E
330
1F
100
AcDbEntity
  8
0-7_金物
  6
Continuous
 62
     7
370
     9
100
AcDbEllipse
 10
2854.771344600936
 20
-1129.337128512666
 30
0.0
 11
-30.00000000000001
 21
3.673819061467133E-15
 31
0.0
210
0.0
220
0.0
230
1.0
 40
0.5773502691896252
 41
2.356194490192344
 42
3.141592653589793
  0
LINE
  5
50F
330
1F
100
AcDbEntity
  8
0-7_金物
  6
Continuous
 62
     7
370
     9
100
AcDbLine
 10
2487.784216666788
 20
-1076.673844691667
 30
0.0
 11
2441.113877606804
 21
-1049.728711872214
 31
0.0
  0
LINE
  5
510
330
1F
100
AcDbEntity
  8
0-7_金物
  6
Continuous
 62
     7
370
     9
100
AcDbLine
 10
2716.88552226956
 20
-1172.203199011372
 30
0.0
 11
2637.336009386073
 21
-1126.275266334188
 31
0.0
  0
LINE
  5
511
330
1F
100
AcDbEntity
  8
0-7_金物
  6
Continuous
 62
     7
370
     9
100
AcDbLine
 10
2487.16223970214
 20
-1039.572399981949
 30
0.0
 11
2441.113877606804
 21
-1012.986365730465
 31
0.0
  0
ELLIPSE
  5
512
330
1F
100
AcDbEntity
  8
0-7_金物
  6
Continuous
 62
     7
370
     9
100
AcDbEllipse
 10
2578.999699938182
 20
-982.3677439456761
 30
0.0
 11
60.00000000000006
 21
0.0
 31
0.0
210
0.0
220
0.0
230
1.0
 40
0.5773502691896251
 41
6.047146014440955
 42
6.519224599918218
  0
ELLIPSE
  5
513
330
1F
100
AcDbEntity
  8
0-7_金物
  6
Continuous
 62
     7
370
     9
100
AcDbEllipse
 10
2578.999699938182
 20
-1019.110090087423
 30
0.0
 11
60.00000000000006
 21
0.0
 31
0.0
210
0.0
220
0.0
230
1.0
 40
0.5773502691896251
 41
6.047146014440955
 42
6.519224599918218
  0
LINE
  5
514
330
1F
100
AcDbEntity
  8
0-7_金物
  6
Continuous
 62
     7
370
     9
100
AcDbLine
 10
2441.113877606804
 20
-988.4914683026338
 30
0.0
 11
2487.16223970214
 21
-961.90543405115
 31
0.0
  0
LINE
  5
515
330
1F
100
AcDbEntity
  8
0-7_金物
  6
Continuous
 62
     7
370
     9
100
AcDbLine
 10
2875.984548036532
 20
-1080.347333657003
 30
0.0
 11
2637.336009386073
 21
-942.5635356254494
 31
0.0
  0
LINE
  5
516
330
1F
100
AcDbEntity
  8
0-7_金物
  6
Continuous
 62
     7
370
     9
100
AcDbLine
 10
2695.672318833962
 20
-1086.471058013961
 30
0.0
 11
2727.492123987357
 21
-1068.099884943087
 31
0.0
  0
LINE
  5
517
330
1F
100
AcDbEntity
  8
0-7_金物
  6
Continuous
 62
     7
370
     9
100
AcDbLine
 10
2780.525132576348
 20
-1135.460852869624
 30
0.0
 11
2812.344937729743
 21
-1117.08967979875
 31
0.0
  0
ELLIPSE
  5
518
330
1F
100
AcDbEntity
  8
0-7_金物
  6
Continuous
 62
     7
370
     9
100
AcDbEllipse
 10
2769.91853085855
 20
-1129.337128512666
 30
0.0
 11
30.00000000000003
 21
7.993605777301137E-14
 31
0.0
210
0.0
220
0.0
230
1.0
 40
0.5773502691896266
 41
0.2617993877991396
 42
2.356194490192344
  0
ELLIPSE
  5
519
330
1F
100
AcDbEntity
  8
0-7_金物
  6
Continuous
 62
     7
370
     9
100
AcDbEllipse
 10
2738.098725705155
 20
-1147.708301583541
 30
0.0
 11
29.99999999999995
 21
6.661338147750928E-14
 31
0.0
210
0.0
220
0.0
230
1.0
 40
0.5773502691896261
 41
2.356194490192344
 42
2.780225529683081
  0
LINE
  5
51A
330
1F
100
AcDbEntity
  8
0-7_金物
  6
Continuous
 62
     7
370
     9
100
AcDbLine
 10
2716.88552226956
 20
-1208.945545153119
 30
0.0
 11
2637.336009386073
 21
-1163.017612475935
 31
0.0
  0
LINE
  5
51B
330
1F
100
AcDbEntity
  8
0-7_金物
  6
Continuous
 62
     7
370
     9
100
AcDbLine
 10
2604.038614359851
 20
-1148.10285931036
 30
0.0
 11
2488.336844616271
 21
-1079.158859429652
 31
0.0
  0
ELLIPSE
  5
51C
330
1F
100
AcDbEntity
  8
0-7_金物
  6
Continuous
 62
     7
370
     9
100
AcDbEllipse
 10
2637.336009386073
 20
-1124.046469305635
 30
0.0
 11
23.03500218845613
 21
38.65732368100281
 31
0.0
210
0.0
220
0.0
230
0.9999999999999998
 40
0.6634139481689386
 41
2.302614718066926
 42
3.873411044861822
  0
LINE
  5
51D
330
1F
100
AcDbEntity
  8
0-7_金物
  6
Continuous
 62
     7
370
     9
100
AcDbLine
 10
2607.482381718469
 20
-1156.05712487338
 30
0.0
 11
2491.780611974893
 21
-1087.113124992672
 31
0.0
  0
LINE
  5
51E
330
1F
100
AcDbEntity
  8
0-7_金物
  6
Continuous
 62
     7
370
     9
100
AcDbLine
 10
2612.960624467185
 20
-1161.829917159567
 30
0.0
 11
2497.258854723607
 21
-1092.885917278859
 31
0.0
  0
ELLIPSE
  5
51F
330
1F
100
AcDbEntity
  8
0-7_金物
  6
Continuous
 62
     7
370
     9
100
AcDbEllipse
 10
2631.590676062679
 20
-912.1156354053104
 30
0.0
 11
3.839167031409386
 21
6.442887280167132
 31
0.0
210
0.0
220
0.0
230
1.0
 40
0.6634139481689387
 41
5.444207371656721
 42
7.015003698451618
  0
LINE
  5
520
330
1F
100
AcDbEntity
  8
0-7_金物
  6
Continuous
 62
     7
370
     9
100
AcDbLine
 10
2635.653240215828
 20
-905.8183940963223
 30
0.0
 11
2519.95147047225
 21
-836.8743942156149
 31
0.0
  0
LINE
  5
521
330
1F
100
AcDbEntity
  8
0-7_金物
  6
Continuous
 62
     7
370
     9
100
AcDbLine
 10
2634.463342724376
 20
-905.2854086371493
 30
0.0
 11
2518.761572980799
 21
-836.3414087564408
 31
0.0
  0
LINE
  5
522
330
1F
100
AcDbEntity
  8
0-7_金物
  6
Continuous
 62
     7
370
     9
100
AcDbLine
 10
2633.077677747236
 20
-905.2178918447415
 30
0.0
 11
2517.375908003658
 21
-836.2738919640341
 31
0.0
  0
LINE
  5
523
330
1F
100
AcDbEntity
  8
0-7_金物
  6
Continuous
 62
     7
370
     9
100
AcDbLine
 10
2492.907573025532
 20
-846.3182591415178
 30
0.0
 11
2515.888906319101
 21
-836.6764449962207
 31
0.0
  0
LINE
  5
524
330
1F
100
AcDbEntity
  8
0-7_金物
  6
Continuous
 62
     7
370
     9
100
AcDbLine
 10
2608.60934276911
 20
-915.2622590222253
 30
0.0
 11
2631.590676062679
 21
-905.6204448769281
 31
0.0
  0
LINE
  5
525
330
1F
100
AcDbEntity
  8
0-7_金物
  6
Continuous
 62
     7
370
     9
100
AcDbLine
 10
2631.590676062679
 20
-905.6204448769281
 30
0.0
 11
2515.888906319101
 21
-836.6764449962207
 31
0.0
  0
LINE
  5
526
330
1F
100
AcDbEntity
  8
0-7_金物
  6
Continuous
 62
     7
370
     9
100
AcDbLine
 10
2487.16223970214
 20
-855.2239032062264
 30
0.0
 11
2487.16223970214
 21
-1069.565190642875
 31
0.0
  0
LINE
  5
527
330
1F
100
AcDbEntity
  8
0-7_金物
  6
Continuous
 62
     7
370
     9
100
AcDbLine
 10
2602.86400944572
 20
-924.1679030869338
 30
0.0
 11
2602.86400944572
 21
-1138.509190523583
 31
0.0
  0
LINE
  5
528
330
1F
100
AcDbEntity
  8
0-7_金物
  6
Continuous
 62
     7
370
     9
100
AcDbLine
 10
2602.86400944572
 20
-1138.509190523583
 30
0.0
 11
2487.16223970214
 21
-1069.565190642875
 31
0.0
  0
ELLIPSE
  5
529
330
1F
100
AcDbEntity
  8
0-7_金物
  6
Continuous
 62
     7
370
     9
100
AcDbEllipse
 10
2608.60934276911
 20
-921.7574495506093
 30
0.0
 11
3.839167031409386
 21
6.442887280167133
 31
0.0
210
0.0
220
0.0
230
1.0
 40
0.6634139481689393
 41
0.7318183912720424
 42
2.302614718066939
  0
ELLIPSE
  5
52A
330
1F
100
AcDbEntity
  8
0-7_金物
  6
Continuous
 62
     7
370
     9
100
AcDbEllipse
 10
2492.907573025532
 20
-852.8134496699018
 30
0.0
 11
3.839167031409303
 21
6.442887280167151
 31
0.0
210
0.0
220
0.0
230
0.9999999999999999
 40
0.6634139481689377
 41
0.7318183912720223
 42
2.302614718066919
  0
LINE
  5
52B
330
1F
100
AcDbEntity
  8
0-7_金物
  6
Continuous
 62
     7
370
     9
100
AcDbLine
 10
2608.60934276911
 20
-915.2622590222253
 30
0.0
 11
2492.907573025532
 21
-846.3182591415178
 31
0.0
  0
LINE
  5
52C
330
1F
100
AcDbEntity
  8
0-7_金物
  6
Continuous
 62
     7
370
     9
100
AcDbLine
 10
2607.122341084554
 20
-916.1074485551117
 30
0.0
 11
2491.420571340979
 21
-847.1634486744042
 31
0.0
  0
LINE
  5
52D
330
1F
100
AcDbEntity
  8
0-7_金物
  6
Continuous
 62
     7
370
     9
100
AcDbLine
 10
2605.736676107414
 20
-917.3376763187721
 30
0.0
 11
2490.034906363836
 21
-848.3936764380629
 31
0.0
  0
LINE
  5
52E
330
1F
100
AcDbEntity
  8
0-7_金物
  6
Continuous
 62
     7
370
     9
100
AcDbLine
 10
2604.546778615962
 20
-918.869104324161
 30
0.0
 11
2488.845008872385
 21
-849.9251044434535
 31
0.0
  0
LINE
  5
52F
330
1F
100
AcDbEntity
  8
0-7_金物
  6
Continuous
 62
     7
370
     9
100
AcDbLine
 10
2603.633738157845
 20
-920.5973682835175
 30
0.0
 11
2487.931968414265
 21
-851.6533684028091
 31
0.0
  0
LINE
  5
530
330
1F
100
AcDbEntity
  8
0-7_金物
  6
Continuous
 62
     7
370
     9
100
AcDbLine
 10
2603.059776931408
 20
-922.4046898641004
 30
0.0
 11
2487.358007187828
 21
-853.4606899833923
 31
0.0
  0
LINE
  5
531
330
1F
100
AcDbEntity
  8
0-7_金物
  6
Continuous
 62
     7
370
     9
100
AcDbLine
 10
2602.86400944572
 20
-924.1679030869338
 30
0.0
 11
2487.16223970214
 21
-855.2239032062264
 31
0.0
  0
LINE
  5
532
330
1F
100
AcDbEntity
  8
0-7_金物
  6
Continuous
 62
     7
370
     9
100
AcDbLine
 10
2637.336009386073
 20
-1163.017612475935
 30
0.0
 11
2637.336009386073
 21
-909.7051818689872
 31
0.0
  0
ELLIPSE
  5
533
330
1F
100
AcDbEntity
  8
0-7_金物
  6
Continuous
 62
     7
370
     9
100
AcDbEllipse
 10
2521.634239642493
 20
-1055.102469424928
 30
0.0
 11
23.03500218845609
 21
38.65732368100281
 31
0.0
210
0.0
220
0.0
230
1.0
 40
0.6634139481689381
 41
2.302614718066926
 42
3.088012881464371
  0
ELLIPSE
  5
534
330
1F
100
AcDbEntity
  8
0-7_金物
  6
Continuous
 62
     7
370
     9
100
AcDbEllipse
 10
2515.888906319101
 20
-843.171635524603
 30
0.0
 11
3.839167031409308
 21
6.442887280167158
 31
0.0
210
0.0
220
0.0
230
0.9999999999999998
 40
0.6634139481689362
 41
6.22960553505472
 42
7.015003698451609
  0
LINE
  5
535
330
1F
100
AcDbEntity
  8
0-B_寸法
  6
Continuous
 62
   120
370
     5
100
AcDbLine
 10
2326.251549765148
 20
-1275.26134105224
 30
0.0
 11
2485.350644726732
 21
-1367.117246356135
 31
0.0
  0
LWPOLYLINE
  5
536
330
1F
100
AcDbEntity
  8
0-B_寸法
  6
Continuous
 62
     7
370
     9
100
AcDbPolyline
 90
        4
 70
     1
 43
3.0
 10
2327.751549765148
 20
-1275.26134105224
 42
0.4142135623731
 10
2326.251549765148
 20
-1273.76134105224
 42
0.4142135623731
 10
2324.751549765148
 20
-1275.26134105224
 42
0.4142135623731
 10
2326.251549765148
 20
-1276.76134105224
 42
0.4142135623731
  0
LINE
  5
537
330
1F
100
AcDbEntity
  8
0-B_寸法
  6
Continuous
 62
   120
370
     5
100
AcDbLine
 10
2326.251549765148
 20
-1275.26134105224
 30
0.0
 11
2426.113527223932
 21
-1217.606001484604
 31
0.0
  0
LINE
  5
538
330
1F
100
AcDbEntity
  8
0-B_寸法
  6
JWW_CENTER1
 62
   120
370
     5
100
AcDbLine
 10
2850.381316604417
 20
-972.6548929161154
 30
0.0
 11
2438.955429603
 21
-1210.191739527962
 31
0.0
  0
LINE
  5
539
330
1F
100
AcDbEntity
  8
0-B_寸法
  6
JWW_CENTER1
 62
   120
370
     5
100
AcDbLine
 10
2897.197751472129
 20
-1129.337128512666
 30
0.0
 11
3073.578843345234
 21
-1231.170799385562
 31
0.0
  0
LINE
  5
53A
330
1F
100
AcDbEntity
  8
0-6_扉
  6
Continuous
 62
     7
370
     9
100
AcDbLine
 10
2571.041337461526
 20
-750.1406371929729
 30
0.0
 11
2664.765774558183
 21
-804.2524661803722
 31
0.0
  0
LINE
  5
53B
330
1F
100
AcDbEntity
  8
0-6_扉
  6
Continuous
 62
    40
370
    15
100
AcDbLine
 10
2751.752012868791
 20
-946.329859639155
 30
0.0
 11
2664.765774558183
 21
-896.1083315347329
 31
0.0
  0
LINE
  5
53C
330
1F
100
AcDbEntity
  8
0-6_扉
  6
Continuous
 62
    40
370
    15
100
AcDbLine
 10
2664.765774558183
 20
-69.67681601564863
 30
0.0
 11
2664.765774558183
 21
-896.1083315347329
 31
0.0
  0
LINE
  5
53D
330
1F
100
AcDbEntity
  8
0-6_扉
  6
Continuous
 62
    40
370
    15
100
AcDbLine
 10
3555.72031885323
 20
-69.67681601564863
 30
0.0
 11
3555.72031885323
 21
-749.1389469677434
 31
0.0
  0
LINE
  5
53E
330
1F
100
AcDbEntity
  8
0-6_扉
  6
Continuous
 62
    40
370
    15
100
AcDbLine
 10
2982.963826092129
 20
-69.67681601564863
 30
0.0
 11
2982.963826092129
 21
-1079.820062243471
 31
0.0
  0
LINE
  5
53F
330
1F
100
AcDbEntity
  8
0-6_扉
  6
Continuous
 62
     7
370
     9
100
AcDbLine
 10
2464.413365793517
 20
-688.5789490473038
 30
0.0
 11
2554.505789326181
 21
-740.5938340258327
 31
0.0
  0
LINE
  5
540
330
1F
100
AcDbEntity
  8
0-6_扉
  6
Continuous
 62
     7
370
     9
100
AcDbLine
 10
2036.421017697702
 20
-441.4774516630844
 30
0.0
 11
2242.18193254413
 21
-560.2735712383729
 31
0.0
  0
MTEXT
  5
541
330
1F
100
AcDbEntity
  8
0-A_文字
  6
Continuous
 62
     7
370
     9
100
AcDbMText
 10
1765.235489997383
 20
148.4863509800365
 30
0.0
 40
68.58
 41
1080.0
 46
0.0
 71
     7
 72
     1
  1
{\fＭＳ ゴシック|b0|i0|c128|p49;振れ止め金具(床付け用)を}
 73
     1
 44
1.0
  0
MTEXT
  5
542
330
1F
100
AcDbEntity
  8
0-A_文字
  6
Continuous
 62
     7
370
     9
100
AcDbMText
 10
1765.235489997386
 20
43.26951927848394
 30
0.0
 40
68.57999999999996
 41
1259.999999999999
 46
0.0
 71
     7
 72
     1
  1
{\fＭＳ ゴシック|b0|i0|c128|p49;下記のように床へ取り付けます}
 73
     1
 44
1.0
  0
MTEXT
  5
543
330
1F
100
AcDbEntity
  8
0-A_文字
  6
Continuous
 62
     7
370
     9
100
AcDbMText
 10
2293.889199628091
 20
-349.0141038692249
 30
0.0
 40
68.58
 41
180.0
 46
0.0
 71
     7
 72
     1
  1
{\fＭＳ ゴシック|b0|i0|c128|p49;小壁}
 73
     1
 44
1.0
  0
MTEXT
  5
544
330
1F
100
AcDbEntity
  8
0-A_文字
  6
Continuous
 62
     7
370
     9
100
AcDbMText
 10
3134.342072472681
 20
-537.6996279956818
 30
0.0
 40
68.57999999999998
 41
270.0
 46
0.0
 71
     7
 72
     1
  1
{\fＭＳ ゴシック|b0|i0|c128|p49;中方立}
 73
     1
 44
1.0
  0
MTEXT
  5
545
330
1F
100
AcDbEntity
  8
0-A_文字
  6
Continuous
 62
     7
370
     9
100
AcDbMText
 10
1839.617602810694
 20
-1895.893410888214
 30
0.0
 40
68.57999999999998
 41
270.0
 46
0.0
 71
     7
 72
     1
  1
{\fＭＳ ゴシック|b0|i0|c128|p49;平面図}
 73
     1
 44
1.0
  0
MTEXT
  5
546
330
1F
100
AcDbEntity
  8
0-B_寸法
  6
Continuous
 62
     7
370
     9
100
AcDbMText
 10
2033.571355150908
 20
-685.7636884211843
 30
0.0
 40
68.58
 41
450.0
 46
0.0
 71
     7
 72
     1
  1
{\fＭＳ ゴシック|b0|i0|c128|p49;ビス(同梱)}
 73
     1
 44
1.0
  0
MTEXT
  5
547
330
1F
100
AcDbEntity
  8
0-B_寸法
  6
Continuous
 62
     7
370
   211
100
AcDbMText
 10
3221.815018978524
 20
-1379.27997426356
 30
0.0
 40
91.44
 41
60.0
 46
0.0
 71
     7
 72
     1
  1
{\fＭＳ ゴシック|b0|i0|c128|p49;5}
 73
     1
 44
1.0
  0
MTEXT
  5
548
330
1F
100
AcDbEntity
  8
0-B_寸法
  6
Continuous
 62
     7
370
   211
100
AcDbMText
 10
2125.350644726732
 20
-1536.557965671976
 30
0.0
 40
91.44
 41
720.0
 46
0.0
 71
     7
 72
     1
  1
{\fＭＳ ゴシック|b0|i0|c128|p49;15(中方立芯)}
 73
     1
 44
1.0
  0
MTEXT
  5
549
330
1F
100
AcDbEntity
  8
0-B_寸法
  6
Continuous
 62
     7
370
     9
100
AcDbMText
 10
3089.754891513242
 20
-1629.864217424112
 30
0.0
 40
68.58000000000001
 41
765.0
 46
0.0
 71
     7
 72
     1
  1
{\fＭＳ ゴシック|b0|i0|c128|p49;※図は左引き(L)の}
 73
     1
 44
1.0
  0
MTEXT
  5
54A
330
1F
100
AcDbEntity
  8
0-B_寸法
  6
Continuous
 62
     7
370
     9
100
AcDbMText
 10
3089.754891513242
 20
-1741.350487779319
 30
0.0
 40
68.58
 41
540.0
 46
0.0
 71
     7
 72
     1
  1
{\fＭＳ ゴシック|b0|i0|c128|p49;　場合です。}
 73
     1
 44
1.0
  0
LINE
  5
54B
330
1F
100
AcDbEntity
  8
0-6_扉
  6
Continuous
 62
    40
370
    15
100
AcDbLine
 10
2982.96382609216
 20
-1079.820062243417
 30
0.0
 11
2756.09897673837
 21
-948.8395803994151
 31
0.0
  0
LINE
  5
54C
330
1F
100
AcDbEntity
  8
1-4_枠
  6
Continuous
 62
    92
370
    13
100
AcDbLine
 10
2739.665823330657
 20
-2298.723992660482
 30
0.0
 11
2739.665823330657
 21
-2748.723992660482
 31
0.0
  0
LINE
  5
54D
330
1F
100
AcDbEntity
  8
1-4_枠
  6
Continuous
 62
    92
370
    13
100
AcDbLine
 10
2739.665823330657
 20
-2298.723992660482
 30
0.0
 11
3377.165823330655
 21
-2298.723992660482
 31
0.0
  0
LINE
  5
54E
330
1F
100
AcDbEntity
  8
1-4_枠
  6
Continuous
 62
    92
370
    13
100
AcDbLine
 10
3377.165823330655
 20
-2727.510789224886
 30
0.0
 11
3377.165823330655
 21
-2298.723992660482
 31
0.0
  0
LINE
  5
54F
330
1F
100
AcDbEntity
  8
1-4_枠
  6
Continuous
 62
    92
370
    13
100
AcDbLine
 10
3355.952619895062
 20
-2748.723992660482
 30
0.0
 11
2739.665823330657
 21
-2748.723992660482
 31
0.0
  0
LINE
  5
550
330
1F
100
AcDbEntity
  8
1-4_枠
  6
Continuous
 62
    92
370
    13
100
AcDbLine
 10
3377.165823330655
 20
-2727.510789224886
 30
0.0
 11
3355.952619895062
 21
-2748.723992660482
 31
0.0
  0
MTEXT
  5
551
330
1F
100
AcDbEntity
  8
0-A_文字
  6
Continuous
 62
     7
370
     9
100
AcDbMText
 10
2908.415823330655
 20
-1940.482951290177
 30
0.0
 40
68.58
 41
180.0
 46
0.0
 71
     7
 72
     1
  1
{\fＭＳ ゴシック|b0|i0|c128|p49;小壁}
 73
     1
 44
1.0
  0
MTEXT
  5
552
330
1F
100
AcDbEntity
  8
0-A_文字
  6
Continuous
 62
     7
370
     9
100
AcDbMText
 10
2863.415823330655
 20
-2579.433992660482
 30
0.0
 40
68.57999999999998
 41
270.0
 46
0.0
 71
     7
 72
     1
  1
{\fＭＳ ゴシック|b0|i0|c128|p49;中方立}
 73
     1
 44
1.0
  0
LINE
  5
553
330
1F
100
AcDbEntity
  8
1-4_枠
  6
JWW_CENTER1
 62
   120
370
     5
100
AcDbLine
 10
2855.759487947163
 20
-2523.723992660482
 30
0.0
 11
2339.441507414136
 21
-2523.723992660482
 31
0.0
  0
LINE
  5
554
330
1F
100
AcDbEntity
  8
1-4_枠
  6
JWW_CENTER1
 62
   120
370
     5
100
AcDbLine
 10
3662.166441930216
 20
-2523.723992660482
 30
0.0
 11
3136.111832945972
 21
-2523.723992660482
 31
0.0
  0
LINE
  5
555
330
1F
100
AcDbEntity
  8
1-B_寸法
  6
Continuous
 62
   120
370
     5
100
AcDbLine
 10
2739.665823330657
 20
-2943.820128729996
 30
0.0
 11
2455.396397412288
 21
-2943.820128729996
 31
0.0
  0
LINE
  5
556
330
1F
100
AcDbEntity
  8
1-B_寸法
  6
Continuous
 62
   120
370
     5
100
AcDbLine
 10
2739.665823330657
 20
-2943.820128729996
 30
0.0
 11
2739.665823330657
 21
-2823.723992660482
 31
0.0
  0
LWPOLYLINE
  5
557
330
1F
100
AcDbEntity
  8
1-B_寸法
  6
Continuous
 62
     7
370
     9
100
AcDbPolyline
 90
        4
 70
     1
 43
3.0
 10
2741.165823330657
 20
-2943.820128729996
 42
0.4142135623731
 10
2739.665823330657
 20
-2942.320128729996
 42
0.4142135623731
 10
2738.165823330657
 20
-2943.820128729996
 42
0.4142135623731
 10
2739.665823330657
 20
-2945.320128729996
 42
0.4142135623731
  0
MTEXT
  5
558
330
1F
100
AcDbEntity
  8
1-B_寸法
  6
Continuous
 62
     7
370
   211
100
AcDbMText
 10
2522.165823330657
 20
-2949.769568552515
 30
0.0
 40
91.44
 41
60.0
 46
0.0
 71
     7
 72
     1
  1
{\fＭＳ ゴシック|b0|i0|c128|p49;5}
 73
     1
 44
1.0
  0
LINE
  5
559
330
1F
100
AcDbEntity
  8
1-4_枠
  6
Continuous
 62
     7
370
     9
100
AcDbLine
 10
2769.665823330659
 20
-2236.271022911139
 30
0.0
 11
2769.665823330659
 21
-2298.723992660482
 31
0.0
  0
LINE
  5
55A
330
1F
100
AcDbEntity
  8
1-4_枠
  6
Continuous
 62
     7
370
     9
100
AcDbLine
 10
3227.165823330655
 20
-2236.271022911139
 30
0.0
 11
3227.165823330655
 21
-2298.723992660482
 31
0.0
  0
LINE
  5
55B
330
1F
100
AcDbEntity
  8
0-A_文字
  6
Continuous
 62
   120
370
     5
100
AcDbLine
 10
2719.452451742078
 20
-2214.092492160057
 30
0.0
 11
3487.378660338177
 21
-2214.092492160057
 31
0.0
  0
LINE
  5
55C
330
1F
100
AcDbEntity
  8
1-4_枠
  6
Continuous
 62
     7
370
     9
100
AcDbLine
 10
2769.665823330659
 20
-1795.025842156161
 30
0.0
 11
2769.665823330659
 21
-2098.463416647158
 31
0.0
  0
LINE
  5
55D
330
1F
100
AcDbEntity
  8
1-4_枠
  6
Continuous
 62
     7
370
     9
100
AcDbLine
 10
3227.165823330655
 20
-1795.025842156161
 30
0.0
 11
3227.165823330655
 21
-2098.463416647158
 31
0.0
  0
LINE
  5
55E
330
1F
100
AcDbEntity
  8
0-A_文字
  6
Continuous
 62
    92
370
    13
100
AcDbLine
 10
-5618.990315918843
 20
4000.00018145587
 30
0.0
 11
-5618.990315918843
 21
3730.00018145587
 31
0.0
  0
MTEXT
  5
55F
330
1F
100
AcDbEntity
  8
0-A_文字
  6
Continuous
 62
    92
370
    13
100
AcDbMText
 10
-5547.740315918843
 20
3758.994391982186
 30
0.0
 40
147.9884210526315
 41
3690.0
 46
0.0
 71
     7
 72
     1
  1
{\fＭＳ ゴシック|b0|i0|c128|p49;幅広片引き戸　上吊りタイプ　固定枠90巾}
 73
     1
 44
1.0
  0
LINE
  5
560
330
1F
100
AcDbEntity
  8
0-A_文字
  6
Continuous
 62
    92
370
    13
100
AcDbLine
 10
-5618.990315918843
 20
4000.00018145587
 30
0.0
 11
-1792.857142857142
 21
4000.00018145587
 31
0.0
  0
LINE
  5
561
330
1F
100
AcDbEntity
  8
0-A_文字
  6
Continuous
 62
    92
370
    13
100
AcDbLine
 10
-5618.990315918843
 20
3730.00018145587
 30
0.0
 11
-1792.857142857142
 21
3730.00018145587
 31
0.0
  0
LINE
  5
562
330
1F
100
AcDbEntity
  8
0-A_文字
  6
Continuous
 62
    92
370
    13
100
AcDbLine
 10
-1792.857142857142
 20
4000.00018145587
 30
0.0
 11
-1792.857142857142
 21
3730.00018145587
 31
0.0
  0
MTEXT
  5
563
330
1F
100
AcDbEntity
  8
F-1_枠
  6
Continuous
 62
     7
370
     0
100
AcDbMText
 10
-5080.081323642279
 20
-4045.074311078391
 30
0.0
 40
79.85124999999995
 41
3772.5
 46
0.0
 71
     7
 72
     1
  1
{\fＭＳ ゴシック|b0|i0|c128|p49;ドレタス　幅広片引き戸　上吊りタイプ　固定枠90巾　枠外H2,035　枠外W2,215}
 73
     1
 44
1.0
  0
MTEXT
  5
564
330
1F
100
AcDbEntity
  8
F-1_枠
  6
Continuous
 62
     7
370
     9
100
AcDbMText
 10
5096.167700144058
 20
-4147.857012699985
 30
0.0
 40
74.295
 41
97.5
 46
0.0
 71
     7
 72
     1
  1
{\fＭＳ ゴシック|b0|i0|c128|p49;03}
 73
     1
 44
1.0
  0
LINE
  5
565
330
1F
100
AcDbEntity
  8
0-1_通り芯
  6
JWW_CENTER1
 62
   120
370
     5
100
AcDbLine
 10
-3178.217896424571
 20
-3392.278468390613
 30
0.0
 11
-3178.217896424571
 21
-210.8485070092919
 31
0.0
  0
LINE
  5
566
330
1F
100
AcDbEntity
  8
0-1_通り芯
  6
JWW_CENTER1
 62
   120
370
     5
100
AcDbLine
 10
-3064.21789642457
 20
-3186.848713271374
 30
0.0
 11
-3064.21789642457
 21
-642.8485070093155
 31
0.0
  0
MTEXT
  5
567
330
1F
100
AcDbEntity
  8
0-B_寸法
  6
Continuous
 62
     7
370
   211
100
AcDbMText
 10
-3124.217896424576
 20
-1513.953503350413
 30
0.0
 40
91.44
 41
120.0
 46
0.0
 71
     7
 72
     1
  1
{\fＭＳ ゴシック|b0|i0|c128|p49;30}
 73
     1
 44
1.0
  0
LINE
  5
568
330
1F
100
AcDbEntity
  8
0-B_寸法
  6
Continuous
 62
   120
370
     5
100
AcDbLine
 10
-3154.21789642458
 20
-1514.673503350413
 30
0.0
 11
-2974.21789642458
 21
-1514.673503350413
 31
0.0
  0
LWPOLYLINE
  5
569
330
1F
100
AcDbEntity
  8
0-B_寸法
  6
Continuous
 62
     7
370
     9
100
AcDbPolyline
 90
        4
 70
     1
 43
3.0
 10
-3152.71789642458
 20
-1514.673503350413
 42
0.4142135623731
 10
-3154.21789642458
 20
-1513.173503350413
 42
0.4142135623731
 10
-3155.71789642458
 20
-1514.673503350413
 42
0.4142135623731
 10
-3154.21789642458
 20
-1516.173503350413
 42
0.4142135623731
  0
LWPOLYLINE
  5
56A
330
1F
100
AcDbEntity
  8
0-B_寸法
  6
Continuous
 62
     7
370
     9
100
AcDbPolyline
 90
        4
 70
     1
 43
3.0
 10
-2972.71789642458
 20
-1514.673503350413
 42
0.4142135623731
 10
-2974.21789642458
 20
-1513.173503350413
 42
0.4142135623731
 10
-2975.71789642458
 20
-1514.673503350413
 42
0.4142135623731
 10
-2974.21789642458
 20
-1516.173503350413
 42
0.4142135623731
  0
LINE
  5
56B
330
1F
100
AcDbEntity
  8
0-B_寸法
  6
Continuous
 62
   120
370
     5
100
AcDbLine
 10
-3178.217896424571
 20
-1754.673503350413
 30
0.0
 11
-3064.21789642457
 21
-1754.673503350413
 31
0.0
  0
LWPOLYLINE
  5
56C
330
1F
100
AcDbEntity
  8
0-B_寸法
  6
Continuous
 62
     7
370
     9
100
AcDbPolyline
 90
        4
 70
     1
 43
3.0
 10
-3176.717896424571
 20
-1754.673503350413
 42
0.4142135623731
 10
-3178.217896424571
 20
-1753.173503350413
 42
0.4142135623731
 10
-3179.717896424571
 20
-1754.673503350413
 42
0.4142135623731
 10
-3178.217896424571
 20
-1756.173503350413
 42
0.4142135623731
  0
LWPOLYLINE
  5
56D
330
1F
100
AcDbEntity
  8
0-B_寸法
  6
Continuous
 62
     7
370
     9
100
AcDbPolyline
 90
        4
 70
     1
 43
3.0
 10
-3062.71789642457
 20
-1754.673503350413
 42
0.4142135623731
 10
-3064.21789642457
 20
-1753.173503350413
 42
0.4142135623731
 10
-3065.717896424569
 20
-1754.673503350413
 42
0.4142135623731
 10
-3064.21789642457
 20
-1756.173503350413
 42
0.4142135623731
  0
MTEXT
  5
56E
330
1F
100
AcDbEntity
  8
0-B_寸法
  6
Continuous
 62
     7
370
   211
100
AcDbMText
 10
-3184.96789642457
 20
-1766.096003350413
 30
0.0
 40
97.15499999999999
 41
127.5
 46
0.0
 71
     7
 72
     1
  1
{\fＭＳ ゴシック|b0|i0|c128|p49;19}
 73
     1
 44
1.0
  0
LINE
  5
56F
330
1F
100
AcDbEntity
  8
0-B_寸法
  6
JWW_CENTER1
 62
   120
370
     5
100
AcDbLine
 10
-2312.291075561142
 20
2600.962217369345
 30
0.0
 11
2332.128149574499
 21
2600.962217369345
 31
0.0
  0
LINE
  5
570
330
1F
100
AcDbEntity
  8
0-B_寸法
  6
Continuous
 62
   120
370
     5
100
AcDbLine
 10
-1578.369429404415
 20
2600.962217369345
 30
0.0
 11
-1578.369429404415
 21
2486.962168973789
 31
0.0
  0
LWPOLYLINE
  5
571
330
1F
100
AcDbEntity
  8
0-B_寸法
  6
Continuous
 62
     7
370
     9
100
AcDbPolyline
 90
        4
 70
     1
 43
3.0
 10
-1576.869429404415
 20
2600.962217369345
 42
0.4142135623731
 10
-1578.369429404415
 20
2602.462217369345
 42
0.4142135623731
 10
-1579.869429404415
 20
2600.962217369345
 42
0.4142135623731
 10
-1578.369429404415
 20
2599.462217369345
 42
0.4142135623731
  0
LWPOLYLINE
  5
572
330
1F
100
AcDbEntity
  8
0-B_寸法
  6
Continuous
 62
     7
370
     9
100
AcDbPolyline
 90
        4
 70
     1
 43
3.0
 10
-1576.869429404415
 20
2486.962168973789
 42
0.4142135623731
 10
-1578.369429404415
 20
2488.462168973789
 42
0.4142135623731
 10
-1579.869429404415
 20
2486.962168973789
 42
0.4142135623731
 10
-1578.369429404415
 20
2485.462168973789
 42
0.4142135623731
  0
MTEXT
  5
573
330
1F
100
AcDbEntity
  8
0-B_寸法
  6
Continuous
 62
     7
370
   211
100
AcDbMText
 10
-1578.369429404415
 20
2468.789693171567
 30
0.0
 40
97.15499999999999
 41
127.5
 46
0.0
 71
     7
 72
     1
  1
{\fＭＳ ゴシック|b0|i0|c128|p49;19}
 11
6.123031769111886E-17
 21
1.0
 31
0.0
 73
     1
 44
1.0
  0
MTEXT
  5
574
330
1F
100
AcDbEntity
  8
F-1_枠
  6
Continuous
 62
     7
370
     0
100
AcDbMText
 10
4938.667793092893
 20
-3938.071010139966
 30
0.0
 40
78.86699999999999
 41
517.5
 46
0.0
 71
     7
 72
     1
  1
{\fＭＳ ゴシック|b0|i0|c128|p49;2022.04.01}
 73
     1
 44
1.0
  0
ENDSEC
  0
SECTION
  2
OBJECTS
  0
DICTIONARY
  5
C
330
0
100
AcDbDictionary
281
     1
  3
ACAD_GROUP
350
D
  3
ACAD_LAYOUT
350
1A
  3
ACAD_MATERIAL
350
3B
  3
ACAD_MLEADERSTYLE
350
576
  3
ACAD_MLINESTYLE
350
17
  3
ACAD_PLOTSETTINGS
350
19
  3
ACAD_PLOTSTYLENAME
350
E
  3
ACAD_TABLESTYLE
350
575
  3
ACAD_VISUALSTYLE
350
2A
  0
DICTIONARY
  5
D
102
{ACAD_REACTORS
330
C
102
}
330
C
100
AcDbDictionary
281
     1
  0
DICTIONARY
  5
1A
102
{ACAD_REACTORS
330
C
102
}
330
C
100
AcDbDictionary
281
     1
  3
Layout1
350
1E
  3
Layout2
350
26
  3
Model
350
22
  0
DICTIONARY
  5
3B
102
{ACAD_REACTORS
330
C
102
}
330
C
100
AcDbDictionary
281
     1
  3
ByBlock
350
3D
  3
ByLayer
350
3C
  3
Global
350
3E
  0
DICTIONARY
  5
576
102
{ACAD_REACTORS
330
C
102
}
330
C
100
AcDbDictionary
281
     1
  0
DICTIONARY
  5
17
102
{ACAD_REACTORS
330
C
102
}
330
C
100
AcDbDictionary
281
     1
  3
Standard
350
18
  0
DICTIONARY
  5
19
102
{ACAD_REACTORS
330
C
102
}
330
C
100
AcDbDictionary
281
     1
  0
ACDBDICTIONARYWDFLT
  5
E
102
{ACAD_REACTORS
330
C
102
}
330
C
100
AcDbDictionary
281
     1
  3
Normal
350
F
100
AcDbDictionaryWithDefault
340
F
  0
DICTIONARY
  5
575
102
{ACAD_REACTORS
330
C
102
}
330
C
100
AcDbDictionary
281
     1
  0
DICTIONARY
  5
2A
102
{ACAD_REACTORS
330
C
102
}
330
C
100
AcDbDictionary
281
     1
  3
2dWireframe
350
2F
  3
3D Hidden
350
31
  3
3dWireframe
350
30
  3
Basic
350
32
  3
Brighten
350
36
  3
ColorChange
350
3A
  3
Conceptual
350
34
  3
Dim
350
35
  3
Facepattern
350
39
  3
Flat
350
2B
  3
FlatWithEdges
350
2C
  3
Gouraud
350
2D
  3
GouraudWithEdges
350
2E
  3
Linepattern
350
38
  3
Realistic
350
33
  3
Thicken
350
37
  0
LAYOUT
  5
1E
102
{ACAD_REACTORS
330
1A
102
}
330
1A
100
AcDbPlotSettings
  1

  2
none_device
  4

  6

 40
0.0
 41
0.0
 42
0.0
 43
0.0
 44
0.0
 45
0.0
 46
0.0
 47
0.0
 48
0.0
 49
0.0
140
0.0
141
0.0
142
1.0
143
1.0
 70
   688
 72
     0
 73
     0
 74
     5
  7

 75
    16
 76
     0
 77
     5
 78
   300
147
1.0
148
0.0
149
0.0
100
AcDbLayout
  1
Layout1
 70
     1
 71
     1
 10
0.0
 20
0.0
 11
420.0
 21
297.0
 12
0.0
 22
0.0
 32
0.0
 14
1.000000000000000E+20
 24
1.000000000000000E+20
 34
1.000000000000000E+20
 15
-1.000000000000000E+20
 25
-1.000000000000000E+20
 35
-1.000000000000000E+20
146
0.0
 13
0.0
 23
0.0
 33
0.0
 16
1.0
 26
0.0
 36
0.0
 17
0.0
 27
1.0
 37
0.0
 76
     0
330
1B
  0
LAYOUT
  5
26
102
{ACAD_REACTORS
330
1A
102
}
330
1A
100
AcDbPlotSettings
  1

  2
none_device
  4

  6

 40
0.0
 41
0.0
 42
0.0
 43
0.0
 44
0.0
 45
0.0
 46
0.0
 47
0.0
 48
0.0
 49
0.0
140
0.0
141
0.0
142
1.0
143
1.0
 70
   688
 72
     0
 73
     0
 74
     5
  7

 75
    16
 76
     0
 77
     5
 78
   300
147
1.0
148
0.0
149
0.0
100
AcDbLayout
  1
Layout2
 70
     1
 71
     2
 10
0.0
 20
0.0
 11
0.0
 21
0.0
 12
0.0
 22
0.0
 32
0.0
 14
0.0
 24
0.0
 34
0.0
 15
0.0
 25
0.0
 35
0.0
146
0.0
 13
0.0
 23
0.0
 33
0.0
 16
1.0
 26
0.0
 36
0.0
 17
0.0
 27
1.0
 37
0.0
 76
     0
330
23
  0
LAYOUT
  5
22
102
{ACAD_REACTORS
330
1A
102
}
330
1A
100
AcDbPlotSettings
  1

  2
none_device
  4

  6

 40
0.0
 41
0.0
 42
0.0
 43
0.0
 44
0.0
 45
0.0
 46
0.0
 47
0.0
 48
0.0
 49
0.0
140
0.0
141
0.0
142
1.0
143
1.0
 70
  1712
 72
     0
 73
     0
 74
     0
  7

 75
     0
 76
     0
 77
     5
 78
   300
147
1.0
148
0.0
149
0.0
100
AcDbLayout
  1
Model
 70
     1
 71
     0
 10
-8910.0
 20
-6300.0
 11
8910.0
 21
6300.0
 12
0.0
 22
0.0
 32
0.0
 14
-8910.0
 24
-6300.0
 34
0.0
 15
8910.0
 25
6300.0
 35
0.0
146
0.0
 13
0.0
 23
0.0
 33
0.0
 16
1.0
 26
0.0
 36
0.0
 17
0.0
 27
1.0
 37
0.0
 76
     0
330
1F
331
29
  0
MATERIAL
  5
3D
102
{ACAD_REACTORS
330
3B
102
}
330
3B
100
AcDbMaterial
  1
ByBlock
 72
     1
 94
      127
  0
MATERIAL
  5
3C
102
{ACAD_REACTORS
330
3B
102
}
330
3B
100
AcDbMaterial
  1
ByLayer
 72
     1
 94
      127
  0
MATERIAL
  5
3E
102
{ACAD_REACTORS
330
3B
102
}
330
3B
100
AcDbMaterial
  1
Global
 72
     1
 94
      127
  0
MLINESTYLE
  5
18
102
{ACAD_REACTORS
330
17
102
}
330
17
100
AcDbMlineStyle
  2
Standard
 70
     0
  3

 62
   256
 51
90.0
 52
90.0
 71
     2
 49
0.5
 62
   256
  6
BYLAYER
 49
-0.5
 62
   256
  6
BYLAYER
  0
ACDBPLACEHOLDER
  5
F
102
{ACAD_REACTORS
330
E
102
}
330
E
  0
VISUALSTYLE
  5
2F
102
{ACAD_REACTORS
330
2A
102
}
330
2A
100
AcDbVisualStyle
  2
2dWireframe
 70
     4
177
     2
291
     0
 71
     0
176
     1
 72
     2
176
     1
 73
     0
176
     1
 90
        0
176
     1
 40
-0.6
176
     1
 41
-30.0
176
     1
 62
     5
 63
     7
421
 16777215
176
     1
 74
     1
176
     1
 91
        4
176
     1
 64
     7
176
     1
 65
   257
176
     1
 75
     1
176
     1
175
     1
176
     1
 42
1.0
176
     1
 92
        0
176
     1
 66
   257
176
     1
 43
1.0
176
     1
 76
     1
176
     1
 77
     6
176
     1
 78
     2
176
     1
 67
     7
176
     1
 79
     5
176
     1
170
     0
176
     1
171
     0
176
     1
290
     0
176
     1
 93
        1
176
     1
 44
0.0
176
     1
173
     0
176
     1
  0
VISUALSTYLE
  5
31
102
{ACAD_REACTORS
330
2A
102
}
330
2A
100
AcDbVisualStyle
  2
3D Hidden
 70
     6
177
     2
291
     0
 71
     1
176
     1
 72
     2
176
     1
 73
     2
176
     1
 90
        0
176
     1
 40
-0.6
176
     1
 41
-30.0
176
     1
 62
     5
 63
     7
421
 16777215
176
     1
 74
     2
176
     1
 91
        2
176
     1
 64
     7
176
     1
 65
   257
176
     1
 75
     2
176
     1
175
     1
176
     1
 42
40.0
176
     1
 92
        0
176
     1
 66
   257
176
     1
 43
1.0
176
     1
 76
     1
176
     1
 77
     6
176
     1
 78
     2
176
     1
 67
     7
176
     1
 79
     3
176
     1
170
     0
176
     1
171
     0
176
     1
290
     0
176
     1
 93
        1
176
     1
 44
0.0
176
     1
173
     0
176
     1
  0
VISUALSTYLE
  5
30
102
{ACAD_REACTORS
330
2A
102
}
330
2A
100
AcDbVisualStyle
  2
3dWireframe
 70
     5
177
     2
291
     0
 71
     0
176
     1
 72
     2
176
     1
 73
     0
176
     1
 90
        0
176
     1
 40
-0.6
176
     1
 41
-30.0
176
     1
 62
     5
 63
     7
421
 16777215
176
     1
 74
     1
176
     1
 91
        4
176
     1
 64
     7
176
     1
 65
   257
176
     1
 75
     1
176
     1
175
     1
176
     1
 42
1.0
176
     1
 92
        0
176
     1
 66
   257
176
     1
 43
1.0
176
     1
 76
     1
176
     1
 77
     6
176
     1
 78
     2
176
     1
 67
     7
176
     1
 79
     5
176
     1
170
     0
176
     1
171
     0
176
     1
290
     0
176
     1
 93
        1
176
     1
 44
0.0
176
     1
173
     0
176
     1
  0
VISUALSTYLE
  5
32
102
{ACAD_REACTORS
330
2A
102
}
330
2A
100
AcDbVisualStyle
  2
Basic
 70
     7
177
     2
291
     1
 71
     1
176
     1
 72
     0
176
     1
 73
     1
176
     1
 90
        0
176
     1
 40
-0.6
176
     1
 41
-30.0
176
     1
 62
     5
 63
     7
421
 16777215
176
     1
 74
     0
176
     1
 91
        4
176
     1
 64
     7
176
     1
 65
   257
176
     1
 75
     1
176
     1
175
     1
176
     1
 42
1.0
176
     1
 92
        8
176
     1
 66
     7
176
     1
 43
1.0
176
     1
 76
     1
176
     1
 77
     6
176
     1
 78
     2
176
     1
 67
     7
176
     1
 79
     5
176
     1
170
     0
176
     1
171
     0
176
     1
290
     0
176
     1
 93
        1
176
     1
 44
0.0
176
     1
173
     0
176
     1
  0
VISUALSTYLE
  5
36
102
{ACAD_REACTORS
330
2A
102
}
330
2A
100
AcDbVisualStyle
  2
Brighten
 70
    12
177
     2
291
     1
 71
     2
176
     1
 72
     2
176
     1
 73
     0
176
     1
 90
        0
176
     1
 40
-0.6
176
     1
 41
-30.0
176
     1
 62
     5
 63
     7
421
 16777215
176
     1
 74
     1
176
     1
 91
        4
176
     1
 64
     7
176
     1
 65
   257
176
     1
 75
     1
176
     1
175
     1
176
     1
 42
1.0
176
     1
 92
        8
176
     1
 66
     7
176
     1
 43
1.0
176
     1
 76
     1
176
     1
 77
     6
176
     1
 78
     2
176
     1
 67
     7
176
     1
 79
     5
176
     1
170
     0
176
     1
171
     0
176
     1
290
     0
176
     1
 93
        1
176
     1
 44
50.0
176
     1
173
     0
176
     1
  0
VISUALSTYLE
  5
3A
102
{ACAD_REACTORS
330
2A
102
}
330
2A
100
AcDbVisualStyle
  2
ColorChange
 70
    16
177
     2
291
     1
 71
     2
176
     1
 72
     2
176
     1
 73
     3
176
     1
 90
        0
176
     1
 40
-0.6
176
     1
 41
-30.0
176
     1
 62
     5
 63
     8
421
  8421504
176
     1
 74
     1
176
     1
 91
        4
176
     1
 64
     7
176
     1
 65
   257
176
     1
 75
     1
176
     1
175
     1
176
     1
 42
1.0
176
     1
 92
        8
176
     1
 66
     8
424
  8421504
176
     1
 43
1.0
176
     1
 76
     1
176
     1
 77
     6
176
     1
 78
     2
176
     1
 67
     7
176
     1
 79
     5
176
     1
170
     0
176
     1
171
     0
176
     1
290
     0
176
     1
 93
        1
176
     1
 44
0.0
176
     1
173
     0
176
     1
  0
VISUALSTYLE
  5
34
102
{ACAD_REACTORS
330
2A
102
}
330
2A
100
AcDbVisualStyle
  2
Conceptual
 70
     9
177
     2
291
     0
 71
     3
176
     1
 72
     2
176
     1
 73
     0
176
     1
 90
        0
176
     1
 40
-0.6
176
     1
 41
-30.0
176
     1
 62
     5
 63
     7
421
 16777215
176
     1
 74
     2
176
     1
 91
        2
176
     1
 64
     7
176
     1
 65
   257
176
     1
 75
     1
176
     1
175
     1
176
     1
 42
40.0
176
     1
 92
        8
176
     1
 66
     7
176
     1
 43
1.0
176
     1
 76
     1
176
     1
 77
     6
176
     1
 78
     2
176
     1
 67
     7
176
     1
 79
     3
176
     1
170
     0
176
     1
171
     0
176
     1
290
     0
176
     1
 93
        1
176
     1
 44
0.0
176
     1
173
     0
176
     1
  0
VISUALSTYLE
  5
35
102
{ACAD_REACTORS
330
2A
102
}
330
2A
100
AcDbVisualStyle
  2
Dim
 70
    11
177
     2
291
     1
 71
     2
176
     1
 72
     2
176
     1
 73
     0
176
     1
 90
        0
176
     1
 40
-0.6
176
     1
 41
-30.0
176
     1
 62
     5
 63
     7
421
 16777215
176
     1
 74
     1
176
     1
 91
        4
176
     1
 64
     7
176
     1
 65
   257
176
     1
 75
     1
176
     1
175
     1
176
     1
 42
1.0
176
     1
 92
        8
176
     1
 66
     7
176
     1
 43
1.0
176
     1
 76
     1
176
     1
 77
     6
176
     1
 78
     2
176
     1
 67
     7
176
     1
 79
     5
176
     1
170
     0
176
     1
171
     0
176
     1
290
     0
176
     1
 93
        1
176
     1
 44
-50.0
176
     1
173
     0
176
     1
  0
VISUALSTYLE
  5
39
102
{ACAD_REACTORS
330
2A
102
}
330
2A
100
AcDbVisualStyle
  2
Facepattern
 70
    15
177
     2
291
     1
 71
     2
176
     1
 72
     2
176
     1
 73
     0
176
     1
 90
        0
176
     1
 40
-0.6
176
     1
 41
-30.0
176
     1
 62
     5
 63
     7
421
 16777215
176
     1
 74
     1
176
     1
 91
        4
176
     1
 64
     7
176
     1
 65
   257
176
     1
 75
     1
176
     1
175
     1
176
     1
 42
1.0
176
     1
 92
        8
176
     1
 66
     7
176
     1
 43
1.0
176
     1
 76
     1
176
     1
 77
     6
176
     1
 78
     2
176
     1
 67
     7
176
     1
 79
     5
176
     1
170
     0
176
     1
171
     0
176
     1
290
     0
176
     1
 93
        1
176
     1
 44
0.0
176
     1
173
     0
176
     1
  0
VISUALSTYLE
  5
2B
102
{ACAD_REACTORS
330
2A
102
}
330
2A
100
AcDbVisualStyle
  2
Flat
 70
     0
177
     2
291
     1
 71
     2
176
     1
 72
     1
176
     1
 73
     1
176
     1
 90
        2
176
     1
 40
-0.6
176
     1
 41
30.0
176
     1
 62
     5
 63
     7
421
 16777215
176
     1
 74
     0
176
     1
 91
        4
176
     1
 64
     7
176
     1
 65
   257
176
     1
 75
     1
176
     1
175
     1
176
     1
 42
1.0
176
     1
 92
        8
176
     1
 66
     7
176
     1
 43
1.0
176
     1
 76
     1
176
     1
 77
     6
176
     1
 78
     2
176
     1
 67
     7
176
     1
 79
     5
176
     1
170
     0
176
     1
171
     0
176
     1
290
     0
176
     1
 93
       13
176
     1
 44
0.0
176
     1
173
     0
176
     1
  0
VISUALSTYLE
  5
2C
102
{ACAD_REACTORS
330
2A
102
}
330
2A
100
AcDbVisualStyle
  2
FlatWithEdges
 70
     1
177
     2
291
     1
 71
     2
176
     1
 72
     1
176
     1
 73
     1
176
     1
 90
        2
176
     1
 40
-0.6
176
     1
 41
30.0
176
     1
 62
     5
 63
     7
421
 16777215
176
     1
 74
     1
176
     1
 91
        4
176
     1
 64
     7
176
     1
 65
   257
176
     1
 75
     1
176
     1
175
     1
176
     1
 42
1.0
176
     1
 92
        0
176
     1
 66
   257
176
     1
 43
1.0
176
     1
 76
     1
176
     1
 77
     6
176
     1
 78
     2
176
     1
 67
     7
176
     1
 79
     5
176
     1
170
     0
176
     1
171
     0
176
     1
290
     0
176
     1
 93
       13
176
     1
 44
0.0
176
     1
173
     0
176
     1
  0
VISUALSTYLE
  5
2D
102
{ACAD_REACTORS
330
2A
102
}
330
2A
100
AcDbVisualStyle
  2
Gouraud
 70
     2
177
     2
291
     1
 71
     2
176
     1
 72
     2
176
     1
 73
     1
176
     1
 90
        2
176
     1
 40
-0.6
176
     1
 41
30.0
176
     1
 62
     5
 63
     7
421
 16777215
176
     1
 74
     0
176
     1
 91
        4
176
     1
 64
     7
176
     1
 65
   257
176
     1
 75
     1
176
     1
175
     1
176
     1
 42
1.0
176
     1
 92
        0
176
     1
 66
     7
176
     1
 43
1.0
176
     1
 76
     1
176
     1
 77
     6
176
     1
 78
     2
176
     1
 67
     7
176
     1
 79
     5
176
     1
170
     0
176
     1
171
     0
176
     1
290
     0
176
     1
 93
       13
176
     1
 44
0.0
176
     1
173
     0
176
     1
  0
VISUALSTYLE
  5
2E
102
{ACAD_REACTORS
330
2A
102
}
330
2A
100
AcDbVisualStyle
  2
GouraudWithEdges
 70
     3
177
     2
291
     1
 71
     2
176
     1
 72
     2
176
     1
 73
     1
176
     1
 90
        2
176
     1
 40
-0.6
176
     1
 41
30.0
176
     1
 62
     5
 63
     7
421
 16777215
176
     1
 74
     1
176
     1
 91
        4
176
     1
 64
     7
176
     1
 65
   257
176
     1
 75
     1
176
     1
175
     1
176
     1
 42
1.0
176
     1
 92
        0
176
     1
 66
   257
176
     1
 43
1.0
176
     1
 76
     1
176
     1
 77
     6
176
     1
 78
     2
176
     1
 67
     7
176
     1
 79
     5
176
     1
170
     0
176
     1
171
     0
176
     1
290
     0
176
     1
 93
       13
176
     1
 44
0.0
176
     1
173
     0
176
     1
  0
VISUALSTYLE
  5
38
102
{ACAD_REACTORS
330
2A
102
}
330
2A
100
AcDbVisualStyle
  2
Linepattern
 70
    14
177
     2
291
     1
 71
     2
176
     1
 72
     2
176
     1
 73
     0
176
     1
 90
        0
176
     1
 40
-0.6
176
     1
 41
-30.0
176
     1
 62
     5
 63
     7
421
 16777215
176
     1
 74
     1
176
     1
 91
        4
176
     1
 64
     7
176
     1
 65
   257
176
     1
 75
     7
176
     1
175
     7
176
     1
 42
1.0
176
     1
 92
        8
176
     1
 66
     7
176
     1
 43
1.0
176
     1
 76
     1
176
     1
 77
     6
176
     1
 78
     2
176
     1
 67
     7
176
     1
 79
     5
176
     1
170
     0
176
     1
171
     0
176
     1
290
     0
176
     1
 93
        1
176
     1
 44
0.0
176
     1
173
     0
176
     1
  0
VISUALSTYLE
  5
33
102
{ACAD_REACTORS
330
2A
102
}
330
2A
100
AcDbVisualStyle
  2
Realistic
 70
     8
177
     2
291
     0
 71
     2
176
     1
 72
     2
176
     1
 73
     0
176
     1
 90
        0
176
     1
 40
-0.6
176
     1
 41
-30.0
176
     1
 62
     5
 63
     7
421
 16777215
176
     1
 74
     1
176
     1
 91
        0
176
     1
 64
     7
176
     1
 65
   257
176
     1
 75
     1
176
     1
175
     1
176
     1
 42
1.0
176
     1
 92
        8
176
     1
 66
     8
424
  7895160
176
     1
 43
1.0
176
     1
 76
     1
176
     1
 77
     6
176
     1
 78
     2
176
     1
 67
     7
176
     1
 79
     5
176
     1
170
     0
176
     1
171
     0
176
     1
290
     0
176
     1
 93
       13
176
     1
 44
0.0
176
     1
173
     0
176
     1
  0
VISUALSTYLE
  5
37
102
{ACAD_REACTORS
330
2A
102
}
330
2A
100
AcDbVisualStyle
  2
Thicken
 70
    13
177
     2
291
     1
 71
     2
176
     1
 72
     2
176
     1
 73
     0
176
     1
 90
        0
176
     1
 40
-0.6
176
     1
 41
-30.0
176
     1
 62
     5
 63
     7
421
 16777215
176
     1
 74
     1
176
     1
 91
        4
176
     1
 64
     7
176
     1
 65
   257
176
     1
 75
     1
176
     1
175
     1
176
     1
 42
1.0
176
     1
 92
       12
176
     1
 66
     7
176
     1
 43
1.0
176
     1
 76
     1
176
     1
 77
     6
176
     1
 78
     2
176
     1
 67
     7
176
     1
 79
     5
176
     1
170
     0
176
     1
171
     0
176
     1
290
     0
176
     1
 93
        1
176
     1
 44
0.0
176
     1
173
     0
176
     1
  0
ENDSEC
  0
EOF
