  0
SECTION
  2
HEADER
  9
$ACADVER
  1
AC1024
  9
$ACADMAINTVER
 70
     6
  9
$DWGCODEPAGE
  3
ANSI_932
  9
$INSBASE
 10
0.0
 20
0.0
 30
0.0
  9
$EXTMIN
 10
-8910.0
 20
-6300.0
 30
0.0
  9
$EXTMAX
 10
8910.0
 20
6300.0
 30
0.0
  9
$LIMMIN
 10
-8910.0
 20
-6300.0
  9
$LIMMAX
 10
8910.0
 20
6300.0
  9
$ORTHOMODE
 70
     0
  9
$REGENMODE
 70
     1
  9
$FILLMODE
 70
     1
  9
$QTEXTMODE
 70
     0
  9
$MIRRTEXT
 70
     1
  9
$LTSCALE
 40
30.0
  9
$ATTMODE
 70
     1
  9
$TEXTSIZE
 40
2.5
  9
$TRACEWID
 40
1.0
  9
$TEXTSTYLE
  7
Standard
  9
$CLAYER
  8
0
  9
$CELTYPE
  6
ByLayer
  9
$CECOLOR
 62
   256
  9
$CELTSCALE
 40
1.0
  9
$DISPSILH
 70
     0
  9
$DIMSCALE
 40
1.0
  9
$DIMASZ
 40
2.5
  9
$DIMEXO
 40
0.625
  9
$DIMDLI
 40
3.75
  9
$DIMRND
 40
0.0
  9
$DIMDLE
 40
0.0
  9
$DIMEXE
 40
1.25
  9
$DIMTP
 40
0.0
  9
$DIMTM
 40
0.0
  9
$DIMTXT
 40
2.5
  9
$DIMCEN
 40
2.5
  9
$DIMTSZ
 40
0.0
  9
$DIMTOL
 70
     0
  9
$DIMLIM
 70
     0
  9
$DIMTIH
 70
     0
  9
$DIMTOH
 70
     0
  9
$DIMSE1
 70
     0
  9
$DIMSE2
 70
     0
  9
$DIMTAD
 70
     1
  9
$DIMZIN
 70
     8
  9
$DIMBLK
  1

  9
$DIMASO
 70
     1
  9
$DIMSHO
 70
     1
  9
$DIMPOST
  1

  9
$DIMAPOST
  1

  9
$DIMALT
 70
     0
  9
$DIMALTD
 70
     3
  9
$DIMALTF
 40
0.03937007874016
  9
$DIMLFAC
 40
1.0
  9
$DIMTOFL
 70
     1
  9
$DIMTVP
 40
0.0
  9
$DIMTIX
 70
     0
  9
$DIMSOXD
 70
     0
  9
$DIMSAH
 70
     0
  9
$DIMBLK1
  1

  9
$DIMBLK2
  1

  9
$DIMSTYLE
  2
ISO-25
  9
$DIMCLRD
 70
     0
  9
$DIMCLRE
 70
     0
  9
$DIMCLRT
 70
     0
  9
$DIMTFAC
 40
1.0
  9
$DIMGAP
 40
0.625
  9
$DIMJUST
 70
     0
  9
$DIMSD1
 70
     0
  9
$DIMSD2
 70
     0
  9
$DIMTOLJ
 70
     0
  9
$DIMTZIN
 70
     8
  9
$DIMALTZ
 70
     0
  9
$DIMALTTZ
 70
     0
  9
$DIMUPT
 70
     0
  9
$DIMDEC
 70
     2
  9
$DIMTDEC
 70
     2
  9
$DIMALTU
 70
     2
  9
$DIMALTTD
 70
     3
  9
$DIMTXSTY
  7
Standard
  9
$DIMAUNIT
 70
     0
  9
$DIMADEC
 70
     0
  9
$DIMALTRND
 40
0.0
  9
$DIMAZIN
 70
     0
  9
$DIMDSEP
 70
    44
  9
$DIMATFIT
 70
     3
  9
$DIMFRAC
 70
     0
  9
$DIMLDRBLK
  1

  9
$DIMLUNIT
 70
     2
  9
$DIMLWD
 70
    -2
  9
$DIMLWE
 70
    -2
  9
$DIMTMOVE
 70
     0
  9
$DIMFXL
 40
1.0
  9
$DIMFXLON
 70
     0
  9
$DIMJOGANG
 40
0.7853981633974483
  9
$DIMTFILL
 70
     0
  9
$DIMTFILLCLR
 70
     0
  9
$DIMARCSYM
 70
     0
  9
$DIMLTYPE
  6

  9
$DIMLTEX1
  6

  9
$DIMLTEX2
  6

  9
$DIMTXTDIRECTION
 70
     0
  9
$LUNITS
 70
     2
  9
$LUPREC
 70
     4
  9
$SKETCHINC
 40
1.0
  9
$FILLETRAD
 40
10.0
  9
$AUNITS
 70
     0
  9
$AUPREC
 70
     0
  9
$MENU
  1
.
  9
$ELEVATION
 40
0.0
  9
$PELEVATION
 40
0.0
  9
$THICKNESS
 40
0.0
  9
$LIMCHECK
 70
     0
  9
$CHAMFERA
 40
10.0
  9
$CHAMFERB
 40
10.0
  9
$CHAMFERC
 40
20.0
  9
$CHAMFERD
 40
0.0
  9
$SKPOLY
 70
     0
  9
$TDCREATE
 40
2459682.470116053
  9
$TDUCREATE
 40
2459682.095116053
  9
$TDUPDATE
 40
2459682.470116065
  9
$TDUUPDATE
 40
2459682.095116065
  9
$TDINDWG
 40
0.0000000116
  9
$TDUSRTIMER
 40
0.0000000116
  9
$USRTIMER
 70
     1
  9
$ANGBASE
 50
0.0
  9
$ANGDIR
 70
     0
  9
$PDMODE
 70
     0
  9
$PDSIZE
 40
0.0
  9
$PLINEWID
 40
0.0
  9
$SPLFRAME
 70
     0
  9
$SPLINETYPE
 70
     6
  9
$SPLINESEGS
 70
     8
  9
$HANDSEED
  5
57E
  9
$SURFTAB1
 70
     6
  9
$SURFTAB2
 70
     6
  9
$SURFTYPE
 70
     6
  9
$SURFU
 70
     6
  9
$SURFV
 70
     6
  9
$UCSBASE
  2

  9
$UCSNAME
  2

  9
$UCSORG
 10
0.0
 20
0.0
 30
0.0
  9
$UCSXDIR
 10
1.0
 20
0.0
 30
0.0
  9
$UCSYDIR
 10
0.0
 20
1.0
 30
0.0
  9
$UCSORTHOREF
  2

  9
$UCSORTHOVIEW
 70
     0
  9
$UCSORGTOP
 10
0.0
 20
0.0
 30
0.0
  9
$UCSORGBOTTOM
 10
0.0
 20
0.0
 30
0.0
  9
$UCSORGLEFT
 10
0.0
 20
0.0
 30
0.0
  9
$UCSORGRIGHT
 10
0.0
 20
0.0
 30
0.0
  9
$UCSORGFRONT
 10
0.0
 20
0.0
 30
0.0
  9
$UCSORGBACK
 10
0.0
 20
0.0
 30
0.0
  9
$PUCSBASE
  2

  9
$PUCSNAME
  2

  9
$PUCSORG
 10
0.0
 20
0.0
 30
0.0
  9
$PUCSXDIR
 10
1.0
 20
0.0
 30
0.0
  9
$PUCSYDIR
 10
0.0
 20
1.0
 30
0.0
  9
$PUCSORTHOREF
  2

  9
$PUCSORTHOVIEW
 70
     0
  9
$PUCSORGTOP
 10
0.0
 20
0.0
 30
0.0
  9
$PUCSORGBOTTOM
 10
0.0
 20
0.0
 30
0.0
  9
$PUCSORGLEFT
 10
0.0
 20
0.0
 30
0.0
  9
$PUCSORGRIGHT
 10
0.0
 20
0.0
 30
0.0
  9
$PUCSORGFRONT
 10
0.0
 20
0.0
 30
0.0
  9
$PUCSORGBACK
 10
0.0
 20
0.0
 30
0.0
  9
$USERI1
 70
     0
  9
$USERI2
 70
     0
  9
$USERI3
 70
     0
  9
$USERI4
 70
     0
  9
$USERI5
 70
     0
  9
$USERR1
 40
0.0
  9
$USERR2
 40
0.0
  9
$USERR3
 40
0.0
  9
$USERR4
 40
0.0
  9
$USERR5
 40
0.0
  9
$WORLDVIEW
 70
     1
  9
$SHADEDGE
 70
     3
  9
$SHADEDIF
 70
    70
  9
$TILEMODE
 70
     1
  9
$MAXACTVP
 70
    64
  9
$PINSBASE
 10
0.0
 20
0.0
 30
0.0
  9
$PLIMCHECK
 70
     0
  9
$PEXTMIN
 10
1.000000000000000E+20
 20
1.000000000000000E+20
 30
1.000000000000000E+20
  9
$PEXTMAX
 10
-1.000000000000000E+20
 20
-1.000000000000000E+20
 30
-1.000000000000000E+20
  9
$PLIMMIN
 10
0.0
 20
0.0
  9
$PLIMMAX
 10
420.0
 20
297.0
  9
$UNITMODE
 70
     0
  9
$VISRETAIN
 70
     1
  9
$PLINEGEN
 70
     0
  9
$PSLTSCALE
 70
     1
  9
$TREEDEPTH
 70
  3020
  9
$CMLSTYLE
  2
Standard
  9
$CMLJUST
 70
     0
  9
$CMLSCALE
 40
20.0
  9
$PROXYGRAPHICS
 70
     1
  9
$MEASUREMENT
 70
     1
  9
$CELWEIGHT
370
    -1
  9
$ENDCAPS
280
     0
  9
$JOINSTYLE
280
     0
  9
$LWDISPLAY
290
     0
  9
$INSUNITS
 70
     4
  9
$HYPERLINKBASE
  1

  9
$STYLESHEET
  1

  9
$XEDIT
290
     1
  9
$CEPSNTYPE
380
     0
  9
$PSTYLEMODE
290
     1
  9
$FINGERPRINTGUID
  2
{40BE6C20-F19F-466D-8733-595B6872ACFE}
  9
$VERSIONGUID
  2
{FAEB1C32-E019-11D5-929B-00C0DF256EC4}
  9
$EXTNAMES
290
     1
  9
$PSVPSCALE
 40
0.0
  9
$OLESTARTUP
290
     0
  9
$SORTENTS
280
   127
  9
$INDEXCTL
280
     0
  9
$HIDETEXT
280
     1
  9
$XCLIPFRAME
280
     2
  9
$HALOGAP
280
     0
  9
$OBSCOLOR
 70
   257
  9
$OBSLTYPE
280
     0
  9
$INTERSECTIONDISPLAY
280
     0
  9
$INTERSECTIONCOLOR
 70
   257
  9
$DIMASSOC
280
     2
  9
$PROJECTNAME
  1

  9
$CAMERADISPLAY
290
     0
  9
$LENSLENGTH
 40
50.0
  9
$CAMERAHEIGHT
 40
0.0
  9
$STEPSPERSEC
 40
2.0
  9
$STEPSIZE
 40
6.0
  9
$3DDWFPREC
 40
2.0
  9
$PSOLWIDTH
 40
5.0
  9
$PSOLHEIGHT
 40
80.0
  9
$LOFTANG1
 40
1.570796326794897
  9
$LOFTANG2
 40
1.570796326794897
  9
$LOFTMAG1
 40
0.0
  9
$LOFTMAG2
 40
0.0
  9
$LOFTPARAM
 70
     7
  9
$LOFTNORMALS
280
     1
  9
$LATITUDE
 40
37.795
  9
$LONGITUDE
 40
-122.394
  9
$NORTHDIRECTION
 40
0.0
  9
$TIMEZONE
 70
 -8000
  9
$LIGHTGLYPHDISPLAY
280
     1
  9
$TILEMODELIGHTSYNCH
280
     1
  9
$SOLIDHIST
280
     1
  9
$SHOWHIST
280
     1
  9
$DWFFRAME
280
     2
  9
$DGNFRAME
280
     2
  9
$REALWORLDSCALE
290
     1
  9
$INTERFERECOLOR
 62
   256
  9
$CSHADOW
280
     0
  9
$SHADOWPLANELOCATION
 40
0.0
  0
ENDSEC
  0
SECTION
  2
CLASSES
  0
CLASS
  1
ACDBDICTIONARYWDFLT
  2
AcDbDictionaryWithDefault
  3
ObjectDBX Classes
 90
        0
 91
        4
280
     0
281
     0
  0
CLASS
  1
VISUALSTYLE
  2
AcDbVisualStyle
  3
ObjectDBX Classes
 90
     4095
 91
        4
280
     0
281
     0
  0
CLASS
  1
MATERIAL
  2
AcDbMaterial
  3
ObjectDBX Classes
 90
     1153
 91
        4
280
     0
281
     0
  0
ENDSEC
  0
SECTION
  2
TABLES
  0
TABLE
  2
VPORT
  5
8
330
0
100
AcDbSymbolTable
 70
     1
  0
VPORT
  5
29
330
8
100
AcDbSymbolTableRecord
100
AcDbViewportTableRecord
  2
*Active
 70
     0
 10
0.0
 20
0.0
 11
1.0
 21
1.0
 12
0.0
 22
0.0
 13
0.0
 23
0.0
 14
10.0
 24
10.0
 15
10.0
 25
10.0
 16
0.0
 26
0.0
 36
1.0
 17
0.0
 27
0.0
 37
0.0
 40
13860.0
 41
1.414285714285714
 42
50.0
 43
0.0
 44
0.0
 50
0.0
 51
0.0
 71
     0
 72
 10000
 73
     1
 74
     3
 75
     0
 76
     0
 77
     0
 78
     0
281
     0
 65
     1
110
0.0
120
0.0
130
0.0
111
1.0
121
0.0
131
0.0
112
0.0
122
1.0
132
0.0
 79
     0
146
0.0
 60
     3
 61
     5
292
     1
282
     1
141
0.0
142
0.0
 63
   250
  0
ENDTAB
  0
TABLE
  2
LTYPE
  5
5
330
0
100
AcDbSymbolTable
 70
     5
  0
LTYPE
  5
14
330
5
100
AcDbSymbolTableRecord
100
AcDbLinetypeTableRecord
  2
ByBlock
 70
     0
  3

 72
    65
 73
     0
 40
0.0
  0
LTYPE
  5
15
330
5
100
AcDbSymbolTableRecord
100
AcDbLinetypeTableRecord
  2
ByLayer
 70
     0
  3

 72
    65
 73
     0
 40
0.0
  0
LTYPE
  5
16
330
5
100
AcDbSymbolTableRecord
100
AcDbLinetypeTableRecord
  2
Continuous
 70
     0
  3
Solid line
 72
    65
 73
     0
 40
0.0
  0
LTYPE
  5
3F
330
5
100
AcDbSymbolTableRecord
100
AcDbLinetypeTableRecord
  2
JWW_HOJO
 70
     0
  3
  -   -   -   -   -   -   -   - 
 72
    65
 73
     2
 40
1.693333333333333
 49
-1.27
 74
     0
 49
0.4233333333333333
 74
     0
  0
LTYPE
  5
40
330
5
100
AcDbSymbolTableRecord
100
AcDbLinetypeTableRecord
  2
JWW_DASHED2
 70
     0
  3
--    ----    ----    ----    --
 72
    65
 73
     2
 40
3.386666666666667
 49
1.693333333333333
 74
     0
 49
-1.693333333333333
 74
     0
  0
LTYPE
  5
41
330
5
100
AcDbSymbolTableRecord
100
AcDbLinetypeTableRecord
  2
JWW_CENTER1
 70
     0
  3
-----  --  ----------  --  -----
 72
    65
 73
     4
 40
6.773333333333333
 49
4.233333333333333
 74
     0
 49
-0.8466666666666667
 74
     0
 49
0.8466666666666667
 74
     0
 49
-0.8466666666666667
 74
     0
  0
LTYPE
  5
42
330
5
100
AcDbSymbolTableRecord
100
AcDbLinetypeTableRecord
  2
JWW_DASHED1
 70
     0
  3
-  --  --  --  --  --  --  --  -
 72
    65
 73
     2
 40
1.693333333333333
 49
0.8466666666666667
 74
     0
 49
-0.8466666666666667
 74
     0
  0
ENDTAB
  0
TABLE
  2
LAYER
  5
2
330
0
100
AcDbSymbolTable
 70
    22
  0
LAYER
  5
10
330
2
100
AcDbSymbolTableRecord
100
AcDbLayerTableRecord
  2
0
 70
     0
 62
     7
  6
Continuous
370
    -3
390
F
347
3E
  0
LAYER
  5
43
330
2
100
AcDbSymbolTableRecord
100
AcDbLayerTableRecord
  2
F-1_枠
 70
     0
 62
     7
  6
Continuous
370
    -3
390
F
347
3E
  0
LAYER
  5
44
330
2
100
AcDbSymbolTableRecord
100
AcDbLayerTableRecord
  2
戸当り
 70
     0
 62
     7
  6
Continuous
370
    -3
390
F
347
3E
  0
LAYER
  5
45
330
2
100
AcDbSymbolTableRecord
100
AcDbLayerTableRecord
  2
0-A_文字
 70
     0
 62
     7
  6
Continuous
370
    -3
390
F
347
3E
  0
LAYER
  5
46
330
2
100
AcDbSymbolTableRecord
100
AcDbLayerTableRecord
  2
0-0_補助線
 70
     0
 62
     7
  6
Continuous
370
    -3
390
F
347
3E
  0
LAYER
  5
47
330
2
100
AcDbSymbolTableRecord
100
AcDbLayerTableRecord
  2
0-B_寸法
 70
     0
 62
     7
  6
Continuous
370
    -3
390
F
347
3E
  0
LAYER
  5
48
330
2
100
AcDbSymbolTableRecord
100
AcDbLayerTableRecord
  2
0-1_通り芯
 70
     0
 62
     7
  6
Continuous
370
    -3
390
F
347
3E
  0
LAYER
  5
49
330
2
100
AcDbSymbolTableRecord
100
AcDbLayerTableRecord
  2
0-C_ハッチ
 70
     0
 62
     7
  6
Continuous
370
    -3
390
F
347
3E
  0
LAYER
  5
4A
330
2
100
AcDbSymbolTableRecord
100
AcDbLayerTableRecord
  2
0-3_仕上げ
 70
     0
 62
     7
  6
Continuous
370
    -3
390
F
347
3E
  0
LAYER
  5
4B
330
2
100
AcDbSymbolTableRecord
100
AcDbLayerTableRecord
  2
0-2_柱
 70
     0
 62
     7
  6
Continuous
370
    -3
390
F
347
3E
  0
LAYER
  5
4C
330
2
100
AcDbSymbolTableRecord
100
AcDbLayerTableRecord
  2
0-4_枠
 70
     0
 62
     7
  6
Continuous
370
    -3
390
F
347
3E
  0
LAYER
  5
4D
330
2
100
AcDbSymbolTableRecord
100
AcDbLayerTableRecord
  2
0-7_金物
 70
     0
 62
     7
  6
Continuous
370
    -3
390
F
347
3E
  0
LAYER
  5
4E
330
2
100
AcDbSymbolTableRecord
100
AcDbLayerTableRecord
  2
0-6_扉
 70
     0
 62
     7
  6
Continuous
370
    -3
390
F
347
3E
  0
LAYER
  5
4F
330
2
100
AcDbSymbolTableRecord
100
AcDbLayerTableRecord
  2
0-5_ケーシング
 70
     0
 62
     7
  6
Continuous
370
    -3
390
F
347
3E
  0
LAYER
  5
50
330
2
100
AcDbSymbolTableRecord
100
AcDbLayerTableRecord
  2
1-B_寸法
 70
     0
 62
     7
  6
Continuous
370
    -3
390
F
347
3E
  0
LAYER
  5
51
330
2
100
AcDbSymbolTableRecord
100
AcDbLayerTableRecord
  2
1-A_文字
 70
     0
 62
     7
  6
Continuous
370
    -3
390
F
347
3E
  0
LAYER
  5
52
330
2
100
AcDbSymbolTableRecord
100
AcDbLayerTableRecord
  2
1-6_扉
 70
     0
 62
     7
  6
Continuous
370
    -3
390
F
347
3E
  0
LAYER
  5
53
330
2
100
AcDbSymbolTableRecord
100
AcDbLayerTableRecord
  2
1-7_金物
 70
     0
 62
     7
  6
Continuous
370
    -3
390
F
347
3E
  0
LAYER
  5
54
330
2
100
AcDbSymbolTableRecord
100
AcDbLayerTableRecord
  2
1-4_枠
 70
     0
 62
     7
  6
Continuous
370
    -3
390
F
347
3E
  0
LAYER
  5
55
330
2
100
AcDbSymbolTableRecord
100
AcDbLayerTableRecord
  2
1-0_補助線
 70
     0
 62
     7
  6
Continuous
370
    -3
390
F
347
3E
  0
LAYER
  5
56
330
2
100
AcDbSymbolTableRecord
100
AcDbLayerTableRecord
  2
1-3_仕上げ
 70
     0
 62
     7
  6
Continuous
370
    -3
390
F
347
3E
  0
LAYER
  5
57
330
2
100
AcDbSymbolTableRecord
100
AcDbLayerTableRecord
  2
1-1_通り芯
 70
     0
 62
     7
  6
Continuous
370
    -3
390
F
347
3E
  0
ENDTAB
  0
TABLE
  2
STYLE
  5
3
330
0
100
AcDbSymbolTable
 70
     1
  0
STYLE
  5
11
330
3
100
AcDbSymbolTableRecord
100
AcDbTextStyleTableRecord
  2
Standard
 70
     0
 40
0.0
 41
1.0
 50
0.0
 71
     0
 42
2.5
  3
txt
  4

  0
ENDTAB
  0
TABLE
  2
VIEW
  5
6
330
0
100
AcDbSymbolTable
 70
     0
  0
ENDTAB
  0
TABLE
  2
UCS
  5
7
330
0
100
AcDbSymbolTable
 70
     0
  0
ENDTAB
  0
TABLE
  2
APPID
  5
9
330
0
100
AcDbSymbolTable
 70
     1
  0
APPID
  5
12
330
9
100
AcDbSymbolTableRecord
100
AcDbRegAppTableRecord
  2
ACAD
 70
     0
  0
ENDTAB
  0
TABLE
  2
DIMSTYLE
  5
A
330
0
100
AcDbSymbolTable
 70
     1
100
AcDbDimStyleTable
  0
DIMSTYLE
105
27
330
A
100
AcDbSymbolTableRecord
100
AcDbDimStyleTableRecord
  2
ISO-25
 70
     0
 41
2.5
 42
0.625
 43
3.75
 44
1.25
 73
     0
 74
     0
 77
     1
 78
     8
140
2.5
141
2.5
143
0.03937007874016
147
0.625
171
     3
172
     1
178
     0
271
     2
272
     2
274
     3
278
    44
283
     0
284
     8
340
11
  0
ENDTAB
  0
TABLE
  2
BLOCK_RECORD
  5
1
330
0
100
AcDbSymbolTable
 70
     1
  0
BLOCK_RECORD
  5
1F
330
1
100
AcDbSymbolTableRecord
100
AcDbBlockTableRecord
  2
*Model_Space
340
22
 70
     0
280
     1
281
     0
  0
BLOCK_RECORD
  5
1B
330
1
100
AcDbSymbolTableRecord
100
AcDbBlockTableRecord
  2
*Paper_Space
340
1E
 70
     0
280
     1
281
     0
  0
BLOCK_RECORD
  5
23
330
1
100
AcDbSymbolTableRecord
100
AcDbBlockTableRecord
  2
*Paper_Space0
340
26
 70
     0
280
     1
281
     0
  0
ENDTAB
  0
ENDSEC
  0
SECTION
  2
BLOCKS
  0
BLOCK
  5
20
330
1F
100
AcDbEntity
  8
0
100
AcDbBlockBegin
  2
*Model_Space
 70
     0
 10
0.0
 20
0.0
 30
0.0
  3
*Model_Space
  1

  0
ENDBLK
  5
21
330
1F
100
AcDbEntity
  8
0
100
AcDbBlockEnd
  0
BLOCK
  5
1C
330
1B
100
AcDbEntity
 67
     1
  8
0
100
AcDbBlockBegin
  2
*Paper_Space
 70
     0
 10
0.0
 20
0.0
 30
0.0
  3
*Paper_Space
  1

  0
ENDBLK
  5
1D
330
1B
100
AcDbEntity
 67
     1
  8
0
100
AcDbBlockEnd
  0
BLOCK
  5
24
330
23
100
AcDbEntity
  8
0
100
AcDbBlockBegin
  2
*Paper_Space0
 70
     0
 10
0.0
 20
0.0
 30
0.0
  3
*Paper_Space0
  1

  0
ENDBLK
  5
25
330
23
100
AcDbEntity
  8
0
100
AcDbBlockEnd
  0
ENDSEC
  0
SECTION
  2
ENTITIES
  0
LINE
  5
58
330
1F
100
AcDbEntity
  8
F-1_枠
  6
JWW_HOJO
 62
   120
370
     5
100
AcDbLine
 10
-6140.081333436773
 20
-4455.0
 30
0.0
 11
-6140.081333436773
 21
4424.999604096284
 31
0.0
  0
LINE
  5
59
330
1F
100
AcDbEntity
  8
F-1_枠
  6
JWW_HOJO
 62
   120
370
     5
100
AcDbLine
 10
-6140.081333436773
 20
4424.999604096284
 30
0.0
 11
6159.917676803936
 21
4424.999604096284
 31
0.0
  0
LINE
  5
5A
330
1F
100
AcDbEntity
  8
F-1_枠
  6
JWW_HOJO
 62
   120
370
     5
100
AcDbLine
 10
6159.917676803936
 20
4424.999604096284
 30
0.0
 11
6159.917676803936
 21
-4455.0
 31
0.0
  0
LINE
  5
5B
330
1F
100
AcDbEntity
  8
F-1_枠
  6
JWW_HOJO
 62
   120
370
     5
100
AcDbLine
 10
6159.917676803936
 20
-4455.0
 30
0.0
 11
-6140.081333436773
 21
-4455.0
 31
0.0
  0
LINE
  5
5C
330
1F
100
AcDbEntity
  8
F-1_枠
  6
JWW_HOJO
 62
     7
370
     9
100
AcDbLine
 10
1009.918254163523
 20
-3795.000003092998
 30
0.0
 11
1009.918254163523
 21
-4195.000008247994
 31
0.0
  0
LINE
  5
5D
330
1F
100
AcDbEntity
  8
F-1_枠
  6
JWW_HOJO
 62
     7
370
     9
100
AcDbLine
 10
509.9185840832865
 20
-3795.000003092998
 30
0.0
 11
509.9185840832865
 21
-4195.000008247994
 31
0.0
  0
LINE
  5
5E
330
1F
100
AcDbEntity
  8
F-1_枠
  6
Continuous
 62
   200
370
    20
100
AcDbLine
 10
5859.917429364114
 20
4174.999769056166
 30
0.0
 11
5859.917429364114
 21
-4205.000164959882
 31
0.0
  0
LINE
  5
5F
330
1F
100
AcDbEntity
  8
F-1_枠
  6
Continuous
 62
   200
370
    20
100
AcDbLine
 10
-5840.081317971782
 20
4174.999769056166
 30
0.0
 11
-5840.081317971782
 21
-4205.000164959882
 31
0.0
  0
LINE
  5
60
330
1F
100
AcDbEntity
  8
F-1_枠
  6
Continuous
 62
   200
370
    20
100
AcDbLine
 10
5859.917429364114
 20
-4205.000002577498
 30
0.0
 11
-5840.081085996952
 21
-4205.000002577498
 31
0.0
  0
LINE
  5
61
330
1F
100
AcDbEntity
  8
F-1_枠
  6
Continuous
 62
   200
370
    20
100
AcDbLine
 10
-5830.081323642279
 20
4174.999769056166
 30
0.0
 11
-5830.081323642279
 21
-4205.000164959882
 31
0.0
  0
LINE
  5
62
330
1F
100
AcDbEntity
  8
F-1_枠
  6
Continuous
 62
   200
370
    20
100
AcDbLine
 10
-5835.081309208291
 20
4174.999769056166
 30
0.0
 11
-5835.081309208291
 21
-4205.000164959882
 31
0.0
  0
LINE
  5
63
330
1F
100
AcDbEntity
  8
F-1_枠
  6
Continuous
 62
   200
370
    20
100
AcDbLine
 10
5854.917165428304
 20
4174.999769056166
 30
0.0
 11
5854.917165428304
 21
-4205.000164959882
 31
0.0
  0
LINE
  5
64
330
1F
100
AcDbEntity
  8
F-1_枠
  6
Continuous
 62
   200
370
    20
100
AcDbLine
 10
5849.917643811961
 20
4174.999769056166
 30
0.0
 11
5849.917643811961
 21
-4205.000164959882
 31
0.0
  0
LINE
  5
65
330
1F
100
AcDbEntity
  8
F-1_枠
  6
Continuous
 62
   200
370
    20
100
AcDbLine
 10
5859.917429364114
 20
-4199.999993814004
 30
0.0
 11
-5840.081085996952
 21
-4199.999993814004
 31
0.0
  0
LINE
  5
66
330
1F
100
AcDbEntity
  8
F-1_枠
  6
Continuous
 62
   200
370
    20
100
AcDbLine
 10
5859.917429364114
 20
-4195.000008247994
 30
0.0
 11
-5840.081085996952
 21
-4195.000008247994
 31
0.0
  0
LINE
  5
67
330
1F
100
AcDbEntity
  8
F-1_枠
  6
Continuous
 62
   200
370
    20
100
AcDbLine
 10
4349.917891251784
 20
-3795.000003092998
 30
0.0
 11
4349.917891251784
 21
-4195.000008247994
 31
0.0
  0
LINE
  5
68
330
1F
100
AcDbEntity
  8
F-1_枠
  6
Continuous
 62
   200
370
    20
100
AcDbLine
 10
2849.917396372139
 20
-3795.000003092998
 30
0.0
 11
2849.917396372139
 21
-4195.000008247994
 31
0.0
  0
LINE
  5
69
330
1F
100
AcDbEntity
  8
F-1_枠
  6
Continuous
 62
   200
370
    20
100
AcDbLine
 10
9.918542843316231
 20
-3795.000003092998
 30
0.0
 11
9.918542843316231
 21
-4195.000008247994
 31
0.0
  0
LINE
  5
6A
330
1F
100
AcDbEntity
  8
F-1_枠
  6
Continuous
 62
   200
370
    20
100
AcDbLine
 10
9.918542843316231
 20
-3994.999936078046
 30
0.0
 11
5849.917643811961
 21
-3995.005364289155
 31
0.0
  0
LINE
  5
6B
330
1F
100
AcDbEntity
  8
F-1_枠
  6
Continuous
 62
   200
370
    20
100
AcDbLine
 10
-5840.081085996952
 20
4174.999769056166
 30
0.0
 11
5859.917429364114
 21
4174.999769056166
 31
0.0
  0
LINE
  5
6C
330
1F
100
AcDbEntity
  8
F-1_枠
  6
Continuous
 62
   200
370
    20
100
AcDbLine
 10
-5840.081085996952
 20
4164.999983504013
 30
0.0
 11
5859.917429364114
 21
4164.999983504013
 31
0.0
  0
LINE
  5
6D
330
1F
100
AcDbEntity
  8
F-1_枠
  6
Continuous
 62
   200
370
    20
100
AcDbLine
 10
-5840.081085996952
 20
4169.999505120355
 30
0.0
 11
5859.917429364114
 21
4169.999505120355
 31
0.0
  0
LINE
  5
6E
330
1F
100
AcDbEntity
  8
F-1_枠
  6
JWW_HOJO
 62
     7
370
     9
100
AcDbLine
 10
-5830.081323642279
 20
-3994.99993607839
 30
0.0
 11
9.918542843316231
 21
-3994.99993607839
 31
0.0
  0
LINE
  5
6F
330
1F
100
AcDbEntity
  8
F-1_枠
  6
JWW_HOJO
 62
     7
370
     9
100
AcDbLine
 10
-5830.081323642279
 20
-3904.99993607839
 30
0.0
 11
9.918542843316231
 21
-3904.99993607839
 31
0.0
  0
LINE
  5
70
330
1F
100
AcDbEntity
  8
F-1_枠
  6
JWW_HOJO
 62
     7
370
     9
100
AcDbLine
 10
-5830.081323642279
 20
-4084.99993607839
 30
0.0
 11
9.918542843316231
 21
-4084.99993607839
 31
0.0
  0
LINE
  5
71
330
1F
100
AcDbEntity
  8
F-1_枠
  6
JWW_HOJO
 62
     7
370
     9
100
AcDbLine
 10
9.918408067688347
 20
-4139.999739777983
 30
0.0
 11
5849.917509036332
 21
-4140.005167989091
 31
0.0
  0
LINE
  5
72
330
1F
100
AcDbEntity
  8
F-1_枠
  6
JWW_HOJO
 62
     7
370
     9
100
AcDbLine
 10
9.918491721639953
 20
-4049.999739778022
 30
0.0
 11
5849.917592690284
 21
-4050.005167989131
 31
0.0
  0
LINE
  5
73
330
1F
100
AcDbEntity
  8
F-1_枠
  6
JWW_HOJO
 62
     7
370
     9
100
AcDbLine
 10
9.918593965360003
 20
-3939.99973721807
 30
0.0
 11
5849.917694934004
 21
-3940.005165429179
 31
0.0
  0
LINE
  5
74
330
1F
100
AcDbEntity
  8
F-1_枠
  6
JWW_HOJO
 62
     7
370
     9
100
AcDbLine
 10
9.918677619311609
 20
-3849.999737218109
 30
0.0
 11
5849.917778587956
 21
-3850.005165429218
 31
0.0
  0
LINE
  5
75
330
1F
100
AcDbEntity
  8
F-1_枠
  6
JWW_HOJO
 62
     7
370
     9
100
AcDbLine
 10
2939.917396372139
 20
-3795.000003092998
 30
0.0
 11
2939.917396372139
 21
-4195.000008247994
 31
0.0
  0
LINE
  5
76
330
1F
100
AcDbEntity
  8
F-1_枠
  6
JWW_HOJO
 62
     7
370
     9
100
AcDbLine
 10
99.91854284331623
 20
-3795.000003092998
 30
0.0
 11
99.91854284331623
 21
-4195.000008247994
 31
0.0
  0
LINE
  5
77
330
1F
100
AcDbEntity
  8
F-1_枠
  6
JWW_HOJO
 62
     7
370
     9
100
AcDbLine
 10
4439.917891251784
 20
-3795.000003092998
 30
0.0
 11
4439.917891251784
 21
-4195.000008247994
 31
0.0
  0
MTEXT
  5
78
330
1F
100
AcDbEntity
  8
F-1_枠
  6
Continuous
 62
     7
370
     0
100
AcDbMText
 10
509.9185840832865
 20
-3946.496666872503
 30
0.0
 40
78.58125
 41
412.5
 46
0.0
 71
     7
 72
     1
  1
{\fＭＳ ゴシック|b0|i0|c128|p49;DOORETUS}
 73
     1
 44
1.0
  0
MTEXT
  5
79
330
1F
100
AcDbEntity
  8
F-1_枠
  6
Continuous
 62
     7
370
     0
100
AcDbMText
 10
1110.209427605311
 20
-3946.734791872504
 30
0.0
 40
78.105
 41
615.0
 46
0.0
 71
     7
 72
     1
  1
{\fＭＳ ゴシック|b0|i0|c128|p49;建具納まり図}
 73
     1
 44
1.0
  0
MTEXT
  5
7A
330
1F
100
AcDbEntity
  8
F-1_枠
  6
Continuous
 62
     7
370
     0
100
AcDbMText
 10
99.91854284331623
 20
-3887.139820871936
 30
0.0
 40
45.72
 41
180.0
 46
0.0
 71
     7
 72
     1
  1
{\fＭＳ ゴシック|b0|i0|c128|p49;図面名}
 73
     1
 44
1.0
  0
MTEXT
  5
7B
330
1F
100
AcDbEntity
  8
F-1_枠
  6
Continuous
 62
     7
370
     0
100
AcDbMText
 10
2939.917396372139
 20
-3887.142460617774
 30
0.0
 40
45.72
 41
300.0
 46
0.0
 71
     7
 72
     1
  1
{\fＭＳ ゴシック|b0|i0|c128|p49;ＳＣＡＬＥ}
 73
     1
 44
1.0
  0
MTEXT
  5
7C
330
1F
100
AcDbEntity
  8
F-1_枠
  6
Continuous
 62
     7
370
     0
100
AcDbMText
 10
4439.917891251784
 20
-3887.143854850754
 30
0.0
 40
45.72
 41
240.0
 46
0.0
 71
     7
 72
     1
  1
{\fＭＳ ゴシック|b0|i0|c128|p49;ＤＡＴＥ}
 73
     1
 44
1.0
  0
MTEXT
  5
7D
330
1F
100
AcDbEntity
  8
F-1_枠
  6
Continuous
 62
     7
370
     0
100
AcDbMText
 10
3569.917643811961
 20
-3946.903115907308
 30
0.0
 40
76.19999999999999
 41
150.0
 46
0.0
 71
     7
 72
     1
  1
{\fＭＳ ゴシック|b0|i0|c128|p49;1/5}
 73
     1
 44
1.0
  0
LINE
  5
7E
330
1F
100
AcDbEntity
  8
F-1_枠
  6
Continuous
 62
   200
370
    20
100
AcDbLine
 10
5859.917429364114
 20
-3795.000003092998
 30
0.0
 11
-5840.081085996952
 21
-3795.000003092998
 31
0.0
  0
LINE
  5
7F
330
1F
100
AcDbEntity
  8
F-1_枠
  6
Continuous
 62
   200
370
    20
100
AcDbLine
 10
5859.917429364114
 20
-3790.000017526987
 30
0.0
 11
-5840.081085996952
 21
-3790.000017526987
 31
0.0
  0
LINE
  5
80
330
1F
100
AcDbEntity
  8
F-1_枠
  6
JWW_HOJO
 62
     7
370
     9
100
AcDbLine
 10
-5087.628710189611
 20
-3795.000003092999
 30
0.0
 11
-5087.628710189611
 21
-4205.000164959882
 31
0.0
  0
MTEXT
  5
81
330
1F
100
AcDbEntity
  8
F-1_枠
  6
Continuous
 62
     7
370
     0
100
AcDbMText
 10
2939.917396372139
 20
-4087.14246317786
 30
0.0
 40
45.72
 41
240.0
 46
0.0
 71
     7
 72
     1
  1
{\fＭＳ ゴシック|b0|i0|c128|p49;ＦＩＬＥ}
 73
     1
 44
1.0
  0
LINE
  5
82
330
1F
100
AcDbEntity
  8
F-1_枠
  6
JWW_HOJO
 62
     7
370
     9
100
AcDbLine
 10
-50.08145715668377
 20
-3795.000003092998
 30
0.0
 11
-50.08145715668377
 21
-4195.000008247994
 31
0.0
  0
MTEXT
  5
83
330
1F
100
AcDbEntity
  8
F-1_枠
  6
Continuous
 62
     7
370
     0
100
AcDbMText
 10
4439.917891251784
 20
-4087.143857410839
 30
0.0
 40
45.72
 41
180.0
 46
0.0
 71
     7
 72
     1
  1
{\fＭＳ ゴシック|b0|i0|c128|p49;ＮＯ．}
 73
     1
 44
1.0
  0
MTEXT
  5
84
330
1F
100
AcDbEntity
  8
F-1_枠
  6
Continuous
 62
     7
370
     0
100
AcDbMText
 10
1394.917396372138
 20
-4096.140669266149
 30
0.0
 40
45.72
 41
120.0
 46
0.0
 71
     7
 72
     1
  1
{\fＭＳ ゴシック|b0|i0|c128|p49;株式}
 73
     1
 44
1.0
  0
MTEXT
  5
85
330
1F
100
AcDbEntity
  8
F-1_枠
  6
Continuous
 62
     7
370
     0
100
AcDbMText
 10
1604.917396372138
 20
-4164.281754523929
 30
0.0
 40
101.44125
 41
1065.0
 46
0.0
 71
     7
 72
     1
  1
{\fＭＳ ゴシック|b0|i0|c128|p49;ウッドワン・・・}
 73
     1
 44
1.0
  0
MTEXT
  5
86
330
1F
100
AcDbEntity
  8
F-1_枠
  6
Continuous
 62
     7
370
     0
100
AcDbMText
 10
1394.917396372138
 20
-4168.140669266187
 30
0.0
 40
45.72
 41
120.0
 46
0.0
 71
     7
 72
     1
  1
{\fＭＳ ゴシック|b0|i0|c128|p49;会社}
 73
     1
 44
1.0
  0
MTEXT
  5
87
330
1F
100
AcDbEntity
  8
F-1_枠
  6
Continuous
 62
     7
370
     0
100
AcDbMText
 10
5768.321977672939
 20
-4314.841419020919
 30
0.0
 40
68.58
 41
90.0
 46
0.0
 71
     7
 72
     1
  1
{\fＭＳ ゴシック|b0|i0|c128|p49;）}
 73
     1
 44
1.0
  0
MTEXT
  5
88
330
1F
100
AcDbEntity
  8
F-1_枠
  6
Continuous
 62
     7
370
     0
100
AcDbMText
 10
5350.114617405298
 20
-4316.235443869856
 30
0.0
 40
68.58
 41
45.0
 46
0.0
 71
     7
 72
     1
  1
{\fＭＳ ゴシック|b0|i0|c128|p49;,}
 73
     1
 44
1.0
  0
MTEXT
  5
89
330
1F
100
AcDbEntity
  8
F-1_枠
  6
Continuous
 62
     7
370
     0
100
AcDbMText
 10
5083.855928478601
 20
-4314.771967288282
 30
0.0
 40
74.295
 41
97.5
 46
0.0
 71
     7
 72
     1
  1
{\fＭＳ ゴシック|b0|i0|c128|p49;$y}
 73
     1
 44
1.0
  0
MTEXT
  5
8A
330
1F
100
AcDbEntity
  8
F-1_枠
  6
Continuous
 62
     7
370
     0
100
AcDbMText
 10
5238.592649517422
 20
-4314.771967288282
 30
0.0
 40
74.295
 41
97.5
 46
0.0
 71
     7
 72
     1
  1
{\fＭＳ ゴシック|b0|i0|c128|p49;$m}
 73
     1
 44
1.0
  0
MTEXT
  5
8B
330
1F
100
AcDbEntity
  8
F-1_枠
  6
Continuous
 62
     7
370
     0
100
AcDbMText
 10
5393.32938200033
 20
-4314.771967288282
 30
0.0
 40
74.295
 41
97.5
 46
0.0
 71
     7
 72
     1
  1
{\fＭＳ ゴシック|b0|i0|c128|p49;$d}
 73
     1
 44
1.0
  0
MTEXT
  5
8C
330
1F
100
AcDbEntity
  8
F-1_枠
  6
Continuous
 62
     7
370
     0
100
AcDbMText
 10
5548.066114483239
 20
-4314.771967288282
 30
0.0
 40
74.295
 41
195.0
 46
0.0
 71
     7
 72
     1
  1
{\fＭＳ ゴシック|b0|i0|c128|p49;印刷}
 73
     1
 44
1.0
  0
MTEXT
  5
8D
330
1F
100
AcDbEntity
  8
F-1_枠
  6
Continuous
 62
     7
370
     0
100
AcDbMText
 10
4943.952040816226
 20
-4319.023493567732
 30
0.0
 40
68.58
 41
90.0
 46
0.0
 71
     7
 72
     1
  1
{\fＭＳ ゴシック|b0|i0|c128|p49;（}
 73
     1
 44
1.0
  0
MTEXT
  5
8E
330
1F
100
AcDbEntity
  8
F-1_枠
  6
Continuous
 62
     7
370
     0
100
AcDbMText
 10
5191.195810375571
 20
-4319.023493567732
 30
0.0
 40
68.58
 41
45.0
 46
0.0
 71
     7
 72
     1
  1
{\fＭＳ ゴシック|b0|i0|c128|p49;,}
 73
     1
 44
1.0
  0
ELLIPSE
  5
8F
330
1F
100
AcDbEntity
  8
戸当り
  6
Continuous
 62
    92
370
    13
100
AcDbEllipse
 10
4785.830917458077
 20
2876.053590301511
 30
0.0
 11
11.36181697857171
 21
42.40287823032828
 31
0.0
210
0.0
220
0.0
230
0.9999999999999999
 40
0.6
 41
1.570796326794897
 42
4.71238898038469
  0
LINE
  5
90
330
1F
100
AcDbEntity
  8
戸当り
  6
Continuous
 62
    92
370
    13
100
AcDbLine
 10
4811.272644396275
 20
2869.236500114367
 30
0.0
 11
4760.389190519881
 21
2882.870680488653
 31
0.0
  0
LINE
  5
91
330
1F
100
AcDbEntity
  8
戸当り
  6
Continuous
 62
    92
370
    13
100
AcDbLine
 10
4814.533764364565
 20
2881.407165525609
 30
0.0
 11
4763.650310488172
 21
2895.041345899896
 31
0.0
  0
ELLIPSE
  5
92
330
1F
100
AcDbEntity
  8
戸当り
  6
Continuous
 62
    92
370
    13
100
AcDbEllipse
 10
4810.004310755758
 20
2966.269922279796
 30
0.0
 11
21.86569797210526
 21
81.6038957748525
 31
0.0
210
0.0
220
0.0
230
1.0
 40
0.5
 41
4.340591432030095
 42
8.225779182329084
  0
ELLIPSE
  5
93
330
1F
100
AcDbEntity
  8
戸当り
  6
Continuous
 62
    92
370
    13
100
AcDbEllipse
 10
4809.378687882656
 20
2963.935065931004
 30
0.0
 11
26.49533313827761
 21
98.88192943551533
 31
0.0
210
0.0
220
0.0
230
0.9999999999999999
 40
0.4
 41
3.840308517104466
 42
4.432552034522944
  0
ELLIPSE
  5
94
330
1F
100
AcDbEntity
  8
戸当り
  6
Continuous
 62
    92
370
    13
100
AcDbEllipse
 10
4809.378687882656
 20
2963.935065931004
 30
0.0
 11
26.49533313827761
 21
98.88192943551533
 31
0.0
210
0.0
220
0.0
230
0.9999999999999999
 40
0.4
 41
1.850633272656679
 42
2.442876790075129
  0
ELLIPSE
  5
95
330
1F
100
AcDbEntity
  8
戸当り
  6
Continuous
 62
    92
370
    13
100
AcDbEllipse
 10
4670.716707711375
 20
2838.28484693721
 30
0.0
 11
-7.622927487939132
 21
43.23177007461331
 31
0.0
210
0.0
220
0.0
230
1.0
 40
0.6000000000000001
 41
1.570796326794897
 42
4.71238898038469
  0
LINE
  5
96
330
1F
100
AcDbEntity
  8
戸当り
  6
Continuous
 62
    92
370
    13
100
AcDbLine
 10
4696.655769756144
 20
2842.858603429973
 30
0.0
 11
4644.777645666608
 21
2833.711090444447
 31
0.0
  0
LINE
  5
97
330
1F
100
AcDbEntity
  8
戸当り
  6
Continuous
 62
    92
370
    13
100
AcDbLine
 10
4694.467802717541
 20
2855.267181117928
 30
0.0
 11
4642.589678628005
 21
2846.1196681324
 31
0.0
  0
ELLIPSE
  5
98
330
1F
100
AcDbEntity
  8
戸当り
  6
Continuous
 62
    92
370
    13
100
AcDbEllipse
 10
4654.498172894877
 20
2930.264728582853
 30
0.0
 11
-14.67024424252691
 21
83.19908946199426
 31
0.0
210
0.0
220
0.0
230
1.0
 40
0.5
 41
4.340591432030095
 42
8.225779182329084
  0
ELLIPSE
  5
99
330
1F
100
AcDbEntity
  8
戸当り
  6
Continuous
 62
    92
370
    13
100
AcDbEllipse
 10
4654.917918944778
 20
2927.884230441196
 30
0.0
 11
-17.7763823922528
 21
100.8148742797557
 31
0.0
210
0.0
220
0.0
230
1.0
 40
0.4000000000000001
 41
3.840308517104466
 42
4.432552034522944
  0
ELLIPSE
  5
9A
330
1F
100
AcDbEntity
  8
戸当り
  6
Continuous
 62
    92
370
    13
100
AcDbEllipse
 10
4654.917918944778
 20
2927.884230441196
 30
0.0
 11
-17.7763823922528
 21
100.8148742797557
 31
0.0
210
0.0
220
0.0
230
1.0
 40
0.4000000000000001
 41
1.850633272656679
 42
2.442876790075129
  0
ELLIPSE
  5
9B
330
1F
100
AcDbEntity
  8
戸当り
  6
Continuous
 62
    92
370
    13
100
AcDbEllipse
 10
4241.030917458076
 20
2876.053590301511
 30
0.0
 11
11.36181697857171
 21
42.40287823032828
 31
0.0
210
0.0
220
0.0
230
0.9999999999999999
 40
0.6
 41
1.570796326794897
 42
4.71238898038469
  0
LINE
  5
9C
330
1F
100
AcDbEntity
  8
戸当り
  6
Continuous
 62
    92
370
    13
100
AcDbLine
 10
4266.472644396273
 20
2869.236500114367
 30
0.0
 11
4215.589190519879
 21
2882.870680488653
 31
0.0
  0
LINE
  5
9D
330
1F
100
AcDbEntity
  8
戸当り
  6
Continuous
 62
    92
370
    13
100
AcDbLine
 10
4269.733764364564
 20
2881.407165525609
 30
0.0
 11
4218.85031048817
 21
2895.041345899896
 31
0.0
  0
ELLIPSE
  5
9E
330
1F
100
AcDbEntity
  8
戸当り
  6
Continuous
 62
    92
370
    13
100
AcDbEllipse
 10
4265.204310755757
 20
2966.269922279796
 30
0.0
 11
21.86569797210526
 21
81.6038957748525
 31
0.0
210
0.0
220
0.0
230
1.0
 40
0.5
 41
4.340591432030095
 42
8.225779182329084
  0
ELLIPSE
  5
9F
330
1F
100
AcDbEntity
  8
戸当り
  6
Continuous
 62
    92
370
    13
100
AcDbEllipse
 10
4264.578687882655
 20
2963.935065931004
 30
0.0
 11
26.49533313827761
 21
98.88192943551533
 31
0.0
210
0.0
220
0.0
230
0.9999999999999999
 40
0.4
 41
3.840308517104466
 42
4.432552034522944
  0
ELLIPSE
  5
A0
330
1F
100
AcDbEntity
  8
戸当り
  6
Continuous
 62
    92
370
    13
100
AcDbEllipse
 10
4264.578687882655
 20
2963.935065931004
 30
0.0
 11
26.49533313827761
 21
98.88192943551533
 31
0.0
210
0.0
220
0.0
230
0.9999999999999999
 40
0.4
 41
1.850633272656679
 42
2.442876790075129
  0
ELLIPSE
  5
A1
330
1F
100
AcDbEntity
  8
戸当り
  6
Continuous
 62
    92
370
    13
100
AcDbEllipse
 10
4125.916707711373
 20
2838.28484693721
 30
0.0
 11
-7.622927487939132
 21
43.23177007461331
 31
0.0
210
0.0
220
0.0
230
1.0
 40
0.6000000000000001
 41
1.570796326794897
 42
4.71238898038469
  0
LINE
  5
A2
330
1F
100
AcDbEntity
  8
戸当り
  6
Continuous
 62
    92
370
    13
100
AcDbLine
 10
4151.855769756143
 20
2842.858603429973
 30
0.0
 11
4099.977645666606
 21
2833.711090444447
 31
0.0
  0
LINE
  5
A3
330
1F
100
AcDbEntity
  8
戸当り
  6
Continuous
 62
    92
370
    13
100
AcDbLine
 10
4149.667802717539
 20
2855.267181117928
 30
0.0
 11
4097.789678628003
 21
2846.1196681324
 31
0.0
  0
ELLIPSE
  5
A4
330
1F
100
AcDbEntity
  8
戸当り
  6
Continuous
 62
    92
370
    13
100
AcDbEllipse
 10
4109.698172894876
 20
2930.264728582853
 30
0.0
 11
-14.67024424252691
 21
83.19908946199426
 31
0.0
210
0.0
220
0.0
230
1.0
 40
0.5
 41
4.340591432030095
 42
8.225779182329084
  0
ELLIPSE
  5
A5
330
1F
100
AcDbEntity
  8
戸当り
  6
Continuous
 62
    92
370
    13
100
AcDbEllipse
 10
4110.117918944778
 20
2927.884230441196
 30
0.0
 11
-17.7763823922528
 21
100.8148742797557
 31
0.0
210
0.0
220
0.0
230
1.0
 40
0.4000000000000001
 41
3.840308517104466
 42
4.432552034522944
  0
ELLIPSE
  5
A6
330
1F
100
AcDbEntity
  8
戸当り
  6
Continuous
 62
    92
370
    13
100
AcDbEllipse
 10
4110.117918944778
 20
2927.884230441196
 30
0.0
 11
-17.7763823922528
 21
100.8148742797557
 31
0.0
210
0.0
220
0.0
230
1.0
 40
0.4000000000000001
 41
1.850633272656679
 42
2.442876790075129
  0
LINE
  5
A7
330
1F
100
AcDbEntity
  8
戸当り
  6
Continuous
 62
    92
370
    13
100
AcDbLine
 10
4730.317643811962
 20
3260.12352507614
 30
0.0
 11
4730.317643811962
 21
3404.12352507614
 31
0.0
  0
LINE
  5
A8
330
1F
100
AcDbEntity
  8
戸当り
  6
Continuous
 62
    40
370
    15
100
AcDbLine
 10
4553.91764381196
 20
3342.923525076139
 30
0.0
 11
4481.917643811961
 21
3342.923525076139
 31
0.0
  0
LINE
  5
A9
330
1F
100
AcDbEntity
  8
戸当り
  6
Continuous
 62
    40
370
    15
100
AcDbLine
 10
4553.91764381196
 20
3299.72352507614
 30
0.0
 11
4481.917643811961
 21
3299.72352507614
 31
0.0
  0
LINE
  5
AA
330
1F
100
AcDbEntity
  8
戸当り
  6
Continuous
 62
    40
370
    15
100
AcDbLine
 10
4921.117643811962
 20
3332.12352507614
 30
0.0
 11
4553.91764381196
 21
3332.12352507614
 31
0.0
  0
LINE
  5
AB
330
1F
100
AcDbEntity
  8
戸当り
  6
Continuous
 62
    40
370
    15
100
AcDbLine
 10
4553.91764381196
 20
3299.72352507614
 30
0.0
 11
4553.91764381196
 21
3342.923525076139
 31
0.0
  0
LINE
  5
AC
330
1F
100
AcDbEntity
  8
戸当り
  6
Continuous
 62
    40
370
    15
100
AcDbLine
 10
5273.917643811962
 20
3342.923525076139
 30
0.0
 11
5345.917643811961
 21
3342.923525076139
 31
0.0
  0
LINE
  5
AD
330
1F
100
AcDbEntity
  8
戸当り
  6
JWW_DASHED2
 62
    40
370
    15
100
AcDbLine
 10
4921.117643811962
 20
3332.12352507614
 30
0.0
 11
5273.917643811962
 21
3332.12352507614
 31
0.0
  0
LINE
  5
AE
330
1F
100
AcDbEntity
  8
戸当り
  6
Continuous
 62
    40
370
    15
100
AcDbLine
 10
5273.917643811962
 20
3321.32352507614
 30
0.0
 11
5273.917643811962
 21
3342.923525076139
 31
0.0
  0
LINE
  5
AF
330
1F
100
AcDbEntity
  8
戸当り
  6
Continuous
 62
    40
370
    15
100
AcDbLine
 10
5273.917643811962
 20
3321.32352507614
 30
0.0
 11
4906.717643811961
 21
3321.32352507614
 31
0.0
  0
LINE
  5
B0
330
1F
100
AcDbEntity
  8
戸当り
  6
Continuous
 62
    40
370
    15
100
AcDbLine
 10
5345.917643811961
 20
3299.72352507614
 30
0.0
 11
4906.717643811961
 21
3299.72352507614
 31
0.0
  0
LINE
  5
B1
330
1F
100
AcDbEntity
  8
戸当り
  6
Continuous
 62
    40
370
    15
100
AcDbLine
 10
4906.717643811961
 20
3299.72352507614
 30
0.0
 11
4906.717643811961
 21
3321.32352507614
 31
0.0
  0
LINE
  5
B2
330
1F
100
AcDbEntity
  8
戸当り
  6
Continuous
 62
    92
370
    13
100
AcDbLine
 10
4185.517643811962
 20
3260.12352507614
 30
0.0
 11
4185.517643811962
 21
3404.12352507614
 31
0.0
  0
LINE
  5
B3
330
1F
100
AcDbEntity
  8
戸当り
  6
Continuous
 62
    40
370
    15
100
AcDbLine
 10
4361.917643811961
 20
3342.923525076139
 30
0.0
 11
4433.91764381196
 21
3342.923525076139
 31
0.0
  0
LINE
  5
B4
330
1F
100
AcDbEntity
  8
戸当り
  6
Continuous
 62
    40
370
    15
100
AcDbLine
 10
4361.917643811961
 20
3299.72352507614
 30
0.0
 11
4433.91764381196
 21
3299.72352507614
 31
0.0
  0
LINE
  5
B5
330
1F
100
AcDbEntity
  8
戸当り
  6
Continuous
 62
    40
370
    15
100
AcDbLine
 10
3994.71764381196
 20
3332.12352507614
 30
0.0
 11
4361.917643811961
 21
3332.12352507614
 31
0.0
  0
LINE
  5
B6
330
1F
100
AcDbEntity
  8
戸当り
  6
Continuous
 62
    40
370
    15
100
AcDbLine
 10
4361.917643811961
 20
3299.72352507614
 30
0.0
 11
4361.917643811961
 21
3342.923525076139
 31
0.0
  0
LINE
  5
B7
330
1F
100
AcDbEntity
  8
戸当り
  6
Continuous
 62
    40
370
    15
100
AcDbLine
 10
3641.917643811961
 20
3342.923525076139
 30
0.0
 11
3569.91764381196
 21
3342.923525076139
 31
0.0
  0
LINE
  5
B8
330
1F
100
AcDbEntity
  8
戸当り
  6
JWW_DASHED2
 62
    40
370
    15
100
AcDbLine
 10
3994.71764381196
 20
3332.12352507614
 30
0.0
 11
3641.917643811961
 21
3332.12352507614
 31
0.0
  0
LINE
  5
B9
330
1F
100
AcDbEntity
  8
戸当り
  6
Continuous
 62
    40
370
    15
100
AcDbLine
 10
3641.917643811961
 20
3321.32352507614
 30
0.0
 11
3641.917643811961
 21
3342.923525076139
 31
0.0
  0
LINE
  5
BA
330
1F
100
AcDbEntity
  8
戸当り
  6
Continuous
 62
    40
370
    15
100
AcDbLine
 10
3641.917643811961
 20
3321.32352507614
 30
0.0
 11
4009.117643811961
 21
3321.32352507614
 31
0.0
  0
LINE
  5
BB
330
1F
100
AcDbEntity
  8
戸当り
  6
Continuous
 62
    40
370
    15
100
AcDbLine
 10
3569.91764381196
 20
3299.72352507614
 30
0.0
 11
4009.117643811961
 21
3299.72352507614
 31
0.0
  0
LINE
  5
BC
330
1F
100
AcDbEntity
  8
戸当り
  6
Continuous
 62
    40
370
    15
100
AcDbLine
 10
4009.117643811961
 20
3299.72352507614
 30
0.0
 11
4009.117643811961
 21
3321.32352507614
 31
0.0
  0
LINE
  5
BD
330
1F
100
AcDbEntity
  8
0-A_文字
  6
Continuous
 62
    92
370
    13
100
AcDbLine
 10
5369.917643811961
 20
3684.999983504013
 30
0.0
 11
5369.917643811961
 21
2718.999983504013
 31
0.0
  0
LINE
  5
BE
330
1F
100
AcDbEntity
  8
0-A_文字
  6
Continuous
 62
    92
370
    13
100
AcDbLine
 10
4457.91764381196
 20
3684.999983504013
 30
0.0
 11
4457.91764381196
 21
2718.999983504013
 31
0.0
  0
LINE
  5
BF
330
1F
100
AcDbEntity
  8
0-A_文字
  6
Continuous
 62
    92
370
    13
100
AcDbLine
 10
3545.917643811961
 20
3684.999983504013
 30
0.0
 11
3545.917643811961
 21
2718.999983504013
 31
0.0
  0
LINE
  5
C0
330
1F
100
AcDbEntity
  8
0-0_補助線
  6
JWW_HOJO
 62
   120
370
     5
100
AcDbLine
 10
5345.917643811961
 20
3684.999983504013
 30
0.0
 11
5345.917643811961
 21
2718.999983504013
 31
0.0
  0
LINE
  5
C1
330
1F
100
AcDbEntity
  8
0-0_補助線
  6
JWW_HOJO
 62
   120
370
     5
100
AcDbLine
 10
4481.917643811961
 20
3684.999983504013
 30
0.0
 11
4481.917643811961
 21
2718.999983504013
 31
0.0
  0
LINE
  5
C2
330
1F
100
AcDbEntity
  8
0-0_補助線
  6
JWW_HOJO
 62
   120
370
     5
100
AcDbLine
 10
4433.91764381196
 20
3684.999983504013
 30
0.0
 11
4433.91764381196
 21
2718.999983504013
 31
0.0
  0
LINE
  5
C3
330
1F
100
AcDbEntity
  8
0-0_補助線
  6
JWW_HOJO
 62
   120
370
     5
100
AcDbLine
 10
3569.91764381196
 20
3684.999983504013
 30
0.0
 11
3569.91764381196
 21
2718.999983504013
 31
0.0
  0
LINE
  5
C4
330
1F
100
AcDbEntity
  8
0-0_補助線
  6
JWW_HOJO
 62
   120
370
     5
100
AcDbLine
 10
4913.917643811962
 20
3684.999983504013
 30
0.0
 11
4913.917643811962
 21
2718.999983504013
 31
0.0
  0
LINE
  5
C5
330
1F
100
AcDbEntity
  8
0-0_補助線
  6
JWW_HOJO
 62
   120
370
     5
100
AcDbLine
 10
4001.917643811961
 20
3684.999983504013
 30
0.0
 11
4001.917643811961
 21
2718.999983504013
 31
0.0
  0
LINE
  5
C6
330
1F
100
AcDbEntity
  8
0-A_文字
  6
Continuous
 62
    92
370
    13
100
AcDbLine
 10
5369.917643811961
 20
2718.999983504013
 30
0.0
 11
3545.917643811961
 21
2718.999983504013
 31
0.0
  0
MTEXT
  5
C7
330
1F
100
AcDbEntity
  8
0-A_文字
  6
Continuous
 62
     7
370
     9
100
AcDbMText
 10
3545.917643811961
 20
3700.719983504012
 30
0.0
 40
91.44
 41
720.0
 46
0.0
 71
     7
 72
     1
  1
{\fＭＳ ゴシック|b0|i0|c128|p49;■引き手方向}
 73
     1
 44
1.0
  0
MTEXT
  5
C8
330
1F
100
AcDbEntity
  8
0-A_文字
  6
Continuous
 62
     7
370
     9
100
AcDbMText
 10
4711.417643811962
 20
3561.576233504014
 30
0.0
 40
77.15249999999999
 41
405.0
 46
0.0
 71
     7
 72
     1
  1
{\fＭＳ ゴシック|b0|i0|c128|p49;左引き手}
 73
     1
 44
1.0
  0
MTEXT
  5
C9
330
1F
100
AcDbEntity
  8
0-A_文字
  6
Continuous
 62
     7
370
     9
100
AcDbMText
 10
3799.417643811961
 20
3561.576233504014
 30
0.0
 40
77.15249999999999
 41
405.0
 46
0.0
 71
     7
 72
     1
  1
{\fＭＳ ゴシック|b0|i0|c128|p49;右引き手}
 73
     1
 44
1.0
  0
LINE
  5
CA
330
1F
100
AcDbEntity
  8
0-A_文字
  6
Continuous
 62
    92
370
    13
100
AcDbLine
 10
3545.917643811961
 20
3540.999983504013
 30
0.0
 11
5369.917643811961
 21
3540.999983504013
 31
0.0
  0
LINE
  5
CB
330
1F
100
AcDbEntity
  8
0-A_文字
  6
Continuous
 62
    92
370
    13
100
AcDbLine
 10
5369.917643811961
 20
3684.999983504013
 30
0.0
 11
3545.917643811961
 21
3684.999983504013
 31
0.0
  0
LWPOLYLINE
  5
CC
330
1F
100
AcDbEntity
  8
0-B_寸法
  6
Continuous
 62
     7
370
     9
100
AcDbPolyline
 90
        4
 70
     1
 43
3.0
 10
2267.628161489055
 20
1481.96216880618
 42
0.4142135623731
 10
2266.128161489055
 20
1483.46216880618
 42
0.4142135623731
 10
2264.628161489055
 20
1481.96216880618
 42
0.4142135623731
 10
2266.128161489055
 20
1480.46216880618
 42
0.4142135623731
  0
LINE
  5
CD
330
1F
100
AcDbEntity
  8
0-B_寸法
  6
Continuous
 62
   120
370
     5
100
AcDbLine
 10
2266.128161489055
 20
1271.96216880618
 30
0.0
 11
2266.128161489055
 21
1841.96216880618
 31
0.0
  0
LINE
  5
CE
330
1F
100
AcDbEntity
  8
0-B_寸法
  6
Continuous
 62
   120
370
     5
100
AcDbLine
 10
2446.128013025162
 20
1271.96216880618
 30
0.0
 11
2266.128161489055
 21
1271.96216880618
 31
0.0
  0
LWPOLYLINE
  5
CF
330
1F
100
AcDbEntity
  8
0-B_寸法
  6
Continuous
 62
     7
370
     9
100
AcDbPolyline
 90
        4
 70
     1
 43
3.0
 10
2447.628013025161
 20
1271.96216880618
 42
0.4142135623731
 10
2446.128013025162
 20
1273.46216880618
 42
0.4142135623731
 10
2444.628013025162
 20
1271.96216880618
 42
0.4142135623731
 10
2446.128013025162
 20
1270.46216880618
 42
0.4142135623731
  0
LWPOLYLINE
  5
D0
330
1F
100
AcDbEntity
  8
0-B_寸法
  6
Continuous
 62
     7
370
     9
100
AcDbPolyline
 90
        4
 70
     1
 43
3.0
 10
2267.628161489055
 20
1271.96216880618
 42
0.4142135623731
 10
2266.128161489055
 20
1273.46216880618
 42
0.4142135623731
 10
2264.628161489055
 20
1271.96216880618
 42
0.4142135623731
 10
2266.128161489055
 20
1270.46216880618
 42
0.4142135623731
  0
LINE
  5
D1
330
1F
100
AcDbEntity
  8
0-B_寸法
  6
Continuous
 62
   120
370
     5
100
AcDbLine
 10
2446.128013025162
 20
1061.96216880618
 30
0.0
 11
2446.128013025162
 21
1841.96216880618
 31
0.0
  0
MTEXT
  5
D2
330
1F
100
AcDbEntity
  8
0-B_寸法
  6
Continuous
 62
     7
370
   211
100
AcDbMText
 10
2292.378087257108
 20
1260.53966880618
 30
0.0
 40
97.15499999999999
 41
127.5
 46
0.0
 71
     7
 72
     1
  1
{\fＭＳ ゴシック|b0|i0|c128|p49;30}
 73
     1
 44
1.0
  0
LWPOLYLINE
  5
D3
330
1F
100
AcDbEntity
  8
0-B_寸法
  6
Continuous
 62
     7
370
     9
100
AcDbPolyline
 90
        4
 70
     1
 43
3.0
 10
2447.628013025161
 20
1061.96216880618
 42
0.4142135623731
 10
2446.128013025162
 20
1063.46216880618
 42
0.4142135623731
 10
2444.628013025162
 20
1061.96216880618
 42
0.4142135623731
 10
2446.128013025162
 20
1060.46216880618
 42
0.4142135623731
  0
LINE
  5
D4
330
1F
100
AcDbEntity
  8
0-0_補助線
  6
JWW_HOJO
 62
   120
370
     5
100
AcDbLine
 10
2806.589336672863
 20
1061.96216880618
 30
0.0
 11
2806.589336672863
 21
3131.96162460618
 31
0.0
  0
MTEXT
  5
D5
330
1F
100
AcDbEntity
  8
0-B_寸法
  6
Continuous
 62
     7
370
     9
100
AcDbMText
 10
2086.589336672863
 20
886.5239004170079
 30
0.0
 40
68.58000000000001
 41
720.0
 46
0.0
 71
     7
 72
     1
  1
{\fＭＳ ゴシック|b0|i0|c128|p49;※図示：左引き手}
 73
     1
 44
1.0
  0
LINE
  5
D6
330
1F
100
AcDbEntity
  8
0-0_補助線
  6
JWW_HOJO
 62
   120
370
     5
100
AcDbLine
 10
-2786.290927338522
 20
1061.96216880618
 30
0.0
 11
-2786.290927338522
 21
3131.96162460618
 31
0.0
  0
LWPOLYLINE
  5
D7
330
1F
100
AcDbEntity
  8
0-B_寸法
  6
Continuous
 62
     7
370
     9
100
AcDbPolyline
 90
        4
 70
     1
 43
3.0
 10
-2244.791075802423
 20
1481.96216880618
 42
0.4142135623731
 10
-2246.291075802423
 20
1483.46216880618
 42
0.4142135623731
 10
-2247.791075802423
 20
1481.96216880618
 42
0.4142135623731
 10
-2246.291075802423
 20
1480.46216880618
 42
0.4142135623731
  0
LINE
  5
D8
330
1F
100
AcDbEntity
  8
0-B_寸法
  6
Continuous
 62
   120
370
     5
100
AcDbLine
 10
-2246.291075802423
 20
1271.96216880618
 30
0.0
 11
-2246.291075802423
 21
1841.96216880618
 31
0.0
  0
LINE
  5
D9
330
1F
100
AcDbEntity
  8
0-B_寸法
  6
Continuous
 62
   120
370
     5
100
AcDbLine
 10
2266.128161489055
 20
1271.96216880618
 30
0.0
 11
-2246.291075802423
 21
1271.96216880618
 31
0.0
  0
LWPOLYLINE
  5
DA
330
1F
100
AcDbEntity
  8
0-B_寸法
  6
Continuous
 62
     7
370
     9
100
AcDbPolyline
 90
        4
 70
     1
 43
3.0
 10
-2244.791075802423
 20
1271.96216880618
 42
0.4142135623731
 10
-2246.291075802423
 20
1273.46216880618
 42
0.4142135623731
 10
-2247.791075802423
 20
1271.96216880618
 42
0.4142135623731
 10
-2246.291075802423
 20
1270.46216880618
 42
0.4142135623731
  0
LINE
  5
DB
330
1F
100
AcDbEntity
  8
0-B_寸法
  6
Continuous
 62
   120
370
     5
100
AcDbLine
 10
-2246.291075802423
 20
1271.96216880618
 30
0.0
 11
-2426.290927338529
 21
1271.96216880618
 31
0.0
  0
LWPOLYLINE
  5
DC
330
1F
100
AcDbEntity
  8
0-B_寸法
  6
Continuous
 62
     7
370
     9
100
AcDbPolyline
 90
        4
 70
     1
 43
3.0
 10
-2424.790927338529
 20
1271.96216880618
 42
0.4142135623731
 10
-2426.290927338529
 20
1273.46216880618
 42
0.4142135623731
 10
-2427.790927338529
 20
1271.96216880618
 42
0.4142135623731
 10
-2426.290927338529
 20
1270.46216880618
 42
0.4142135623731
  0
LINE
  5
DD
330
1F
100
AcDbEntity
  8
0-B_寸法
  6
Continuous
 62
   120
370
     5
100
AcDbLine
 10
-2426.290927338529
 20
1061.96216880618
 30
0.0
 11
-2426.290927338529
 21
1841.96216880618
 31
0.0
  0
MTEXT
  5
DE
330
1F
100
AcDbEntity
  8
0-B_寸法
  6
Continuous
 62
     7
370
   211
100
AcDbMText
 10
-2400.041001570476
 20
1260.53966880618
 30
0.0
 40
97.15499999999999
 41
127.5
 46
0.0
 71
     7
 72
     1
  1
{\fＭＳ ゴシック|b0|i0|c128|p49;30}
 73
     1
 44
1.0
  0
LINE
  5
DF
330
1F
100
AcDbEntity
  8
0-B_寸法
  6
Continuous
 62
   120
370
     5
100
AcDbLine
 10
-2426.290927338529
 20
1061.96216880618
 30
0.0
 11
2446.128013025162
 21
1061.96216880618
 31
0.0
  0
LWPOLYLINE
  5
E0
330
1F
100
AcDbEntity
  8
0-B_寸法
  6
Continuous
 62
     7
370
     9
100
AcDbPolyline
 90
        4
 70
     1
 43
3.0
 10
-2424.790927338529
 20
1061.96216880618
 42
0.4142135623731
 10
-2426.290927338529
 20
1063.46216880618
 42
0.4142135623731
 10
-2427.790927338529
 20
1061.96216880618
 42
0.4142135623731
 10
-2426.290927338529
 20
1060.46216880618
 42
0.4142135623731
  0
LINE
  5
E1
330
1F
100
AcDbEntity
  8
0-0_補助線
  6
JWW_HOJO
 62
   120
370
     5
100
AcDbLine
 10
2806.589336672863
 20
3131.96162460618
 30
0.0
 11
-2786.290927338522
 21
3131.96162460618
 31
0.0
  0
LINE
  5
E2
330
1F
100
AcDbEntity
  8
0-0_補助線
  6
JWW_HOJO
 62
   120
370
     5
100
AcDbLine
 10
-2786.290927338522
 20
1061.96216880618
 30
0.0
 11
2806.589336672863
 21
1061.96216880618
 31
0.0
  0
LINE
  5
E3
330
1F
100
AcDbEntity
  8
0-0_補助線
  6
JWW_HOJO
 62
   120
370
     5
100
AcDbLine
 10
2806.589336672863
 20
1841.96216880618
 30
0.0
 11
-2786.290927338522
 21
1841.96216880618
 31
0.0
  0
LINE
  5
E4
330
1F
100
AcDbEntity
  8
0-0_補助線
  6
JWW_HOJO
 62
   120
370
     5
100
AcDbLine
 10
-2786.290927338522
 20
1481.96216880618
 30
0.0
 11
2806.589336672863
 21
1481.96216880618
 31
0.0
  0
LINE
  5
E5
330
1F
100
AcDbEntity
  8
0-0_補助線
  6
JWW_HOJO
 62
   120
370
     5
100
AcDbLine
 10
-2786.290927338522
 20
1271.96216880618
 30
0.0
 11
2806.589336672863
 21
1271.96216880618
 31
0.0
  0
LINE
  5
E6
330
1F
100
AcDbEntity
  8
0-1_通り芯
  6
JWW_CENTER1
 62
   120
370
     5
100
AcDbLine
 10
-2786.290927338522
 20
2486.962168973789
 30
0.0
 11
2806.589336672863
 21
2486.962168973789
 31
0.0
  0
MTEXT
  5
E7
330
1F
100
AcDbEntity
  8
0-A_文字
  6
Continuous
 62
     7
370
     9
100
AcDbMText
 10
-2786.290927338522
 20
3186.514044362122
 30
0.0
 40
100.584
 41
660.0
 46
0.0
 71
     7
 72
     1
  1
{\fＭＳ ゴシック|b0|i0|c128|p49;■横断面図}
 73
     1
 44
1.0
  0
LINE
  5
E8
330
1F
100
AcDbEntity
  8
0-0_補助線
  6
JWW_HOJO
 62
   120
370
     5
100
AcDbLine
 10
-1142.232729492244
 20
3131.96162460618
 30
0.0
 11
-1142.232729492244
 21
1841.96216880618
 31
0.0
  0
LINE
  5
E9
330
1F
100
AcDbEntity
  8
0-0_補助線
  6
JWW_HOJO
 62
   120
370
     5
100
AcDbLine
 10
-1022.232729492244
 20
3131.96162460618
 30
0.0
 11
-1022.232729492244
 21
1841.96216880618
 31
0.0
  0
LWPOLYLINE
  5
EA
330
1F
100
AcDbEntity
  8
0-B_寸法
  6
Continuous
 62
     7
370
     9
100
AcDbPolyline
 90
        4
 70
     1
 43
3.0
 10
-453.5814571566863
 20
1481.96216880618
 42
0.4142135623731
 10
-455.0814571566863
 20
1483.46216880618
 42
0.4142135623731
 10
-456.5814571566863
 20
1481.96216880618
 42
0.4142135623731
 10
-455.0814571566863
 20
1480.46216880618
 42
0.4142135623731
  0
LINE
  5
EB
330
1F
100
AcDbEntity
  8
0-B_寸法
  6
Continuous
 62
   120
370
     5
100
AcDbLine
 10
-455.0814571566863
 20
1481.96216880618
 30
0.0
 11
-455.0814571566863
 21
1841.96216880618
 31
0.0
  0
LINE
  5
EC
330
1F
100
AcDbEntity
  8
0-B_寸法
  6
Continuous
 62
   120
370
     5
100
AcDbLine
 10
-455.0814571566863
 20
1481.96216880618
 30
0.0
 11
294.918320147473
 21
1481.96216880618
 31
0.0
  0
LWPOLYLINE
  5
ED
330
1F
100
AcDbEntity
  8
0-B_寸法
  6
Continuous
 62
     7
370
     9
100
AcDbPolyline
 90
        4
 70
     1
 43
3.0
 10
296.418320147473
 20
1481.96216880618
 42
0.4142135623731
 10
294.918320147473
 20
1483.46216880618
 42
0.4142135623731
 10
293.418320147473
 20
1481.96216880618
 42
0.4142135623731
 10
294.918320147473
 20
1480.46216880618
 42
0.4142135623731
  0
LINE
  5
EE
330
1F
100
AcDbEntity
  8
0-B_寸法
  6
Continuous
 62
   120
370
     5
100
AcDbLine
 10
294.918320147473
 20
1481.96216880618
 30
0.0
 11
294.918320147473
 21
1841.96216880618
 31
0.0
  0
LINE
  5
EF
330
1F
100
AcDbEntity
  8
0-B_寸法
  6
Continuous
 62
   120
370
     5
100
AcDbLine
 10
294.918320147473
 20
1481.96216880618
 30
0.0
 11
474.9185428433137
 21
1481.96216880618
 31
0.0
  0
LWPOLYLINE
  5
F0
330
1F
100
AcDbEntity
  8
0-B_寸法
  6
Continuous
 62
     7
370
     9
100
AcDbPolyline
 90
        4
 70
     1
 43
3.0
 10
476.4185428433137
 20
1481.96216880618
 42
0.4142135623731
 10
474.9185428433137
 20
1483.46216880618
 42
0.4142135623731
 10
473.4185428433137
 20
1481.96216880618
 42
0.4142135623731
 10
474.9185428433137
 20
1480.46216880618
 42
0.4142135623731
  0
LINE
  5
F1
330
1F
100
AcDbEntity
  8
0-B_寸法
  6
Continuous
 62
   120
370
     5
100
AcDbLine
 10
474.9185428433137
 20
1481.96216880618
 30
0.0
 11
474.9185428433137
 21
1841.96216880618
 31
0.0
  0
MTEXT
  5
F2
330
1F
100
AcDbEntity
  8
0-B_寸法
  6
Continuous
 62
     7
370
   211
100
AcDbMText
 10
321.1684314953933
 20
1470.53966880618
 30
0.0
 40
97.15499999999999
 41
127.5
 46
0.0
 71
     7
 72
     1
  1
{\fＭＳ ゴシック|b0|i0|c128|p49;30}
 73
     1
 44
1.0
  0
LINE
  5
F3
330
1F
100
AcDbEntity
  8
0-B_寸法
  6
Continuous
 62
   120
370
     5
100
AcDbLine
 10
474.9185428433137
 20
1481.96216880618
 30
0.0
 11
2266.128161489055
 21
1481.96216880618
 31
0.0
  0
LINE
  5
F4
330
1F
100
AcDbEntity
  8
0-B_寸法
  6
Continuous
 62
   120
370
     5
100
AcDbLine
 10
-2246.291075802423
 20
1481.96216880618
 30
0.0
 11
-455.0814571566863
 21
1481.96216880618
 31
0.0
  0
LINE
  5
F5
330
1F
100
AcDbEntity
  8
0-0_補助線
  6
JWW_HOJO
 62
   120
370
     5
100
AcDbLine
 10
1161.883684758309
 20
1841.96216880618
 30
0.0
 11
1161.883684758309
 21
3131.96162460618
 31
0.0
  0
LINE
  5
F6
330
1F
100
AcDbEntity
  8
0-0_補助線
  6
JWW_HOJO
 62
   120
370
     5
100
AcDbLine
 10
1041.883684758309
 20
1841.96216880618
 30
0.0
 11
1041.883684758309
 21
3131.96162460618
 31
0.0
  0
MTEXT
  5
F7
330
1F
100
AcDbEntity
  8
0-B_寸法
  6
Continuous
 62
     7
370
   211
100
AcDbMText
 10
-380.0815685046067
 20
1472.76216880618
 30
0.0
 40
101.6
 41
600.0
 46
0.0
 71
     7
 72
     1
  1
{\fＭＳ ゴシック|b0|i0|c128|p49;引残＝125}
 73
     1
 44
1.0
  0
LINE
  5
F8
330
1F
100
AcDbEntity
  8
0-C_ハッチ
  6
JWW_DASHED1
 62
   120
370
     5
100
AcDbLine
 10
-2724.919952477946
 20
2291.962168973795
 30
0.0
 11
-2786.290927338522
 21
2230.591194113219
 31
0.0
  0
LINE
  5
F9
330
1F
100
AcDbEntity
  8
0-C_ハッチ
  6
JWW_DASHED1
 62
   120
370
     5
100
AcDbLine
 10
-2767.346359349151
 20
2291.962168973789
 30
0.0
 11
-2786.290927338522
 21
2273.017600984417
 31
0.0
  0
LINE
  5
FA
330
1F
100
AcDbEntity
  8
0-3_仕上げ
  6
Continuous
 62
    40
370
    15
100
AcDbLine
 10
-2786.290927338522
 20
2216.962168973782
 30
0.0
 11
-2426.290927338529
 21
2216.962168973782
 31
0.0
  0
LINE
  5
FB
330
1F
100
AcDbEntity
  8
0-3_仕上げ
  6
Continuous
 62
    40
370
    15
100
AcDbLine
 10
-2786.290927338522
 20
2291.962168973782
 30
0.0
 11
-2426.290927338529
 21
2291.962168973782
 31
0.0
  0
LINE
  5
FC
330
1F
100
AcDbEntity
  8
0-C_ハッチ
  6
JWW_DASHED1
 62
   120
370
     5
100
AcDbLine
 10
-2726.610428061105
 20
2756.96216897378
 30
0.0
 11
-2786.290927338522
 21
2697.281669696364
 31
0.0
  0
LINE
  5
FD
330
1F
100
AcDbEntity
  8
0-C_ハッチ
  6
JWW_DASHED1
 62
   120
370
     5
100
AcDbLine
 10
-2769.036834932303
 20
2756.962168973782
 30
0.0
 11
-2786.290927338522
 21
2739.708076567564
 31
0.0
  0
LINE
  5
FE
330
1F
100
AcDbEntity
  8
0-3_仕上げ
  6
Continuous
 62
    40
370
    15
100
AcDbLine
 10
-2786.290927338522
 20
2681.962168973777
 30
0.0
 11
-2426.290927338529
 21
2681.962168973777
 31
0.0
  0
LINE
  5
FF
330
1F
100
AcDbEntity
  8
0-3_仕上げ
  6
Continuous
 62
    40
370
    15
100
AcDbLine
 10
-2786.290927338522
 20
2756.962168973777
 30
0.0
 11
-2426.290927338529
 21
2756.962168973777
 31
0.0
  0
LINE
  5
100
330
1F
100
AcDbEntity
  8
0-C_ハッチ
  6
JWW_DASHED1
 62
   120
370
     5
100
AcDbLine
 10
-2684.184021189891
 20
2756.962168973793
 30
0.0
 11
-2759.184021189905
 21
2681.962168973781
 31
0.0
  0
LINE
  5
101
330
1F
100
AcDbEntity
  8
0-C_ハッチ
  6
JWW_DASHED1
 62
   120
370
     5
100
AcDbLine
 10
-2641.7576143187
 20
2756.962168973789
 30
0.0
 11
-2716.757614318705
 21
2681.962168973777
 31
0.0
  0
LINE
  5
102
330
1F
100
AcDbEntity
  8
0-C_ハッチ
  6
JWW_DASHED1
 62
   120
370
     5
100
AcDbLine
 10
-2599.331207447496
 20
2756.962168973791
 30
0.0
 11
-2674.331207447505
 21
2681.962168973781
 31
0.0
  0
LINE
  5
103
330
1F
100
AcDbEntity
  8
0-C_ハッチ
  6
JWW_DASHED1
 62
   120
370
     5
100
AcDbLine
 10
-2556.9048005763
 20
2756.962168973786
 30
0.0
 11
-2631.904800576291
 21
2681.962168973793
 31
0.0
  0
LINE
  5
104
330
1F
100
AcDbEntity
  8
0-C_ハッチ
  6
JWW_DASHED1
 62
   120
370
     5
100
AcDbLine
 10
-2514.478393705105
 20
2756.962168973781
 30
0.0
 11
-2589.4783937051
 21
2681.962168973788
 31
0.0
  0
LINE
  5
105
330
1F
100
AcDbEntity
  8
0-C_ハッチ
  6
JWW_DASHED1
 62
   120
370
     5
100
AcDbLine
 10
-2472.051986833954
 20
2756.962168973788
 30
0.0
 11
-2547.051986833946
 21
2681.962168973791
 31
0.0
  0
LINE
  5
106
330
1F
100
AcDbEntity
  8
0-C_ハッチ
  6
JWW_DASHED1
 62
   120
370
     5
100
AcDbLine
 10
-2429.625579962757
 20
2756.962168973784
 30
0.0
 11
-2504.625579962754
 21
2681.962168973788
 31
0.0
  0
LINE
  5
107
330
1F
100
AcDbEntity
  8
0-C_ハッチ
  6
JWW_DASHED1
 62
   120
370
     5
100
AcDbLine
 10
-2426.290927338529
 20
2717.870414726808
 30
0.0
 11
-2462.199173091557
 21
2681.962168973786
 31
0.0
  0
LINE
  5
108
330
1F
100
AcDbEntity
  8
0-C_ハッチ
  6
JWW_DASHED1
 62
   120
370
     5
100
AcDbLine
 10
-2682.493545606751
 20
2291.962168973789
 30
0.0
 11
-2757.493545606746
 21
2216.962168973795
 31
0.0
  0
LINE
  5
109
330
1F
100
AcDbEntity
  8
0-C_ハッチ
  6
JWW_DASHED1
 62
   120
370
     5
100
AcDbLine
 10
-2640.067138735546
 20
2291.962168973795
 30
0.0
 11
-2715.067138735544
 21
2216.9621689738
 31
0.0
  0
LINE
  5
10A
330
1F
100
AcDbEntity
  8
0-C_ハッチ
  6
JWW_DASHED1
 62
   120
370
     5
100
AcDbLine
 10
-2597.640731864409
 20
2291.962168973788
 30
0.0
 11
-2672.6407318644
 21
2216.962168973793
 31
0.0
  0
LINE
  5
10B
330
1F
100
AcDbEntity
  8
0-C_ハッチ
  6
JWW_DASHED1
 62
   120
370
     5
100
AcDbLine
 10
-2555.214324993212
 20
2291.962168973784
 30
0.0
 11
-2630.214324993209
 21
2216.962168973788
 31
0.0
  0
LINE
  5
10C
330
1F
100
AcDbEntity
  8
0-C_ハッチ
  6
JWW_DASHED1
 62
   120
370
     5
100
AcDbLine
 10
-2512.787918122014
 20
2291.962168973781
 30
0.0
 11
-2587.787918122012
 21
2216.962168973786
 31
0.0
  0
LINE
  5
10D
330
1F
100
AcDbEntity
  8
0-C_ハッチ
  6
JWW_DASHED1
 62
   120
370
     5
100
AcDbLine
 10
-2470.3615112508
 20
2291.962168973795
 30
0.0
 11
-2545.361511250814
 21
2216.962168973782
 31
0.0
  0
LINE
  5
10E
330
1F
100
AcDbEntity
  8
0-C_ハッチ
  6
JWW_DASHED1
 62
   120
370
     5
100
AcDbLine
 10
-2427.9351043796
 20
2291.962168973791
 30
0.0
 11
-2502.935104379614
 21
2216.962168973781
 31
0.0
  0
LINE
  5
10F
330
1F
100
AcDbEntity
  8
0-C_ハッチ
  6
JWW_DASHED1
 62
   120
370
     5
100
AcDbLine
 10
-2426.290927338534
 20
2251.17993914366
 30
0.0
 11
-2460.5086975084
 21
2216.962168973793
 31
0.0
  0
LINE
  5
110
330
1F
100
AcDbEntity
  8
0-2_柱
  6
Continuous
 62
     7
370
     9
100
AcDbLine
 10
-2426.290927338529
 20
2681.962168973777
 30
0.0
 11
-2696.290927338529
 21
2291.962168973782
 31
0.0
  0
LINE
  5
111
330
1F
100
AcDbEntity
  8
0-2_柱
  6
Continuous
 62
    92
370
    13
100
AcDbLine
 10
-2426.290927338529
 20
2681.962168973789
 30
0.0
 11
-2426.290927338529
 21
2291.962168973782
 31
0.0
  0
LINE
  5
112
330
1F
100
AcDbEntity
  8
0-2_柱
  6
Continuous
 62
    92
370
    13
100
AcDbLine
 10
-2696.290927338529
 20
2681.962168973789
 30
0.0
 11
-2696.290927338529
 21
2291.962168973782
 31
0.0
  0
LINE
  5
113
330
1F
100
AcDbEntity
  8
0-4_枠
  6
Continuous
 62
    92
370
    13
100
AcDbLine
 10
-2246.290927338529
 20
2817.476887599551
 30
0.0
 11
-2254.776208712771
 21
2825.96216897379
 31
0.0
  0
LINE
  5
114
330
1F
100
AcDbEntity
  8
0-4_枠
  6
Continuous
 62
    92
370
    13
100
AcDbLine
 10
-2256.018689182603
 20
2822.962008756503
 30
0.0
 11
-2249.290492463042
 21
2816.233812036944
 31
0.0
  0
LINE
  5
115
330
1F
100
AcDbEntity
  8
0-4_枠
  6
Continuous
 62
    92
370
    13
100
AcDbLine
 10
-2254.776208712771
 20
2825.96216897379
 30
0.0
 11
-2426.290927338529
 21
2825.96216897379
 31
0.0
  0
LINE
  5
116
330
1F
100
AcDbEntity
  8
0-4_枠
  6
Continuous
 62
    92
370
    13
100
AcDbLine
 10
-2256.018689182603
 20
2822.962008756503
 30
0.0
 11
-2423.290927338532
 21
2822.962008756503
 31
0.0
  0
LINE
  5
117
330
1F
100
AcDbEntity
  8
0-4_枠
  6
Continuous
 62
    92
370
    13
100
AcDbLine
 10
-2254.776208712771
 20
2147.962168973791
 30
0.0
 11
-2246.290927338529
 21
2156.447450348028
 31
0.0
  0
LINE
  5
118
330
1F
100
AcDbEntity
  8
0-4_枠
  6
Continuous
 62
    92
370
    13
100
AcDbLine
 10
-2249.290492463042
 20
2159.44701547254
 30
0.0
 11
-2257.775773837279
 21
2150.961734098302
 31
0.0
  0
LINE
  5
119
330
1F
100
AcDbEntity
  8
0-4_枠
  6
Continuous
 62
    92
370
    13
100
AcDbLine
 10
-2423.290927338532
 20
2735.96216897379
 30
0.0
 11
-2426.290927338529
 21
2735.96216897379
 31
0.0
  0
LINE
  5
11A
330
1F
100
AcDbEntity
  8
0-4_枠
  6
Continuous
 62
    92
370
    13
100
AcDbLine
 10
-2423.290927338532
 20
2237.96216897379
 30
0.0
 11
-2426.290927338529
 21
2237.96216897379
 31
0.0
  0
LINE
  5
11B
330
1F
100
AcDbEntity
  8
0-4_枠
  6
Continuous
 62
    92
370
    13
100
AcDbLine
 10
-2254.776208712771
 20
2147.962168973791
 30
0.0
 11
-2426.290927338529
 21
2147.962168973791
 31
0.0
  0
LINE
  5
11C
330
1F
100
AcDbEntity
  8
0-4_枠
  6
Continuous
 62
    92
370
    13
100
AcDbLine
 10
-2257.775773837279
 20
2150.961734098302
 30
0.0
 11
-2423.290927338532
 21
2150.961734098302
 31
0.0
  0
LINE
  5
11D
330
1F
100
AcDbEntity
  8
0-4_枠
  6
Continuous
 62
    92
370
    13
100
AcDbLine
 10
-2423.290927338532
 20
2237.96216897379
 30
0.0
 11
-2423.290927338532
 21
2150.961734098302
 31
0.0
  0
LINE
  5
11E
330
1F
100
AcDbEntity
  8
0-4_枠
  6
Continuous
 62
    92
370
    13
100
AcDbLine
 10
-2423.290927338532
 20
2735.96216897379
 30
0.0
 11
-2423.290927338532
 21
2822.962008756503
 31
0.0
  0
LINE
  5
11F
330
1F
100
AcDbEntity
  8
0-4_枠
  6
Continuous
 62
    92
370
    13
100
AcDbLine
 10
-2426.290927338529
 20
2147.962168973791
 30
0.0
 11
-2426.290927338529
 21
2825.96216897379
 31
0.0
  0
LINE
  5
120
330
1F
100
AcDbEntity
  8
0-C_ハッチ
  6
Continuous
 62
   120
370
     5
100
AcDbLine
 10
-2298.034159293681
 20
2150.961734098295
 30
0.0
 11
-2249.290492463048
 21
2199.705400928928
 31
0.0
  0
LINE
  5
121
330
1F
100
AcDbEntity
  8
0-C_ハッチ
  6
Continuous
 62
   120
370
     5
100
AcDbLine
 10
-2357.431128913373
 20
2150.961734098307
 30
0.0
 11
-2249.290492463048
 21
2259.102370548633
 31
0.0
  0
LINE
  5
122
330
1F
100
AcDbEntity
  8
0-C_ハッチ
  6
Continuous
 62
   120
370
     5
100
AcDbLine
 10
-2416.828098533017
 20
2150.961734098309
 30
0.0
 11
-2249.290492463042
 21
2318.499340168284
 31
0.0
  0
LINE
  5
123
330
1F
100
AcDbEntity
  8
0-C_ハッチ
  6
Continuous
 62
   120
370
     5
100
AcDbLine
 10
-2423.290927338535
 20
2203.895874912494
 30
0.0
 11
-2249.290492463048
 21
2377.896309787979
 31
0.0
  0
LINE
  5
124
330
1F
100
AcDbEntity
  8
0-C_ハッチ
  6
Continuous
 62
   120
370
     5
100
AcDbLine
 10
-2426.290927338524
 20
2260.29284453215
 30
0.0
 11
-2249.290492463035
 21
2437.29327940764
 31
0.0
  0
LINE
  5
125
330
1F
100
AcDbEntity
  8
0-C_ハッチ
  6
Continuous
 62
   120
370
     5
100
AcDbLine
 10
-2426.290927338533
 20
2379.086783771493
 30
0.0
 11
-2285.290927338519
 21
2520.086783771505
 31
0.0
  0
LINE
  5
126
330
1F
100
AcDbEntity
  8
0-C_ハッチ
  6
Continuous
 62
   120
370
     5
100
AcDbLine
 10
-2426.29092733852
 20
2438.483753391151
 30
0.0
 11
-2285.290927338539
 21
2579.483753391131
 31
0.0
  0
LINE
  5
127
330
1F
100
AcDbEntity
  8
0-C_ハッチ
  6
Continuous
 62
   120
370
     5
100
AcDbLine
 10
-2426.290927338538
 20
2497.880723010837
 30
0.0
 11
-2285.290927338526
 21
2638.880723010847
 31
0.0
  0
LINE
  5
128
330
1F
100
AcDbEntity
  8
0-C_ハッチ
  6
Continuous
 62
   120
370
     5
100
AcDbLine
 10
-2426.290927338524
 20
2557.277692630495
 30
0.0
 11
-2285.290927338546
 21
2698.277692630474
 31
0.0
  0
LINE
  5
129
330
1F
100
AcDbEntity
  8
0-C_ハッチ
  6
Continuous
 62
   120
370
     5
100
AcDbLine
 10
-2426.290927338543
 20
2616.674662250181
 30
0.0
 11
-2249.290492463055
 21
2793.675097125667
 31
0.0
  0
LINE
  5
12A
330
1F
100
AcDbEntity
  8
0-C_ハッチ
  6
Continuous
 62
   120
370
     5
100
AcDbLine
 10
-2426.290927338533
 20
2676.071631869838
 30
0.0
 11
-2279.40055045188
 21
2822.962008756489
 31
0.0
  0
LINE
  5
12B
330
1F
100
AcDbEntity
  8
0-C_ハッチ
  6
Continuous
 62
   120
370
     5
100
AcDbLine
 10
-2426.29092733852
 20
2735.468601489496
 30
0.0
 11
-2425.797359854233
 21
2735.962168973785
 31
0.0
  0
LINE
  5
12C
330
1F
100
AcDbEntity
  8
0-C_ハッチ
  6
Continuous
 62
   120
370
     5
100
AcDbLine
 10
-2423.29092733854
 20
2738.468601489476
 30
0.0
 11
-2338.797520071505
 21
2822.962008756512
 31
0.0
  0
LINE
  5
12D
330
1F
100
AcDbEntity
  8
0-C_ハッチ
  6
Continuous
 62
   120
370
     5
100
AcDbLine
 10
-2423.290927338532
 20
2797.865571109189
 30
0.0
 11
-2398.194489691219
 21
2822.9620087565
 31
0.0
  0
LINE
  5
12E
330
1F
100
AcDbEntity
  8
0-4_枠
  6
Continuous
 62
    92
370
    13
100
AcDbLine
 10
-2246.290927338529
 20
2817.476887599551
 30
0.0
 11
-2246.290927338529
 21
2723.962168973789
 31
0.0
  0
LINE
  5
12F
330
1F
100
AcDbEntity
  8
0-4_枠
  6
Continuous
 62
    92
370
    13
100
AcDbLine
 10
-2249.290492463042
 20
2816.233812036944
 30
0.0
 11
-2249.290492463042
 21
2726.962168973789
 31
0.0
  0
LINE
  5
130
330
1F
100
AcDbEntity
  8
0-4_枠
  6
Continuous
 62
    92
370
    13
100
AcDbLine
 10
-2282.290927338528
 20
2723.962168973789
 30
0.0
 11
-2246.290927338529
 21
2723.962168973789
 31
0.0
  0
LINE
  5
131
330
1F
100
AcDbEntity
  8
0-4_枠
  6
Continuous
 62
    92
370
    13
100
AcDbLine
 10
-2285.290927338528
 20
2726.962168973789
 30
0.0
 11
-2249.290492463042
 21
2726.962168973789
 31
0.0
  0
LINE
  5
132
330
1F
100
AcDbEntity
  8
0-4_枠
  6
Continuous
 62
    92
370
    13
100
AcDbLine
 10
-2246.290927338529
 20
2156.447450348028
 30
0.0
 11
-2246.290927338529
 21
2477.96216897379
 31
0.0
  0
LINE
  5
133
330
1F
100
AcDbEntity
  8
0-4_枠
  6
Continuous
 62
    92
370
    13
100
AcDbLine
 10
-2249.290492463042
 20
2159.44701547254
 30
0.0
 11
-2249.290492463042
 21
2474.962168973791
 31
0.0
  0
LINE
  5
134
330
1F
100
AcDbEntity
  8
0-4_枠
  6
Continuous
 62
    92
370
    13
100
AcDbLine
 10
-2282.290927338528
 20
2477.96216897379
 30
0.0
 11
-2246.290927338529
 21
2477.96216897379
 31
0.0
  0
LINE
  5
135
330
1F
100
AcDbEntity
  8
0-4_枠
  6
Continuous
 62
    92
370
    13
100
AcDbLine
 10
-2285.290927338528
 20
2474.962168973791
 30
0.0
 11
-2249.290492463042
 21
2474.962168973791
 31
0.0
  0
LINE
  5
136
330
1F
100
AcDbEntity
  8
0-4_枠
  6
Continuous
 62
    92
370
    13
100
AcDbLine
 10
-2282.290927338528
 20
2477.96216897379
 30
0.0
 11
-2282.290927338528
 21
2723.962168973789
 31
0.0
  0
LINE
  5
137
330
1F
100
AcDbEntity
  8
0-4_枠
  6
Continuous
 62
    92
370
    13
100
AcDbLine
 10
-2285.290927338528
 20
2474.962168973791
 30
0.0
 11
-2285.290927338528
 21
2726.962168973789
 31
0.0
  0
ARC
  5
138
330
1F
100
AcDbEntity
  8
0-7_金物
  6
Continuous
 62
     7
370
     9
100
AcDbCircle
 10
-2446.998271096069
 20
2600.962169007286
 30
0.0
 40
188.167407989502
100
AcDbArc
 50
346.1637114550782
 51
13.83631887695315
  0
LINE
  5
139
330
1F
100
AcDbEntity
  8
0-7_金物
  6
Continuous
 62
     7
370
     9
100
AcDbLine
 10
-2282.290927319083
 20
2615.962168750359
 30
0.0
 11
-2312.290926783323
 21
2615.962168988103
 31
0.0
  0
LINE
  5
13A
330
1F
100
AcDbEntity
  8
0-7_金物
  6
Continuous
 62
     7
370
     9
100
AcDbLine
 10
-2312.290927021405
 20
2585.962169409314
 30
0.0
 11
-2312.290926783323
 21
2615.962168988103
 31
0.0
  0
LINE
  5
13B
330
1F
100
AcDbEntity
  8
0-7_金物
  6
Continuous
 62
     7
370
     9
100
AcDbLine
 10
-2282.290927328065
 20
2585.962169170886
 30
0.0
 11
-2312.290927021405
 21
2585.962169409314
 31
0.0
  0
LINE
  5
13C
330
1F
100
AcDbEntity
  8
0-7_金物
  6
Continuous
 62
     7
370
     9
100
AcDbLine
 10
-2264.290926647829
 20
2645.962167898142
 30
0.0
 11
-2282.290927308619
 21
2645.962169760346
 31
0.0
  0
LINE
  5
13D
330
1F
100
AcDbEntity
  8
0-7_金物
  6
Continuous
 62
     7
370
     9
100
AcDbLine
 10
-2282.290927338528
 20
2555.962168160899
 30
0.0
 11
-2282.290927308619
 21
2645.962169760346
 31
0.0
  0
LINE
  5
13E
330
1F
100
AcDbEntity
  8
0-7_金物
  6
Continuous
 62
     7
370
     9
100
AcDbLine
 10
-2264.290927362083
 20
2555.962169161778
 30
0.0
 11
-2282.290927338528
 21
2555.962168160899
 31
0.0
  0
LINE
  5
13F
330
1F
100
AcDbEntity
  8
0-C_ハッチ
  6
Continuous
 62
   120
370
     5
100
AcDbLine
 10
-2256.606450995233
 20
2726.962168973789
 30
0.0
 11
-2249.290492463048
 21
2734.278127505971
 31
0.0
  0
LINE
  5
140
330
1F
100
AcDbEntity
  8
0-C_ハッチ
  6
Continuous
 62
   120
370
     5
100
AcDbLine
 10
-2426.290927338533
 20
2319.689814151791
 30
0.0
 11
-2271.018572516533
 21
2474.962168973791
 31
0.0
  0
LINE
  5
141
330
1F
100
AcDbEntity
  8
0-B_寸法
  6
Continuous
 62
   120
370
     5
100
AcDbLine
 10
110.6908107777511
 20
2147.96216897379
 30
0.0
 11
264.5373120555584
 21
2147.96216897379
 31
0.0
  0
LWPOLYLINE
  5
142
330
1F
100
AcDbEntity
  8
0-B_寸法
  6
Continuous
 62
     7
370
     9
100
AcDbPolyline
 90
        4
 70
     1
 43
3.0
 10
112.1908107777511
 20
2147.96216897379
 42
0.4142135623731
 10
110.6908107777511
 20
2149.46216897379
 42
0.4142135623731
 10
109.1908107777511
 20
2147.96216897379
 42
0.4142135623731
 10
110.6908107777511
 20
2146.46216897379
 42
0.4142135623731
  0
LINE
  5
143
330
1F
100
AcDbEntity
  8
0-B_寸法
  6
Continuous
 62
   120
370
     5
100
AcDbLine
 10
110.6908107777511
 20
2471.962168973789
 30
0.0
 11
264.5373120555584
 21
2471.962168973789
 31
0.0
  0
LWPOLYLINE
  5
144
330
1F
100
AcDbEntity
  8
0-B_寸法
  6
Continuous
 62
     7
370
     9
100
AcDbPolyline
 90
        4
 70
     1
 43
3.0
 10
112.1908107777511
 20
2471.962168973789
 42
0.4142135623731
 10
110.6908107777511
 20
2473.462168973789
 42
0.4142135623731
 10
109.1908107777511
 20
2471.962168973789
 42
0.4142135623731
 10
110.6908107777511
 20
2470.462168973789
 42
0.4142135623731
  0
LINE
  5
145
330
1F
100
AcDbEntity
  8
0-4_枠
  6
Continuous
 62
    92
370
    13
100
AcDbLine
 10
471.9185428433147
 20
2381.962168973789
 30
0.0
 11
474.9185428433137
 21
2381.962168973789
 31
0.0
  0
LINE
  5
146
330
1F
100
AcDbEntity
  8
0-4_枠
  6
Continuous
 62
    92
370
    13
100
AcDbLine
 10
471.9185428433147
 20
2381.962168973789
 30
0.0
 11
471.9185428433147
 21
2468.962168973789
 31
0.0
  0
LINE
  5
147
330
1F
100
AcDbEntity
  8
0-4_枠
  6
Continuous
 62
    92
370
    13
100
AcDbLine
 10
474.9185428433137
 20
2471.962168973789
 30
0.0
 11
294.9185428433137
 21
2471.962168973789
 31
0.0
  0
LINE
  5
148
330
1F
100
AcDbEntity
  8
0-4_枠
  6
Continuous
 62
    92
370
    13
100
AcDbLine
 10
471.9185428433147
 20
2468.962168973789
 30
0.0
 11
297.9185428433161
 21
2468.962168973789
 31
0.0
  0
LINE
  5
149
330
1F
100
AcDbEntity
  8
0-4_枠
  6
Continuous
 62
    92
370
    13
100
AcDbLine
 10
471.9185428433147
 20
2237.96216897379
 30
0.0
 11
474.9185428433137
 21
2237.96216897379
 31
0.0
  0
LINE
  5
14A
330
1F
100
AcDbEntity
  8
0-4_枠
  6
Continuous
 62
    92
370
    13
100
AcDbLine
 10
474.9185428433137
 20
2471.962168973789
 30
0.0
 11
474.9185428433137
 21
2147.96216897379
 31
0.0
  0
LINE
  5
14B
330
1F
100
AcDbEntity
  8
0-4_枠
  6
Continuous
 62
    92
370
    13
100
AcDbLine
 10
471.9185428433147
 20
2237.96216897379
 30
0.0
 11
471.9185428433147
 21
2150.96216897379
 31
0.0
  0
LINE
  5
14C
330
1F
100
AcDbEntity
  8
0-B_寸法
  6
Continuous
 62
   120
370
     5
100
AcDbLine
 10
260.9685619786589
 20
2510.96216897379
 30
0.0
 11
110.6908107777511
 21
2510.96216897379
 31
0.0
  0
LWPOLYLINE
  5
14D
330
1F
100
AcDbEntity
  8
0-B_寸法
  6
Continuous
 62
     7
370
     9
100
AcDbPolyline
 90
        4
 70
     1
 43
3.0
 10
112.1908107777511
 20
2510.96216897379
 42
0.4142135623731
 10
110.6908107777511
 20
2512.46216897379
 42
0.4142135623731
 10
109.1908107777511
 20
2510.96216897379
 42
0.4142135623731
 10
110.6908107777511
 20
2509.46216897379
 42
0.4142135623731
  0
LINE
  5
14E
330
1F
100
AcDbEntity
  8
0-B_寸法
  6
Continuous
 62
   120
370
     5
100
AcDbLine
 10
260.9685619786589
 20
2690.96216897379
 30
0.0
 11
110.6908107777511
 21
2690.96216897379
 31
0.0
  0
LWPOLYLINE
  5
14F
330
1F
100
AcDbEntity
  8
0-B_寸法
  6
Continuous
 62
     7
370
     9
100
AcDbPolyline
 90
        4
 70
     1
 43
3.0
 10
112.1908107777511
 20
2690.96216897379
 42
0.4142135623731
 10
110.6908107777511
 20
2692.46216897379
 42
0.4142135623731
 10
109.1908107777511
 20
2690.96216897379
 42
0.4142135623731
 10
110.6908107777511
 20
2689.46216897379
 42
0.4142135623731
  0
LINE
  5
150
330
1F
100
AcDbEntity
  8
0-B_寸法
  6
Continuous
 62
   120
370
     5
100
AcDbLine
 10
110.6908107777511
 20
2690.96216897379
 30
0.0
 11
110.6908107777511
 21
2510.96216897379
 31
0.0
  0
LINE
  5
151
330
1F
100
AcDbEntity
  8
0-C_ハッチ
  6
JWW_DASHED1
 62
   120
370
     5
100
AcDbLine
 10
508.2576403595189
 20
2291.962168973814
 30
0.0
 11
474.9185428433
 21
2258.623071457595
 31
0.0
  0
LINE
  5
152
330
1F
100
AcDbEntity
  8
0-C_ハッチ
  6
JWW_DASHED1
 62
   120
370
     5
100
AcDbLine
 10
550.6840472307156
 20
2291.962168973811
 30
0.0
 11
475.6840472307206
 21
2216.962168973816
 31
0.0
  0
LINE
  5
153
330
1F
100
AcDbEntity
  8
0-C_ハッチ
  6
JWW_DASHED1
 62
   120
370
     5
100
AcDbLine
 10
593.1104541019122
 20
2291.962168973807
 30
0.0
 11
518.110454101919
 21
2216.962168973811
 31
0.0
  0
LINE
  5
154
330
1F
100
AcDbEntity
  8
0-C_ハッチ
  6
JWW_DASHED1
 62
   120
370
     5
100
AcDbLine
 10
635.5368609731122
 20
2291.962168973805
 30
0.0
 11
560.5368609731156
 21
2216.962168973809
 31
0.0
  0
LINE
  5
155
330
1F
100
AcDbEntity
  8
0-C_ハッチ
  6
JWW_DASHED1
 62
   120
370
     5
100
AcDbLine
 10
677.9632678443054
 20
2291.962168973802
 30
0.0
 11
602.9632678443122
 21
2216.962168973805
 31
0.0
  0
LINE
  5
156
330
1F
100
AcDbEntity
  8
0-C_ハッチ
  6
JWW_DASHED1
 62
   120
370
     5
100
AcDbLine
 10
720.3896747155054
 20
2291.962168973798
 30
0.0
 11
645.3896747155088
 21
2216.962168973802
 31
0.0
  0
LINE
  5
157
330
1F
100
AcDbEntity
  8
0-C_ハッチ
  6
JWW_DASHED1
 62
   120
370
     5
100
AcDbLine
 10
762.8160815867157
 20
2291.96216897381
 30
0.0
 11
687.8160815867054
 21
2216.9621689738
 31
0.0
  0
LINE
  5
158
330
1F
100
AcDbEntity
  8
0-C_ハッチ
  6
JWW_DASHED1
 62
   120
370
     5
100
AcDbLine
 10
805.2424884578645
 20
2291.962168973811
 30
0.0
 11
730.2424884578543
 21
2216.962168973802
 31
0.0
  0
LINE
  5
159
330
1F
100
AcDbEntity
  8
0-C_ハッチ
  6
JWW_DASHED1
 62
   120
370
     5
100
AcDbLine
 10
847.6688953290577
 20
2291.962168973807
 30
0.0
 11
772.6688953290645
 21
2216.962168973813
 31
0.0
  0
LINE
  5
15A
330
1F
100
AcDbEntity
  8
0-C_ハッチ
  6
JWW_DASHED1
 62
   120
370
     5
100
AcDbLine
 10
890.0953022002645
 20
2291.962168973811
 30
0.0
 11
815.095302200268
 21
2216.962168973816
 31
0.0
  0
LINE
  5
15B
330
1F
100
AcDbEntity
  8
0-C_ハッチ
  6
JWW_DASHED1
 62
   120
370
     5
100
AcDbLine
 10
932.5217090714611
 20
2291.962168973809
 30
0.0
 11
857.5217090714646
 21
2216.962168973813
 31
0.0
  0
LINE
  5
15C
330
1F
100
AcDbEntity
  8
0-C_ハッチ
  6
JWW_DASHED1
 62
   120
370
     5
100
AcDbLine
 10
974.9481159426578
 20
2291.962168973805
 30
0.0
 11
899.9481159426612
 21
2216.962168973809
 31
0.0
  0
LINE
  5
15D
330
1F
100
AcDbEntity
  8
0-C_ハッチ
  6
JWW_DASHED1
 62
   120
370
     5
100
AcDbLine
 10
1017.374522813854
 20
2291.962168973802
 30
0.0
 11
942.3745228138578
 21
2216.962168973807
 31
0.0
  0
LINE
  5
15E
330
1F
100
AcDbEntity
  8
0-4_枠
  6
Continuous
 62
    92
370
    13
100
AcDbLine
 10
303.4038242175527
 20
2147.96216897379
 30
0.0
 11
474.9185428433137
 21
2147.96216897379
 31
0.0
  0
LINE
  5
15F
330
1F
100
AcDbEntity
  8
0-4_枠
  6
Continuous
 62
    92
370
    13
100
AcDbLine
 10
294.9185428433137
 20
2156.447450348028
 30
0.0
 11
294.9185428433137
 21
2471.962168973789
 31
0.0
  0
LINE
  5
160
330
1F
100
AcDbEntity
  8
0-4_枠
  6
Continuous
 62
    92
370
    13
100
AcDbLine
 10
303.4038242175527
 20
2147.96216897379
 30
0.0
 11
294.9185428433137
 21
2156.447450348028
 31
0.0
  0
LINE
  5
161
330
1F
100
AcDbEntity
  8
0-4_枠
  6
Continuous
 62
    92
370
    13
100
AcDbLine
 10
297.9185428433161
 20
2468.962168973789
 30
0.0
 11
297.9185428433161
 21
2157.690091035146
 31
0.0
  0
LINE
  5
162
330
1F
100
AcDbEntity
  8
0-4_枠
  6
Continuous
 62
    92
370
    13
100
AcDbLine
 10
304.6464649046723
 20
2150.96216897379
 30
0.0
 11
297.9185428433161
 21
2157.690091035146
 31
0.0
  0
LINE
  5
163
330
1F
100
AcDbEntity
  8
0-4_枠
  6
Continuous
 62
    92
370
    13
100
AcDbLine
 10
471.9185428433147
 20
2150.96216897379
 30
0.0
 11
304.6464649046723
 21
2150.96216897379
 31
0.0
  0
LINE
  5
164
330
1F
100
AcDbEntity
  8
0-C_ハッチ
  6
Continuous
 62
   120
370
     5
100
AcDbLine
 10
471.9185428433232
 20
2200.144655805042
 30
0.0
 11
422.7360560120607
 21
2150.96216897378
 31
0.0
  0
LINE
  5
165
330
1F
100
AcDbEntity
  8
0-C_ハッチ
  6
Continuous
 62
   120
370
     5
100
AcDbLine
 10
324.957268674377
 20
2468.962168973787
 30
0.0
 11
297.9185428433161
 21
2441.923443142728
 31
0.0
  0
LINE
  5
166
330
1F
100
AcDbEntity
  8
0-C_ハッチ
  6
Continuous
 62
   120
370
     5
100
AcDbLine
 10
471.9185428433215
 20
2437.732534283736
 30
0.0
 11
297.9185428433161
 21
2263.732534283731
 31
0.0
  0
LINE
  5
167
330
1F
100
AcDbEntity
  8
0-C_ハッチ
  6
Continuous
 62
   120
370
     5
100
AcDbLine
 10
384.3542382940208
 20
2468.962168973785
 30
0.0
 11
297.9185428433161
 21
2382.52647352308
 31
0.0
  0
LINE
  5
168
330
1F
100
AcDbEntity
  8
0-C_ハッチ
  6
Continuous
 62
   120
370
     5
100
AcDbLine
 10
443.7512079137244
 20
2468.962168973789
 30
0.0
 11
297.9185428433161
 21
2323.129503903378
 31
0.0
  0
LINE
  5
169
330
1F
100
AcDbEntity
  8
0-C_ハッチ
  6
Continuous
 62
   120
370
     5
100
AcDbLine
 10
474.9185428433137
 20
2381.335564664029
 30
0.0
 11
297.9185428433161
 21
2204.335564664029
 31
0.0
  0
LINE
  5
16A
330
1F
100
AcDbEntity
  8
0-C_ハッチ
  6
Continuous
 62
   120
370
     5
100
AcDbLine
 10
474.9185428433137
 20
2262.541625424678
 30
0.0
 11
363.3390863924203
 21
2150.962168973785
 31
0.0
  0
LINE
  5
16B
330
1F
100
AcDbEntity
  8
0-C_ハッチ
  6
JWW_DASHED1
 62
   120
370
     5
100
AcDbLine
 10
479.5519138988178
 20
2426.962416413609
 30
0.0
 11
474.9185428433188
 21
2422.329045358109
 31
0.0
  0
LINE
  5
16C
330
1F
100
AcDbEntity
  8
0-C_ハッチ
  6
JWW_DASHED1
 62
   120
370
     5
100
AcDbLine
 10
521.9783207700161
 20
2426.962416413607
 30
0.0
 11
474.9185428433188
 21
2379.902638486909
 31
0.0
  0
LINE
  5
16D
330
1F
100
AcDbEntity
  8
0-C_ハッチ
  6
JWW_DASHED1
 62
   120
370
     5
100
AcDbLine
 10
564.4047276412127
 20
2426.962416413605
 30
0.0
 11
489.4044802013943
 21
2351.962168973788
 31
0.0
  0
LINE
  5
16E
330
1F
100
AcDbEntity
  8
0-C_ハッチ
  6
JWW_DASHED1
 62
   120
370
     5
100
AcDbLine
 10
606.8311345124093
 20
2426.9624164136
 30
0.0
 11
531.8308870725944
 21
2351.962168973784
 31
0.0
  0
LINE
  5
16F
330
1F
100
AcDbEntity
  8
0-C_ハッチ
  6
JWW_DASHED1
 62
   120
370
     5
100
AcDbLine
 10
649.2575413835752
 20
2426.96241641362
 30
0.0
 11
574.2572939437432
 21
2351.962168973789
 31
0.0
  0
LINE
  5
170
330
1F
100
AcDbEntity
  8
0-C_ハッチ
  6
JWW_DASHED1
 62
   120
370
     5
100
AcDbLine
 10
691.6839482547753
 20
2426.96241641362
 30
0.0
 11
616.6837008149603
 21
2351.962168973805
 31
0.0
  0
LINE
  5
171
330
1F
100
AcDbEntity
  8
0-C_ハッチ
  6
JWW_DASHED1
 62
   120
370
     5
100
AcDbLine
 10
734.1103551259719
 20
2426.962416413616
 30
0.0
 11
659.1101076861569
 21
2351.962168973802
 31
0.0
  0
LINE
  5
172
330
1F
100
AcDbEntity
  8
0-C_ハッチ
  6
JWW_DASHED1
 62
   120
370
     5
100
AcDbLine
 10
776.5367619971685
 20
2426.962416413613
 30
0.0
 11
701.5365145573535
 21
2351.962168973798
 31
0.0
  0
LINE
  5
173
330
1F
100
AcDbEntity
  8
0-C_ハッチ
  6
JWW_DASHED1
 62
   120
370
     5
100
AcDbLine
 10
818.9631688683651
 20
2426.962416413611
 30
0.0
 11
743.9629214285501
 21
2351.962168973795
 31
0.0
  0
LINE
  5
174
330
1F
100
AcDbEntity
  8
0-C_ハッチ
  6
JWW_DASHED1
 62
   120
370
     5
100
AcDbLine
 10
861.3895757395617
 20
2426.962416413607
 30
0.0
 11
786.3893282997467
 21
2351.962168973791
 31
0.0
  0
LINE
  5
175
330
1F
100
AcDbEntity
  8
0-C_ハッチ
  6
JWW_DASHED1
 62
   120
370
     5
100
AcDbLine
 10
903.8159826107583
 20
2426.962416413605
 30
0.0
 11
828.8157351709433
 21
2351.962168973788
 31
0.0
  0
LINE
  5
176
330
1F
100
AcDbEntity
  8
0-C_ハッチ
  6
JWW_DASHED1
 62
   120
370
     5
100
AcDbLine
 10
946.2423894819003
 20
2426.962416413603
 30
0.0
 11
871.2421420420887
 21
2351.962168973788
 31
0.0
  0
LINE
  5
177
330
1F
100
AcDbEntity
  8
0-C_ハッチ
  6
JWW_DASHED1
 62
   120
370
     5
100
AcDbLine
 10
988.668796353114
 20
2426.962416413613
 30
0.0
 11
913.6685489132819
 21
2351.962168973782
 31
0.0
  0
LINE
  5
178
330
1F
100
AcDbEntity
  8
0-C_ハッチ
  6
JWW_DASHED1
 62
   120
370
     5
100
AcDbLine
 10
1031.095203224321
 20
2426.96241641362
 30
0.0
 11
956.0949557845058
 21
2351.962168973805
 31
0.0
  0
LINE
  5
179
330
1F
100
AcDbEntity
  8
0-C_ハッチ
  6
Continuous
 62
   120
370
     5
100
AcDbLine
 10
474.9185428433137
 20
2321.938595044382
 30
0.0
 11
304.2942908386979
 21
2151.314343039764
 31
0.0
  0
LINE
  5
17A
330
1F
100
AcDbEntity
  8
0-2_柱
  6
Continuous
 62
    92
370
    13
100
AcDbLine
 10
654.9185428433154
 20
2351.962168973791
 30
0.0
 11
654.9185428433154
 21
2291.962168973802
 31
0.0
  0
LINE
  5
17B
330
1F
100
AcDbEntity
  8
0-2_柱
  6
Continuous
 62
     7
370
     9
100
AcDbLine
 10
474.9185428433137
 20
2291.962168973802
 30
0.0
 11
654.9185428433154
 21
2351.962168973791
 31
0.0
  0
MTEXT
  5
17C
330
1F
100
AcDbEntity
  8
0-B_寸法
  6
Continuous
 62
     7
370
     0
100
AcDbMText
 10
95.69076128978878
 20
2526.682168973789
 30
0.0
 40
91.44
 41
120.0
 46
0.0
 71
     7
 72
     1
  1
{\fＭＳ ゴシック|b0|i0|c128|p49;30}
 11
6.123031769111886E-17
 21
1.0
 31
0.0
 73
     1
 44
1.0
  0
MTEXT
  5
17D
330
1F
100
AcDbEntity
  8
0-B_寸法
  6
Continuous
 62
     7
370
     0
100
AcDbMText
 10
104.0680412537338
 20
2235.68216897379
 30
0.0
 40
91.44
 41
120.0
 46
0.0
 71
     7
 72
     1
  1
{\fＭＳ ゴシック|b0|i0|c128|p49;54}
 11
6.123031769111886E-17
 21
1.0
 31
0.0
 73
     1
 44
1.0
  0
MTEXT
  5
17E
330
1F
100
AcDbEntity
  8
0-6_扉
  6
Continuous
 62
     7
370
   211
100
AcDbMText
 10
255.9788800856543
 20
2387.182217369355
 30
0.0
 40
91.44
 41
180.0
 46
0.0
 71
     7
 72
     1
  1
{\fＭＳ ゴシック|b0|i0|c128|p49;6.5}
 11
6.123031769111886E-17
 21
1.0
 31
0.0
 73
     1
 44
1.0
  0
LINE
  5
17F
330
1F
100
AcDbEntity
  8
0-3_仕上げ
  6
Continuous
 62
    40
370
    15
100
AcDbLine
 10
474.9185428433137
 20
2426.962416413613
 30
0.0
 11
1041.883684758309
 21
2426.962416413613
 31
0.0
  0
LINE
  5
180
330
1F
100
AcDbEntity
  8
0-3_仕上げ
  6
Continuous
 62
    40
370
    15
100
AcDbLine
 10
1041.883684758309
 20
2216.962168973802
 30
0.0
 11
474.9185428433137
 21
2216.962168973802
 31
0.0
  0
LINE
  5
181
330
1F
100
AcDbEntity
  8
0-3_仕上げ
  6
Continuous
 62
    40
370
    15
100
AcDbLine
 10
1041.883684758309
 20
2291.962168973802
 30
0.0
 11
474.9185428433137
 21
2291.962168973802
 31
0.0
  0
LINE
  5
182
330
1F
100
AcDbEntity
  8
0-C_ハッチ
  6
JWW_DASHED1
 62
   120
370
     5
100
AcDbLine
 10
1041.883684758309
 20
2274.044924047056
 30
0.0
 11
984.8009296850544
 21
2216.962168973802
 31
0.0
  0
LINE
  5
183
330
1F
100
AcDbEntity
  8
0-C_ハッチ
  6
JWW_DASHED1
 62
   120
370
     5
100
AcDbLine
 10
1041.883684758309
 20
2231.618517175858
 30
0.0
 11
1027.227336556251
 21
2216.9621689738
 31
0.0
  0
LINE
  5
184
330
1F
100
AcDbEntity
  8
0-3_仕上げ
  6
Continuous
 62
    40
370
    15
100
AcDbLine
 10
1041.883684758309
 20
2351.962168973789
 30
0.0
 11
474.9185428433137
 21
2351.962168973789
 31
0.0
  0
LINE
  5
185
330
1F
100
AcDbEntity
  8
0-C_ハッチ
  6
JWW_DASHED1
 62
   120
370
     5
100
AcDbLine
 10
1041.883684758309
 20
2395.32449107641
 30
0.0
 11
998.5213626557024
 21
2351.962168973802
 31
0.0
  0
LINE
  5
186
330
1F
100
AcDbEntity
  8
0-C_ハッチ
  6
JWW_DASHED1
 62
   120
370
     5
100
AcDbLine
 10
1041.883684758309
 20
2352.898084205208
 30
0.0
 11
1040.947769526899
 21
2351.962168973798
 31
0.0
  0
LINE
  5
187
330
1F
100
AcDbEntity
  8
0-4_枠
  6
Continuous
 62
    92
370
    13
100
AcDbLine
 10
2274.614036718866
 20
2825.96216897379
 30
0.0
 11
2266.128755344629
 21
2817.476887599551
 31
0.0
  0
LINE
  5
188
330
1F
100
AcDbEntity
  8
0-4_枠
  6
Continuous
 62
    92
370
    13
100
AcDbLine
 10
2269.128320469139
 20
2816.233812036944
 30
0.0
 11
2275.856517188698
 21
2822.962008756503
 31
0.0
  0
LINE
  5
189
330
1F
100
AcDbEntity
  8
0-4_枠
  6
Continuous
 62
    92
370
    13
100
AcDbLine
 10
2443.128755344628
 20
2735.96216897379
 30
0.0
 11
2443.128755344628
 21
2822.962008756503
 31
0.0
  0
LINE
  5
18A
330
1F
100
AcDbEntity
  8
0-4_枠
  6
Continuous
 62
    92
370
    13
100
AcDbLine
 10
2275.856517188698
 20
2822.962008756503
 30
0.0
 11
2443.128755344628
 21
2822.962008756503
 31
0.0
  0
LINE
  5
18B
330
1F
100
AcDbEntity
  8
0-4_枠
  6
Continuous
 62
    92
370
    13
100
AcDbLine
 10
2274.614036718866
 20
2825.96216897379
 30
0.0
 11
2446.128755344629
 21
2825.96216897379
 31
0.0
  0
LINE
  5
18C
330
1F
100
AcDbEntity
  8
0-4_枠
  6
Continuous
 62
    92
370
    13
100
AcDbLine
 10
2443.128755344628
 20
2735.96216897379
 30
0.0
 11
2446.128755344629
 21
2735.96216897379
 31
0.0
  0
LINE
  5
18D
330
1F
100
AcDbEntity
  8
0-C_ハッチ
  6
JWW_DASHED1
 62
   120
370
     5
100
AcDbLine
 10
2459.648177388717
 20
2756.962168973796
 30
0.0
 11
2446.129497664096
 21
2743.443489249175
 31
0.0
  0
LINE
  5
18E
330
1F
100
AcDbEntity
  8
0-C_ハッチ
  6
JWW_DASHED1
 62
   120
370
     5
100
AcDbLine
 10
2502.074584259914
 20
2756.962168973793
 30
0.0
 11
2446.129497664096
 21
2701.017082377977
 31
0.0
  0
LINE
  5
18F
330
1F
100
AcDbEntity
  8
0-C_ハッチ
  6
JWW_DASHED1
 62
   120
370
     5
100
AcDbLine
 10
2544.50099113111
 20
2756.962168973791
 30
0.0
 11
2469.500991131114
 21
2681.962168973795
 31
0.0
  0
LINE
  5
190
330
1F
100
AcDbEntity
  8
0-C_ハッチ
  6
JWW_DASHED1
 62
   120
370
     5
100
AcDbLine
 10
2586.927398002324
 20
2756.962168973803
 30
0.0
 11
2511.92739800231
 21
2681.962168973791
 31
0.0
  0
LINE
  5
191
330
1F
100
AcDbEntity
  8
0-C_ハッチ
  6
JWW_DASHED1
 62
   120
370
     5
100
AcDbLine
 10
2629.353804873473
 20
2756.962168973807
 30
0.0
 11
2554.353804873478
 21
2681.962168973811
 31
0.0
  0
LINE
  5
192
330
1F
100
AcDbEntity
  8
0-C_ハッチ
  6
JWW_DASHED1
 62
   120
370
     5
100
AcDbLine
 10
2671.780211744666
 20
2756.962168973802
 30
0.0
 11
2596.780211744673
 21
2681.962168973809
 31
0.0
  0
LINE
  5
193
330
1F
100
AcDbEntity
  8
0-C_ハッチ
  6
JWW_DASHED1
 62
   120
370
     5
100
AcDbLine
 10
2714.206618615862
 20
2756.962168973798
 30
0.0
 11
2639.206618615869
 21
2681.962168973803
 31
0.0
  0
LINE
  5
194
330
1F
100
AcDbEntity
  8
0-C_ハッチ
  6
JWW_DASHED1
 62
   120
370
     5
100
AcDbLine
 10
2756.633025487059
 20
2756.962168973793
 30
0.0
 11
2681.633025487064
 21
2681.9621689738
 31
0.0
  0
LINE
  5
195
330
1F
100
AcDbEntity
  8
0-C_ハッチ
  6
JWW_DASHED1
 62
   120
370
     5
100
AcDbLine
 10
2799.059432358264
 20
2756.9621689738
 30
0.0
 11
2724.059432358266
 21
2681.962168973802
 31
0.0
  0
LINE
  5
196
330
1F
100
AcDbEntity
  8
0-C_ハッチ
  6
JWW_DASHED1
 62
   120
370
     5
100
AcDbLine
 10
1714.543463905197
 20
2291.9621689738
 30
0.0
 11
1639.5434639052
 21
2216.962168973805
 31
0.0
  0
LINE
  5
197
330
1F
100
AcDbEntity
  8
0-C_ハッチ
  6
JWW_DASHED1
 62
   120
370
     5
100
AcDbLine
 10
1756.969870776394
 20
2291.962168973796
 30
0.0
 11
1681.969870776397
 21
2216.962168973802
 31
0.0
  0
LINE
  5
198
330
1F
100
AcDbEntity
  8
0-C_ハッチ
  6
JWW_DASHED1
 62
   120
370
     5
100
AcDbLine
 10
1799.39627764759
 20
2291.962168973793
 30
0.0
 11
1724.396277647594
 21
2216.962168973796
 31
0.0
  0
LINE
  5
199
330
1F
100
AcDbEntity
  8
0-C_ハッチ
  6
JWW_DASHED1
 62
   120
370
     5
100
AcDbLine
 10
1841.822684518801
 20
2291.962168973805
 30
0.0
 11
1766.82268451879
 21
2216.962168973793
 31
0.0
  0
LINE
  5
19A
330
1F
100
AcDbEntity
  8
0-C_ハッチ
  6
JWW_DASHED1
 62
   120
370
     5
100
AcDbLine
 10
1884.249091389956
 20
2291.962168973814
 30
0.0
 11
1809.24909138996
 21
2216.962168973816
 31
0.0
  0
LINE
  5
19B
330
1F
100
AcDbEntity
  8
0-C_ハッチ
  6
JWW_DASHED1
 62
   120
370
     5
100
AcDbLine
 10
1926.675498261151
 20
2291.96216897381
 30
0.0
 11
1851.675498261156
 21
2216.962168973814
 31
0.0
  0
LINE
  5
19C
330
1F
100
AcDbEntity
  8
0-C_ハッチ
  6
JWW_DASHED1
 62
   120
370
     5
100
AcDbLine
 10
1969.101905132346
 20
2291.962168973807
 30
0.0
 11
1894.101905132353
 21
2216.96216897381
 31
0.0
  0
LINE
  5
19D
330
1F
100
AcDbEntity
  8
0-C_ハッチ
  6
JWW_DASHED1
 62
   120
370
     5
100
AcDbLine
 10
2011.528312003544
 20
2291.962168973803
 30
0.0
 11
1936.528312003549
 21
2216.962168973807
 31
0.0
  0
LINE
  5
19E
330
1F
100
AcDbEntity
  8
0-C_ハッチ
  6
JWW_DASHED1
 62
   120
370
     5
100
AcDbLine
 10
2053.954718874739
 20
2291.9621689738
 30
0.0
 11
1978.954718874746
 21
2216.962168973803
 31
0.0
  0
LINE
  5
19F
330
1F
100
AcDbEntity
  8
0-C_ハッチ
  6
JWW_DASHED1
 62
   120
370
     5
100
AcDbLine
 10
2096.381125745937
 20
2291.962168973796
 30
0.0
 11
2021.381125745943
 21
2216.9621689738
 31
0.0
  0
LINE
  5
1A0
330
1F
100
AcDbEntity
  8
0-C_ハッチ
  6
JWW_DASHED1
 62
   120
370
     5
100
AcDbLine
 10
2138.807532617132
 20
2291.962168973793
 30
0.0
 11
2063.807532617139
 21
2216.962168973796
 31
0.0
  0
LINE
  5
1A1
330
1F
100
AcDbEntity
  8
0-C_ハッチ
  6
JWW_DASHED1
 62
   120
370
     5
100
AcDbLine
 10
2181.233939488346
 20
2291.962168973805
 30
0.0
 11
2106.233939488336
 21
2216.962168973793
 31
0.0
  0
LINE
  5
1A2
330
1F
100
AcDbEntity
  8
0-C_ハッチ
  6
JWW_DASHED1
 62
   120
370
     5
100
AcDbLine
 10
2223.660346359498
 20
2291.962168973813
 30
0.0
 11
2148.660346359505
 21
2216.962168973816
 31
0.0
  0
LINE
  5
1A3
330
1F
100
AcDbEntity
  8
0-C_ハッチ
  6
JWW_DASHED1
 62
   120
370
     5
100
AcDbLine
 10
2266.086753230697
 20
2291.962168973809
 30
0.0
 11
2191.086753230702
 21
2216.962168973814
 31
0.0
  0
LINE
  5
1A4
330
1F
100
AcDbEntity
  8
0-C_ハッチ
  6
JWW_DASHED1
 62
   120
370
     5
100
AcDbLine
 10
2308.513160101892
 20
2291.962168973807
 30
0.0
 11
2233.513160101898
 21
2216.96216897381
 31
0.0
  0
LINE
  5
1A5
330
1F
100
AcDbEntity
  8
0-C_ハッチ
  6
JWW_DASHED1
 62
   120
370
     5
100
AcDbLine
 10
2350.93956697309
 20
2291.962168973802
 30
0.0
 11
2275.939566973095
 21
2216.962168973807
 31
0.0
  0
LINE
  5
1A6
330
1F
100
AcDbEntity
  8
0-C_ハッチ
  6
JWW_DASHED1
 62
   120
370
     5
100
AcDbLine
 10
2393.365973844285
 20
2291.962168973798
 30
0.0
 11
2318.36597384429
 21
2216.962168973803
 31
0.0
  0
LINE
  5
1A7
330
1F
100
AcDbEntity
  8
0-C_ハッチ
  6
JWW_DASHED1
 62
   120
370
     5
100
AcDbLine
 10
2435.792380715483
 20
2291.962168973795
 30
0.0
 11
2360.792380715485
 21
2216.9621689738
 31
0.0
  0
LINE
  5
1A8
330
1F
100
AcDbEntity
  8
0-C_ハッチ
  6
JWW_DASHED1
 62
   120
370
     5
100
AcDbLine
 10
2478.218787586695
 20
2291.962168973807
 30
0.0
 11
2403.218787586683
 21
2216.962168973796
 31
0.0
  0
LINE
  5
1A9
330
1F
100
AcDbEntity
  8
0-C_ハッチ
  6
JWW_DASHED1
 62
   120
370
     5
100
AcDbLine
 10
2520.645194457849
 20
2291.962168973816
 30
0.0
 11
2445.645194457837
 21
2216.962168973803
 31
0.0
  0
LINE
  5
1AA
330
1F
100
AcDbEntity
  8
0-C_ハッチ
  6
JWW_DASHED1
 62
   120
370
     5
100
AcDbLine
 10
2563.071601329044
 20
2291.962168973811
 30
0.0
 11
2488.071601329049
 21
2216.962168973816
 31
0.0
  0
LINE
  5
1AB
330
1F
100
AcDbEntity
  8
0-C_ハッチ
  6
JWW_DASHED1
 62
   120
370
     5
100
AcDbLine
 10
2605.49800820024
 20
2291.962168973809
 30
0.0
 11
2530.498008200244
 21
2216.962168973814
 31
0.0
  0
LINE
  5
1AC
330
1F
100
AcDbEntity
  8
0-C_ハッチ
  6
JWW_DASHED1
 62
   120
370
     5
100
AcDbLine
 10
2647.924415071437
 20
2291.962168973805
 30
0.0
 11
2572.924415071442
 21
2216.962168973809
 31
0.0
  0
LINE
  5
1AD
330
1F
100
AcDbEntity
  8
0-C_ハッチ
  6
JWW_DASHED1
 62
   120
370
     5
100
AcDbLine
 10
2690.350821942635
 20
2291.962168973802
 30
0.0
 11
2615.350821942637
 21
2216.962168973807
 31
0.0
  0
LINE
  5
1AE
330
1F
100
AcDbEntity
  8
0-C_ハッチ
  6
JWW_DASHED1
 62
   120
370
     5
100
AcDbLine
 10
2732.77722881383
 20
2291.962168973798
 30
0.0
 11
2657.777228813835
 21
2216.962168973802
 31
0.0
  0
LINE
  5
1AF
330
1F
100
AcDbEntity
  8
0-C_ハッチ
  6
JWW_DASHED1
 62
   120
370
     5
100
AcDbLine
 10
2775.203635685027
 20
2291.962168973795
 30
0.0
 11
2700.20363568503
 21
2216.9621689738
 31
0.0
  0
LINE
  5
1B0
330
1F
100
AcDbEntity
  8
0-2_柱
  6
Continuous
 62
    92
370
    13
100
AcDbLine
 10
2446.128755344629
 20
2291.962168973789
 30
0.0
 11
2446.128755344629
 21
2681.962168973796
 31
0.0
  0
LINE
  5
1B1
330
1F
100
AcDbEntity
  8
0-2_柱
  6
Continuous
 62
    92
370
    13
100
AcDbLine
 10
2716.128755344629
 20
2291.962168973789
 30
0.0
 11
2716.128755344629
 21
2681.962168973796
 31
0.0
  0
LINE
  5
1B2
330
1F
100
AcDbEntity
  8
0-2_柱
  6
Continuous
 62
     7
370
     9
100
AcDbLine
 10
2446.128755344629
 20
2291.962168973789
 30
0.0
 11
2716.128755344629
 21
2681.962168973796
 31
0.0
  0
LINE
  5
1B3
330
1F
100
AcDbEntity
  8
0-4_枠
  6
Continuous
 62
    92
370
    13
100
AcDbLine
 10
2269.128320469139
 20
2816.233812036944
 30
0.0
 11
2269.128320469139
 21
2726.962168973791
 31
0.0
  0
LINE
  5
1B4
330
1F
100
AcDbEntity
  8
0-4_枠
  6
Continuous
 62
    92
370
    13
100
AcDbLine
 10
2266.128755344629
 20
2817.476887599551
 30
0.0
 11
2266.128755344629
 21
2723.962168973789
 31
0.0
  0
LINE
  5
1B5
330
1F
100
AcDbEntity
  8
0-4_枠
  6
Continuous
 62
    92
370
    13
100
AcDbLine
 10
2266.128755344629
 20
2723.962168973789
 30
0.0
 11
2302.128755344628
 21
2723.962168973789
 31
0.0
  0
LINE
  5
1B6
330
1F
100
AcDbEntity
  8
0-4_枠
  6
Continuous
 62
    92
370
    13
100
AcDbLine
 10
2269.128320469139
 20
2726.962168973791
 30
0.0
 11
2305.128755344627
 21
2726.962168973791
 31
0.0
  0
LINE
  5
1B7
330
1F
100
AcDbEntity
  8
0-4_枠
  6
Continuous
 62
    92
370
    13
100
AcDbLine
 10
2302.128755344628
 20
2477.96216897379
 30
0.0
 11
2266.128755344629
 21
2477.96216897379
 31
0.0
  0
LINE
  5
1B8
330
1F
100
AcDbEntity
  8
0-4_枠
  6
Continuous
 62
    92
370
    13
100
AcDbLine
 10
2305.128755344627
 20
2474.962168973788
 30
0.0
 11
2269.128320469139
 21
2474.962168973788
 31
0.0
  0
LINE
  5
1B9
330
1F
100
AcDbEntity
  8
0-4_枠
  6
Continuous
 62
    92
370
    13
100
AcDbLine
 10
2302.128755344628
 20
2723.962168973789
 30
0.0
 11
2302.128755344628
 21
2477.96216897379
 31
0.0
  0
LINE
  5
1BA
330
1F
100
AcDbEntity
  8
0-4_枠
  6
Continuous
 62
    92
370
    13
100
AcDbLine
 10
2305.128755344627
 20
2726.962168973791
 30
0.0
 11
2305.128755344627
 21
2474.962168973788
 31
0.0
  0
LINE
  5
1BB
330
1F
100
AcDbEntity
  8
0-4_枠
  6
Continuous
 62
    92
370
    13
100
AcDbLine
 10
2446.128755344629
 20
2351.962168973789
 30
0.0
 11
2446.128755344629
 21
2825.96216897379
 31
0.0
  0
LINE
  5
1BC
330
1F
100
AcDbEntity
  8
0-4_枠
  6
Continuous
 62
    92
370
    13
100
AcDbLine
 10
2446.128755344629
 20
2351.962168973789
 30
0.0
 11
2266.128755344629
 21
2351.962168973789
 31
0.0
  0
LINE
  5
1BD
330
1F
100
AcDbEntity
  8
0-4_枠
  6
Continuous
 62
    92
370
    13
100
AcDbLine
 10
2269.128320469139
 20
2351.962168973789
 30
0.0
 11
2269.128320469139
 21
2474.962168973788
 31
0.0
  0
LINE
  5
1BE
330
1F
100
AcDbEntity
  8
0-4_枠
  6
Continuous
 62
    92
370
    13
100
AcDbLine
 10
2266.128755344629
 20
2351.962168973789
 30
0.0
 11
2266.128755344629
 21
2477.96216897379
 31
0.0
  0
LINE
  5
1BF
330
1F
100
AcDbEntity
  8
0-7_金物
  6
Continuous
 62
     7
370
     9
100
AcDbLine
 10
2284.128755398091
 20
2555.962168936858
 30
0.0
 11
2302.128755374537
 21
2555.962167935981
 31
0.0
  0
LINE
  5
1C0
330
1F
100
AcDbEntity
  8
0-7_金物
  6
Continuous
 62
     7
370
     9
100
AcDbLine
 10
2302.128755374537
 20
2555.962167935981
 30
0.0
 11
2302.128755344628
 21
2645.962169535428
 31
0.0
  0
LINE
  5
1C1
330
1F
100
AcDbEntity
  8
0-7_金物
  6
Continuous
 62
     7
370
     9
100
AcDbLine
 10
2284.128754683835
 20
2645.962167673224
 30
0.0
 11
2302.128755344628
 21
2645.962169535428
 31
0.0
  0
LINE
  5
1C2
330
1F
100
AcDbEntity
  8
0-7_金物
  6
Continuous
 62
     7
370
     9
100
AcDbLine
 10
2302.128755364074
 20
2585.962168945968
 30
0.0
 11
2332.128755057416
 21
2585.962169184397
 31
0.0
  0
LINE
  5
1C3
330
1F
100
AcDbEntity
  8
0-7_金物
  6
Continuous
 62
     7
370
     9
100
AcDbLine
 10
2332.128755057416
 20
2585.962169184397
 30
0.0
 11
2332.128754819329
 21
2615.962168763185
 31
0.0
  0
LINE
  5
1C4
330
1F
100
AcDbEntity
  8
0-7_金物
  6
Continuous
 62
     7
370
     9
100
AcDbLine
 10
2302.128755355092
 20
2615.962168525441
 30
0.0
 11
2332.128754819329
 21
2615.962168763185
 31
0.0
  0
ARC
  5
1C5
330
1F
100
AcDbEntity
  8
0-7_金物
  6
Continuous
 62
     7
370
     9
100
AcDbCircle
 10
2466.836099132078
 20
2600.962168782368
 30
0.0
 40
188.167407989502
100
AcDbArc
 50
166.1636811230468
 51
193.8362885449218
  0
LINE
  5
1C6
330
1F
100
AcDbEntity
  8
0-C_ハッチ
  6
JWW_DASHED1
 62
   120
370
     5
100
AcDbLine
 10
2266.128755344611
 20
2387.181859100501
 30
0.0
 11
2230.909065217914
 21
2351.9621689738
 31
0.0
  0
LINE
  5
1C7
330
1F
100
AcDbEntity
  8
0-C_ハッチ
  6
JWW_DASHED1
 62
   120
370
     5
100
AcDbLine
 10
2263.482905786533
 20
2426.96241641362
 30
0.0
 11
2188.482658346701
 21
2351.962168973788
 31
0.0
  0
LINE
  5
1C8
330
1F
100
AcDbEntity
  8
0-C_ハッチ
  6
JWW_DASHED1
 62
   120
370
     5
100
AcDbLine
 10
2221.056498915319
 20
2426.962416413607
 30
0.0
 11
2146.056251475501
 21
2351.962168973791
 31
0.0
  0
LINE
  5
1C9
330
1F
100
AcDbEntity
  8
0-C_ハッチ
  6
JWW_DASHED1
 62
   120
370
     5
100
AcDbLine
 10
2178.630092044167
 20
2426.9624164136
 30
0.0
 11
2103.629844604352
 21
2351.962168973786
 31
0.0
  0
LINE
  5
1CA
330
1F
100
AcDbEntity
  8
0-C_ハッチ
  6
JWW_DASHED1
 62
   120
370
     5
100
AcDbLine
 10
2136.20368517297
 20
2426.962416413605
 30
0.0
 11
2061.203437733155
 21
2351.962168973789
 31
0.0
  0
LINE
  5
1CB
330
1F
100
AcDbEntity
  8
0-C_ハッチ
  6
JWW_DASHED1
 62
   120
370
     5
100
AcDbLine
 10
2093.77727830177
 20
2426.962416413605
 30
0.0
 11
2018.777030861955
 21
2351.962168973788
 31
0.0
  0
LINE
  5
1CC
330
1F
100
AcDbEntity
  8
0-C_ハッチ
  6
JWW_DASHED1
 62
   120
370
     5
100
AcDbLine
 10
2051.350871430574
 20
2426.962416413607
 30
0.0
 11
1976.350623990755
 21
2351.962168973791
 31
0.0
  0
LINE
  5
1CD
330
1F
100
AcDbEntity
  8
0-C_ハッチ
  6
JWW_DASHED1
 62
   120
370
     5
100
AcDbLine
 10
2008.924464559377
 20
2426.962416413609
 30
0.0
 11
1933.924217119562
 21
2351.962168973793
 31
0.0
  0
LINE
  5
1CE
330
1F
100
AcDbEntity
  8
0-C_ハッチ
  6
JWW_DASHED1
 62
   120
370
     5
100
AcDbLine
 10
1966.49805768818
 20
2426.962416413613
 30
0.0
 11
1891.497810248362
 21
2351.962168973796
 31
0.0
  0
LINE
  5
1CF
330
1F
100
AcDbEntity
  8
0-C_ハッチ
  6
JWW_DASHED1
 62
   120
370
     5
100
AcDbLine
 10
1924.07165081698
 20
2426.962416413616
 30
0.0
 11
1849.071403377148
 21
2351.962168973784
 31
0.0
  0
LINE
  5
1D0
330
1F
100
AcDbEntity
  8
0-C_ハッチ
  6
JWW_DASHED1
 62
   120
370
     5
100
AcDbLine
 10
1881.64524394577
 20
2426.962416413603
 30
0.0
 11
1806.644996505955
 21
2351.962168973786
 31
0.0
  0
LINE
  5
1D1
330
1F
100
AcDbEntity
  8
0-C_ハッチ
  6
JWW_DASHED1
 62
   120
370
     5
100
AcDbLine
 10
1839.218837074625
 20
2426.962416413605
 30
0.0
 11
1764.21858963481
 21
2351.962168973789
 31
0.0
  0
LINE
  5
1D2
330
1F
100
AcDbEntity
  8
0-C_ハッチ
  6
JWW_DASHED1
 62
   120
370
     5
100
AcDbLine
 10
1796.792430203428
 20
2426.962416413608
 30
0.0
 11
1721.792182763613
 21
2351.962168973793
 31
0.0
  0
LINE
  5
1D3
330
1F
100
AcDbEntity
  8
0-C_ハッチ
  6
JWW_DASHED1
 62
   120
370
     5
100
AcDbLine
 10
1754.366023332221
 20
2426.962416413601
 30
0.0
 11
1679.365775892403
 21
2351.962168973784
 31
0.0
  0
LINE
  5
1D4
330
1F
100
AcDbEntity
  8
0-C_ハッチ
  6
JWW_DASHED1
 62
   120
370
     5
100
AcDbLine
 10
1711.939616461025
 20
2426.962416413605
 30
0.0
 11
1636.93936902121
 21
2351.962168973786
 31
0.0
  0
LINE
  5
1D5
330
1F
100
AcDbEntity
  8
0-C_ハッチ
  6
Continuous
 62
   120
370
     5
100
AcDbLine
 10
2276.494597028126
 20
2822.9620087565
 30
0.0
 11
2269.128755344633
 21
2815.596167073006
 31
0.0
  0
LINE
  5
1D6
330
1F
100
AcDbEntity
  8
0-C_ハッチ
  6
Continuous
 62
   120
370
     5
100
AcDbLine
 10
2335.891566647773
 20
2822.962008756499
 30
0.0
 11
2269.12875534464
 21
2756.199197453363
 31
0.0
  0
LINE
  5
1D7
330
1F
100
AcDbEntity
  8
0-C_ハッチ
  6
Continuous
 62
   120
370
     5
100
AcDbLine
 10
2446.128755344629
 20
2398.626470876375
 30
0.0
 11
2399.464453442043
 21
2351.962168973789
 31
0.0
  0
LINE
  5
1D8
330
1F
100
AcDbEntity
  8
0-C_ハッチ
  6
Continuous
 62
   120
370
     5
100
AcDbLine
 10
2446.128755344629
 20
2517.420410115657
 30
0.0
 11
2280.670514202759
 21
2351.962168973789
 31
0.0
  0
LINE
  5
1D9
330
1F
100
AcDbEntity
  8
0-C_ハッチ
  6
Continuous
 62
   120
370
     5
100
AcDbLine
 10
2446.128755344629
 20
2458.023440496012
 30
0.0
 11
2340.067483822406
 21
2351.962168973789
 31
0.0
  0
LINE
  5
1DA
330
1F
100
AcDbEntity
  8
0-C_ハッチ
  6
Continuous
 62
   120
370
     5
100
AcDbLine
 10
2395.28853626742
 20
2822.962008756499
 30
0.0
 11
2299.288696484711
 21
2726.962168973791
 31
0.0
  0
LINE
  5
1DB
330
1F
100
AcDbEntity
  8
0-C_ハッチ
  6
Continuous
 62
   120
370
     5
100
AcDbLine
 10
2443.129190220117
 20
2811.405693089495
 30
0.0
 11
2305.128755344627
 21
2673.405258214004
 31
0.0
  0
LINE
  5
1DC
330
1F
100
AcDbEntity
  8
0-C_ハッチ
  6
Continuous
 62
   120
370
     5
100
AcDbLine
 10
2446.128755344629
 20
2695.611318974656
 30
0.0
 11
2305.128755344627
 21
2554.611318974655
 31
0.0
  0
LINE
  5
1DD
330
1F
100
AcDbEntity
  8
0-C_ハッチ
  6
Continuous
 62
   120
370
     5
100
AcDbLine
 10
2443.129190220111
 20
2752.008723469839
 30
0.0
 11
2305.128755344627
 21
2614.008288594357
 31
0.0
  0
LINE
  5
1DE
330
1F
100
AcDbEntity
  8
0-C_ハッチ
  6
Continuous
 62
   120
370
     5
100
AcDbLine
 10
2446.128755344629
 20
2636.214349355007
 30
0.0
 11
2305.128755344627
 21
2495.214349355007
 31
0.0
  0
LINE
  5
1DF
330
1F
100
AcDbEntity
  8
0-C_ハッチ
  6
Continuous
 62
   120
370
     5
100
AcDbLine
 10
2284.876574963409
 20
2474.962168973788
 30
0.0
 11
2269.128320469139
 21
2459.213914479521
 31
0.0
  0
LINE
  5
1E0
330
1F
100
AcDbEntity
  8
0-C_ハッチ
  6
Continuous
 62
   120
370
     5
100
AcDbLine
 10
2446.128755344629
 20
2576.817379735362
 30
0.0
 11
2269.128320469139
 21
2399.816944859874
 31
0.0
  0
LINE
  5
1E1
330
1F
100
AcDbEntity
  8
0-B_寸法
  6
Continuous
 62
   120
370
     5
100
AcDbLine
 10
2028.552757890797
 20
2351.962168973789
 30
0.0
 11
2176.128755344629
 21
2351.962168973789
 31
0.0
  0
LINE
  5
1E2
330
1F
100
AcDbEntity
  8
0-B_寸法
  6
Continuous
 62
   120
370
     5
100
AcDbLine
 10
2028.552757890797
 20
2351.962168973796
 30
0.0
 11
2028.552757890797
 21
2825.962168973785
 31
0.0
  0
LWPOLYLINE
  5
1E3
330
1F
100
AcDbEntity
  8
0-B_寸法
  6
Continuous
 62
     7
370
     9
100
AcDbPolyline
 90
        4
 70
     1
 43
3.0
 10
2030.052757890797
 20
2351.962168973796
 42
0.4142135623731
 10
2028.552757890797
 20
2353.462168973796
 42
0.4142135623731
 10
2027.052757890797
 20
2351.962168973796
 42
0.4142135623731
 10
2028.552757890797
 20
2350.462168973796
 42
0.4142135623731
  0
LWPOLYLINE
  5
1E4
330
1F
100
AcDbEntity
  8
0-B_寸法
  6
Continuous
 62
     7
370
     9
100
AcDbPolyline
 90
        4
 70
     1
 43
3.0
 10
2030.052757890797
 20
2825.962168973785
 42
0.4142135623731
 10
2028.552757890797
 20
2827.462168973785
 42
0.4142135623731
 10
2027.052757890797
 20
2825.962168973785
 42
0.4142135623731
 10
2028.552757890797
 20
2824.462168973786
 42
0.4142135623731
  0
LINE
  5
1E5
330
1F
100
AcDbEntity
  8
0-B_寸法
  6
Continuous
 62
   120
370
     5
100
AcDbLine
 10
2028.552757890797
 20
2825.962168973785
 30
0.0
 11
2176.128755344629
 21
2825.962168973785
 31
0.0
  0
LINE
  5
1E6
330
1F
100
AcDbEntity
  8
0-2_柱
  6
Continuous
 62
    92
370
    13
100
AcDbLine
 10
2266.128755344629
 20
2291.962168973802
 30
0.0
 11
2266.128755344629
 21
2351.962168973789
 31
0.0
  0
LINE
  5
1E7
330
1F
100
AcDbEntity
  8
0-2_柱
  6
Continuous
 62
     7
370
     9
100
AcDbLine
 10
2266.128755344629
 20
2291.962168973802
 30
0.0
 11
2446.128755344629
 21
2351.962168973789
 31
0.0
  0
MTEXT
  5
1E8
330
1F
100
AcDbEntity
  8
0-B_寸法
  6
Continuous
 62
     7
370
   211
100
AcDbMText
 10
2013.552757890797
 20
2513.78966897379
 30
0.0
 40
97.15499999999999
 41
127.5
 46
0.0
 71
     7
 72
     1
  1
{\fＭＳ ゴシック|b0|i0|c128|p49;79}
 11
6.123031769111886E-17
 21
1.0
 31
0.0
 73
     1
 44
1.0
  0
LINE
  5
1E9
330
1F
100
AcDbEntity
  8
0-3_仕上げ
  6
Continuous
 62
    40
370
    15
100
AcDbLine
 10
1161.883684758309
 20
2426.962416413613
 30
0.0
 11
2266.128755344629
 21
2426.962416413613
 31
0.0
  0
LINE
  5
1EA
330
1F
100
AcDbEntity
  8
0-3_仕上げ
  6
Continuous
 62
    40
370
    15
100
AcDbLine
 10
2266.128755344629
 20
2351.962168973789
 30
0.0
 11
1161.883684758309
 21
2351.962168973789
 31
0.0
  0
LINE
  5
1EB
330
1F
100
AcDbEntity
  8
0-C_ハッチ
  6
JWW_DASHED1
 62
   120
370
     5
100
AcDbLine
 10
1669.513209589828
 20
2426.962416413607
 30
0.0
 11
1594.51296215001
 21
2351.962168973789
 31
0.0
  0
LINE
  5
1EC
330
1F
100
AcDbEntity
  8
0-C_ハッチ
  6
JWW_DASHED1
 62
   120
370
     5
100
AcDbLine
 10
1542.233988976279
 20
2426.962416413603
 30
0.0
 11
1467.233741536456
 21
2351.962168973789
 31
0.0
  0
LINE
  5
1ED
330
1F
100
AcDbEntity
  8
0-C_ハッチ
  6
JWW_DASHED1
 62
   120
370
     5
100
AcDbLine
 10
1627.086802718631
 20
2426.962416413609
 30
0.0
 11
1552.086555278808
 21
2351.962168973789
 31
0.0
  0
LINE
  5
1EE
330
1F
100
AcDbEntity
  8
0-C_ハッチ
  6
JWW_DASHED1
 62
   120
370
     5
100
AcDbLine
 10
1584.660395847418
 20
2426.962416413596
 30
0.0
 11
1509.660148407612
 21
2351.962168973789
 31
0.0
  0
LINE
  5
1EF
330
1F
100
AcDbEntity
  8
0-C_ハッチ
  6
JWW_DASHED1
 62
   120
370
     5
100
AcDbLine
 10
1672.117057034
 20
2291.962168973803
 30
0.0
 11
1597.117057033997
 21
2216.962168973802
 31
0.0
  0
LINE
  5
1F0
330
1F
100
AcDbEntity
  8
0-C_ハッチ
  6
JWW_DASHED1
 62
   120
370
     5
100
AcDbLine
 10
1544.837836420455
 20
2291.962168973803
 30
0.0
 11
1469.83783642045
 21
2216.962168973802
 31
0.0
  0
LINE
  5
1F1
330
1F
100
AcDbEntity
  8
0-C_ハッチ
  6
JWW_DASHED1
 62
   120
370
     5
100
AcDbLine
 10
1629.690650162804
 20
2291.962168973807
 30
0.0
 11
1554.690650162798
 21
2216.962168973802
 31
0.0
  0
LINE
  5
1F2
330
1F
100
AcDbEntity
  8
0-C_ハッチ
  6
JWW_DASHED1
 62
   120
370
     5
100
AcDbLine
 10
1587.264243291607
 20
2291.96216897381
 30
0.0
 11
1512.264243291598
 21
2216.962168973802
 31
0.0
  0
LINE
  5
1F3
330
1F
100
AcDbEntity
  8
0-C_ハッチ
  6
JWW_DASHED1
 62
   120
370
     5
100
AcDbLine
 10
1457.381175233927
 20
2426.962416413603
 30
0.0
 11
1382.380927794104
 21
2351.962168973789
 31
0.0
  0
LINE
  5
1F4
330
1F
100
AcDbEntity
  8
0-C_ハッチ
  6
JWW_DASHED1
 62
   120
370
     5
100
AcDbLine
 10
1499.807582105066
 20
2426.962416413596
 30
0.0
 11
1424.80733466526
 21
2351.962168973789
 31
0.0
  0
LINE
  5
1F5
330
1F
100
AcDbEntity
  8
0-C_ハッチ
  6
JWW_DASHED1
 62
   120
370
     5
100
AcDbLine
 10
1459.985022678103
 20
2291.962168973803
 30
0.0
 11
1384.985022678098
 21
2216.962168973802
 31
0.0
  0
LINE
  5
1F6
330
1F
100
AcDbEntity
  8
0-C_ハッチ
  6
JWW_DASHED1
 62
   120
370
     5
100
AcDbLine
 10
1502.411429549255
 20
2291.96216897381
 30
0.0
 11
1427.411429549246
 21
2216.962168973802
 31
0.0
  0
LINE
  5
1F7
330
1F
100
AcDbEntity
  8
0-C_ハッチ
  6
JWW_DASHED1
 62
   120
370
     5
100
AcDbLine
 10
1372.528361491575
 20
2426.962416413603
 30
0.0
 11
1297.528114051752
 21
2351.962168973789
 31
0.0
  0
LINE
  5
1F8
330
1F
100
AcDbEntity
  8
0-C_ハッチ
  6
JWW_DASHED1
 62
   120
370
     5
100
AcDbLine
 10
1414.954768362714
 20
2426.962416413596
 30
0.0
 11
1339.954520922908
 21
2351.962168973789
 31
0.0
  0
LINE
  5
1F9
330
1F
100
AcDbEntity
  8
0-C_ハッチ
  6
JWW_DASHED1
 62
   120
370
     5
100
AcDbLine
 10
1375.132208935751
 20
2291.962168973803
 30
0.0
 11
1300.132208935746
 21
2216.962168973802
 31
0.0
  0
LINE
  5
1FA
330
1F
100
AcDbEntity
  8
0-C_ハッチ
  6
JWW_DASHED1
 62
   120
370
     5
100
AcDbLine
 10
1417.558615806903
 20
2291.96216897381
 30
0.0
 11
1342.558615806894
 21
2216.962168973802
 31
0.0
  0
LINE
  5
1FB
330
1F
100
AcDbEntity
  8
0-C_ハッチ
  6
JWW_DASHED1
 62
   120
370
     5
100
AcDbLine
 10
1287.675547749223
 20
2426.962416413603
 30
0.0
 11
1212.6753003094
 21
2351.962168973789
 31
0.0
  0
LINE
  5
1FC
330
1F
100
AcDbEntity
  8
0-C_ハッチ
  6
JWW_DASHED1
 62
   120
370
     5
100
AcDbLine
 10
1330.101954620362
 20
2426.962416413596
 30
0.0
 11
1255.101707180556
 21
2351.962168973789
 31
0.0
  0
LINE
  5
1FD
330
1F
100
AcDbEntity
  8
0-C_ハッチ
  6
JWW_DASHED1
 62
   120
370
     5
100
AcDbLine
 10
1290.279395193399
 20
2291.962168973803
 30
0.0
 11
1215.279395193394
 21
2216.962168973802
 31
0.0
  0
LINE
  5
1FE
330
1F
100
AcDbEntity
  8
0-C_ハッチ
  6
JWW_DASHED1
 62
   120
370
     5
100
AcDbLine
 10
1332.705802064551
 20
2291.96216897381
 30
0.0
 11
1257.705802064542
 21
2216.962168973802
 31
0.0
  0
LINE
  5
1FF
330
1F
100
AcDbEntity
  8
0-C_ハッチ
  6
JWW_DASHED1
 62
   120
370
     5
100
AcDbLine
 10
1245.249140878009
 20
2426.962416413596
 30
0.0
 11
1170.248893438204
 21
2351.962168973789
 31
0.0
  0
LINE
  5
200
330
1F
100
AcDbEntity
  8
0-C_ハッチ
  6
JWW_DASHED1
 62
   120
370
     5
100
AcDbLine
 10
1247.852988322199
 20
2291.96216897381
 30
0.0
 11
1172.85298832219
 21
2216.962168973802
 31
0.0
  0
LINE
  5
201
330
1F
100
AcDbEntity
  8
0-C_ハッチ
  6
JWW_DASHED1
 62
   120
370
     5
100
AcDbLine
 10
1205.426581451047
 20
2291.962168973803
 30
0.0
 11
1161.883684758309
 21
2248.419272281068
 31
0.0
  0
LINE
  5
202
330
1F
100
AcDbEntity
  8
0-C_ハッチ
  6
JWW_DASHED1
 62
   120
370
     5
100
AcDbLine
 10
1202.822734006871
 20
2426.962416413603
 30
0.0
 11
1161.883684758309
 21
2386.023367165046
 31
0.0
  0
LINE
  5
203
330
1F
100
AcDbEntity
  8
0-3_仕上げ
  6
Continuous
 62
    40
370
    15
100
AcDbLine
 10
2806.589336672863
 20
2756.962168973796
 30
0.0
 11
2446.129497664094
 21
2756.962168973796
 31
0.0
  0
LINE
  5
204
330
1F
100
AcDbEntity
  8
0-3_仕上げ
  6
Continuous
 62
    40
370
    15
100
AcDbLine
 10
2806.589336672863
 20
2216.962168973802
 30
0.0
 11
1161.883684758309
 21
2216.962168973802
 31
0.0
  0
LINE
  5
205
330
1F
100
AcDbEntity
  8
0-3_仕上げ
  6
Continuous
 62
    40
370
    15
100
AcDbLine
 10
2806.589336672863
 20
2681.962168973796
 30
0.0
 11
2446.129497664094
 21
2681.962168973796
 31
0.0
  0
LINE
  5
206
330
1F
100
AcDbEntity
  8
0-C_ハッチ
  6
JWW_DASHED1
 62
   120
370
     5
100
AcDbLine
 10
2806.589336672863
 20
2722.065666417199
 30
0.0
 11
2766.485839229464
 21
2681.9621689738
 31
0.0
  0
LINE
  5
207
330
1F
100
AcDbEntity
  8
0-C_ハッチ
  6
JWW_DASHED1
 62
   120
370
     5
100
AcDbLine
 10
2806.589336672863
 20
2280.92146309043
 30
0.0
 11
2742.630042556229
 21
2216.962168973795
 31
0.0
  0
LINE
  5
208
330
1F
100
AcDbEntity
  8
0-C_ハッチ
  6
JWW_DASHED1
 62
   120
370
     5
100
AcDbLine
 10
2806.589336672863
 20
2238.495056219287
 30
0.0
 11
2785.056449427396
 21
2216.962168973821
 31
0.0
  0
LINE
  5
209
330
1F
100
AcDbEntity
  8
0-3_仕上げ
  6
Continuous
 62
    40
370
    15
100
AcDbLine
 10
2806.589336672863
 20
2291.962168973802
 30
0.0
 11
1161.883684758309
 21
2291.962168973802
 31
0.0
  0
LINE
  5
20A
330
1F
100
AcDbEntity
  8
0-B_寸法
  6
Continuous
 62
   120
370
     5
100
AcDbLine
 10
-3206.290927338508
 20
2216.962168973802
 30
0.0
 11
-3206.290927338508
 21
2756.962168973786
 31
0.0
  0
LINE
  5
20B
330
1F
100
AcDbEntity
  8
0-B_寸法
  6
Continuous
 62
   120
370
     5
100
AcDbLine
 10
-3026.29092733851
 20
2216.962168973802
 30
0.0
 11
-3026.29092733851
 21
2756.962168973786
 31
0.0
  0
LWPOLYLINE
  5
20C
330
1F
100
AcDbEntity
  8
0-B_寸法
  6
Continuous
 62
     7
370
     9
100
AcDbPolyline
 90
        4
 70
     1
 43
3.0
 10
-3204.790927338508
 20
2216.962168973802
 42
0.4142135623731
 10
-3206.290927338508
 20
2218.462168973802
 42
0.4142135623731
 10
-3207.790927338508
 20
2216.962168973802
 42
0.4142135623731
 10
-3206.290927338508
 20
2215.462168973802
 42
0.4142135623731
  0
LWPOLYLINE
  5
20D
330
1F
100
AcDbEntity
  8
0-B_寸法
  6
Continuous
 62
     7
370
     9
100
AcDbPolyline
 90
        4
 70
     1
 43
3.0
 10
-3204.790927338508
 20
2756.962168973786
 42
0.4142135623731
 10
-3206.290927338508
 20
2758.462168973786
 42
0.4142135623731
 10
-3207.790927338508
 20
2756.962168973786
 42
0.4142135623731
 10
-3206.290927338508
 20
2755.462168973787
 42
0.4142135623731
  0
LINE
  5
20E
330
1F
100
AcDbEntity
  8
0-B_寸法
  6
Continuous
 62
   120
370
     5
100
AcDbLine
 10
-3026.29092733851
 20
2291.962168973789
 30
0.0
 11
-2846.29092733851
 21
2291.962168973789
 31
0.0
  0
LINE
  5
20F
330
1F
100
AcDbEntity
  8
0-B_寸法
  6
Continuous
 62
   120
370
     5
100
AcDbLine
 10
-3206.290927338508
 20
2216.962168973802
 30
0.0
 11
-2846.29092733851
 21
2216.962168973802
 31
0.0
  0
LINE
  5
210
330
1F
100
AcDbEntity
  8
0-B_寸法
  6
Continuous
 62
   120
370
     5
100
AcDbLine
 10
-3206.290927338508
 20
2756.962168973786
 30
0.0
 11
-2846.29092733851
 21
2756.962168973786
 31
0.0
  0
LINE
  5
211
330
1F
100
AcDbEntity
  8
0-B_寸法
  6
Continuous
 62
   120
370
     5
100
AcDbLine
 10
-3026.29092733851
 20
2681.962168973789
 30
0.0
 11
-2846.29092733851
 21
2681.962168973789
 31
0.0
  0
LWPOLYLINE
  5
212
330
1F
100
AcDbEntity
  8
0-B_寸法
  6
Continuous
 62
     7
370
     9
100
AcDbPolyline
 90
        4
 70
     1
 43
3.0
 10
-3024.79092733851
 20
2291.962168973789
 42
0.4142135623731
 10
-3026.29092733851
 20
2293.462168973789
 42
0.4142135623731
 10
-3027.79092733851
 20
2291.962168973789
 42
0.4142135623731
 10
-3026.29092733851
 20
2290.462168973789
 42
0.4142135623731
  0
LWPOLYLINE
  5
213
330
1F
100
AcDbEntity
  8
0-B_寸法
  6
Continuous
 62
     7
370
     9
100
AcDbPolyline
 90
        4
 70
     1
 43
3.0
 10
-3024.79092733851
 20
2216.962168973802
 42
0.4142135623731
 10
-3026.29092733851
 20
2218.462168973802
 42
0.4142135623731
 10
-3027.79092733851
 20
2216.962168973802
 42
0.4142135623731
 10
-3026.29092733851
 20
2215.462168973802
 42
0.4142135623731
  0
LWPOLYLINE
  5
214
330
1F
100
AcDbEntity
  8
0-B_寸法
  6
Continuous
 62
     7
370
     9
100
AcDbPolyline
 90
        4
 70
     1
 43
3.0
 10
-3024.79092733851
 20
2756.962168973786
 42
0.4142135623731
 10
-3026.29092733851
 20
2758.462168973786
 42
0.4142135623731
 10
-3027.79092733851
 20
2756.962168973786
 42
0.4142135623731
 10
-3026.29092733851
 20
2755.462168973787
 42
0.4142135623731
  0
LWPOLYLINE
  5
215
330
1F
100
AcDbEntity
  8
0-B_寸法
  6
Continuous
 62
     7
370
     9
100
AcDbPolyline
 90
        4
 70
     1
 43
3.0
 10
-3024.79092733851
 20
2681.962168973789
 42
0.4142135623731
 10
-3026.29092733851
 20
2683.462168973789
 42
0.4142135623731
 10
-3027.79092733851
 20
2681.962168973789
 42
0.4142135623731
 10
-3026.29092733851
 20
2680.462168973789
 42
0.4142135623731
  0
MTEXT
  5
216
330
1F
100
AcDbEntity
  8
0-B_寸法
  6
Continuous
 62
     7
370
     0
100
AcDbMText
 10
-3029.267169125382
 20
2727.807327822882
 30
0.0
 40
91.44
 41
240.0
 46
0.0
 71
     7
 72
     1
  1
{\fＭＳ ゴシック|b0|i0|c128|p49;12.5}
 11
6.123031769111886E-17
 21
1.0
 31
0.0
 73
     1
 44
1.0
  0
MTEXT
  5
217
330
1F
100
AcDbEntity
  8
0-B_寸法
  6
Continuous
 62
     7
370
     0
100
AcDbMText
 10
-3221.290927338508
 20
2412.682168973793
 30
0.0
 40
91.44
 41
120.0
 46
0.0
 71
     7
 72
     1
  1
{\fＭＳ ゴシック|b0|i0|c128|p49;90}
 11
6.123031769111886E-17
 21
1.0
 31
0.0
 73
     1
 44
1.0
  0
MTEXT
  5
218
330
1F
100
AcDbEntity
  8
0-B_寸法
  6
Continuous
 62
     7
370
     0
100
AcDbMText
 10
-3041.29092733851
 20
2412.682168973789
 30
0.0
 40
91.44
 41
120.0
 46
0.0
 71
     7
 72
     1
  1
{\fＭＳ ゴシック|b0|i0|c128|p49;65}
 11
6.123031769111886E-17
 21
1.0
 31
0.0
 73
     1
 44
1.0
  0
MTEXT
  5
219
330
1F
100
AcDbEntity
  8
0-B_寸法
  6
Continuous
 62
     7
370
     0
100
AcDbMText
 10
-3029.267169125382
 20
1972.816991598889
 30
0.0
 40
91.44
 41
240.0
 46
0.0
 71
     7
 72
     1
  1
{\fＭＳ ゴシック|b0|i0|c128|p49;12.5}
 11
6.123031769111886E-17
 21
1.0
 31
0.0
 73
     1
 44
1.0
  0
LINE
  5
21A
330
1F
100
AcDbEntity
  8
0-6_扉
  6
JWW_DASHED2
 62
    40
370
    15
100
AcDbLine
 10
2284.128161489058
 20
2510.962168973791
 30
0.0
 11
2284.128161489058
 21
2690.962168973791
 31
0.0
  0
LINE
  5
21B
330
1F
100
AcDbEntity
  8
0-5_ケーシング
  6
Continuous
 62
    92
370
    13
100
AcDbLine
 10
-2084.291075802424
 20
2498.96216897379
 30
0.0
 11
-2084.291075802424
 21
2510.962168973791
 31
0.0
  0
LINE
  5
21C
330
1F
100
AcDbEntity
  8
0-5_ケーシング
  6
Continuous
 62
    92
370
    13
100
AcDbLine
 10
-2084.291075802424
 20
2702.962168973791
 30
0.0
 11
-2084.291075802424
 21
2690.96216897379
 31
0.0
  0
LINE
  5
21D
330
1F
100
AcDbEntity
  8
0-6_扉
  6
Continuous
 62
   200
370
    20
100
AcDbLine
 10
-2264.291075802424
 20
2690.962168973791
 30
0.0
 11
-2264.291075802424
 21
2510.962168973791
 31
0.0
  0
ARC
  5
21E
330
1F
100
AcDbEntity
  8
0-5_ケーシング
  6
Continuous
 62
    92
370
    13
100
AcDbCircle
 10
-1838.291075802422
 20
2498.96216897379
 30
0.0
 40
6.0
100
AcDbArc
 50
270.0
 51
0.0
  0
LINE
  5
21F
330
1F
100
AcDbEntity
  8
0-5_ケーシング
  6
Continuous
 62
    92
370
    13
100
AcDbLine
 10
-1832.291075802427
 20
2498.96216897379
 30
0.0
 11
-1832.291075802427
 21
2510.962168973791
 31
0.0
  0
LINE
  5
220
330
1F
100
AcDbEntity
  8
0-5_ケーシング
  6
Continuous
 62
    92
370
    13
100
AcDbLine
 10
-1838.291075802422
 20
2492.962168973791
 30
0.0
 11
-2078.291075802422
 21
2492.962168973791
 31
0.0
  0
ARC
  5
221
330
1F
100
AcDbEntity
  8
0-5_ケーシング
  6
Continuous
 62
    92
370
    13
100
AcDbCircle
 10
-2078.291075802422
 20
2498.96216897379
 30
0.0
 40
6.0
100
AcDbArc
 50
180.0
 51
270.0
  0
CIRCLE
  5
222
330
1F
100
AcDbEntity
  8
0-5_ケーシング
  6
JWW_DASHED1
 62
    92
370
    13
100
AcDbCircle
 10
-1958.291075802422
 20
2186.962168973791
 30
0.0
 40
66.0
  0
LINE
  5
223
330
1F
100
AcDbEntity
  8
0-5_ケーシング
  6
Continuous
 62
    92
370
    13
100
AcDbLine
 10
-2013.791075802426
 20
2265.293197308672
 30
0.0
 11
-2039.291075802423
 21
2492.962168973791
 31
0.0
  0
LINE
  5
224
330
1F
100
AcDbEntity
  8
0-5_ケーシング
  6
Continuous
 62
    92
370
    13
100
AcDbLine
 10
-1902.791075802425
 20
2265.293197308672
 30
0.0
 11
-1877.291075802427
 21
2492.962168973791
 31
0.0
  0
LINE
  5
225
330
1F
100
AcDbEntity
  8
0-5_ケーシング
  6
Continuous
 62
    92
370
    13
100
AcDbLine
 10
-1832.291075802427
 20
2510.962168973791
 30
0.0
 11
-2084.291075802424
 21
2510.962168973791
 31
0.0
  0
CIRCLE
  5
226
330
1F
100
AcDbEntity
  8
0-5_ケーシング
  6
Continuous
 62
    92
370
    13
100
AcDbCircle
 10
-1958.291075802422
 20
2186.962168973791
 30
0.0
 40
96.0
  0
ARC
  5
227
330
1F
100
AcDbEntity
  8
0-5_ケーシング
  6
Continuous
 62
    92
370
    13
100
AcDbCircle
 10
-2078.291075802422
 20
2702.962168973791
 30
0.0
 40
6.0
100
AcDbArc
 50
90.0
 51
180.0
  0
LINE
  5
228
330
1F
100
AcDbEntity
  8
0-5_ケーシング
  6
Continuous
 62
    92
370
    13
100
AcDbLine
 10
-2078.291075802422
 20
2708.96216897379
 30
0.0
 11
-1838.291075802422
 21
2708.96216897379
 31
0.0
  0
ARC
  5
229
330
1F
100
AcDbEntity
  8
0-5_ケーシング
  6
Continuous
 62
    92
370
    13
100
AcDbCircle
 10
-1838.291075802422
 20
2702.962168973791
 30
0.0
 40
6.0
100
AcDbArc
 50
0.0
 51
90.0
  0
LINE
  5
22A
330
1F
100
AcDbEntity
  8
0-5_ケーシング
  6
Continuous
 62
    92
370
    13
100
AcDbLine
 10
-1832.291075802427
 20
2702.962168973791
 30
0.0
 11
-1832.291075802427
 21
2690.96216897379
 31
0.0
  0
CIRCLE
  5
22B
330
1F
100
AcDbEntity
  8
0-5_ケーシング
  6
JWW_DASHED1
 62
    92
370
    13
100
AcDbCircle
 10
-1958.291075802422
 20
3014.96216897379
 30
0.0
 40
66.0
  0
LINE
  5
22C
330
1F
100
AcDbEntity
  8
0-5_ケーシング
  6
Continuous
 62
    92
370
    13
100
AcDbLine
 10
-1902.791075802425
 20
2936.631140638908
 30
0.0
 11
-1877.291075802427
 21
2708.96216897379
 31
0.0
  0
LINE
  5
22D
330
1F
100
AcDbEntity
  8
0-5_ケーシング
  6
Continuous
 62
    92
370
    13
100
AcDbLine
 10
-2013.791075802426
 20
2936.631140638908
 30
0.0
 11
-2039.291075802423
 21
2708.96216897379
 31
0.0
  0
LINE
  5
22E
330
1F
100
AcDbEntity
  8
0-5_ケーシング
  6
Continuous
 62
    92
370
    13
100
AcDbLine
 10
-2084.291075802424
 20
2690.96216897379
 30
0.0
 11
-1832.291075802427
 21
2690.96216897379
 31
0.0
  0
CIRCLE
  5
22F
330
1F
100
AcDbEntity
  8
0-5_ケーシング
  6
Continuous
 62
    92
370
    13
100
AcDbCircle
 10
-1958.291075802422
 20
3014.96216897379
 30
0.0
 40
96.0
  0
LINE
  5
230
330
1F
100
AcDbEntity
  8
0-6_扉
  6
Continuous
 62
   200
370
    20
100
AcDbLine
 10
-2264.291075802424
 20
2510.962168973791
 30
0.0
 11
-2226.516279170534
 21
2510.962168973791
 31
0.0
  0
LINE
  5
231
330
1F
100
AcDbEntity
  8
0-6_扉
  6
Continuous
 62
   200
370
    20
100
AcDbLine
 10
-2089.273991390613
 20
2510.962168973791
 30
0.0
 11
-1142.232729492244
 21
2510.962168973791
 31
0.0
  0
LINE
  5
232
330
1F
100
AcDbEntity
  8
0-6_扉
  6
Continuous
 62
   200
370
    20
100
AcDbLine
 10
-1142.232729492244
 20
2690.962168973791
 30
0.0
 11
-2264.291075802424
 21
2690.962168973791
 31
0.0
  0
LINE
  5
233
330
1F
100
AcDbEntity
  8
0-6_扉
  6
JWW_DASHED2
 62
    40
370
    15
100
AcDbLine
 10
-455.0814571566863
 20
2510.962168973791
 30
0.0
 11
-455.0814571566863
 21
2690.962168973791
 31
0.0
  0
LINE
  5
234
330
1F
100
AcDbEntity
  8
0-6_扉
  6
Continuous
 62
   200
370
    20
100
AcDbLine
 10
474.9185428433137
 20
2510.962168973791
 30
0.0
 11
474.9185428433137
 21
2690.962168973791
 31
0.0
  0
CIRCLE
  5
235
330
1F
100
AcDbEntity
  8
0-5_ケーシング
  6
JWW_DASHED1
 62
    92
370
    13
100
AcDbCircle
 10
-149.0814571566867
 20
2186.962168973791
 30
0.0
 40
66.0
  0
CIRCLE
  5
236
330
1F
100
AcDbEntity
  8
0-5_ケーシング
  6
JWW_DASHED1
 62
    92
370
    13
100
AcDbCircle
 10
-149.0814571566867
 20
3014.96216897379
 30
0.0
 40
66.0
  0
ARC
  5
237
330
1F
100
AcDbEntity
  8
0-5_ケーシング
  6
JWW_DASHED2
 62
    92
370
    13
100
AcDbCircle
 10
-29.08145715668667
 20
2498.96216897379
 30
0.0
 40
6.0
100
AcDbArc
 50
270.0
 51
0.0
  0
LINE
  5
238
330
1F
100
AcDbEntity
  8
0-5_ケーシング
  6
JWW_DASHED2
 62
    92
370
    13
100
AcDbLine
 10
-23.08145715669212
 20
2498.96216897379
 30
0.0
 11
-23.08145715669212
 21
2510.962168973791
 31
0.0
  0
LINE
  5
239
330
1F
100
AcDbEntity
  8
0-5_ケーシング
  6
JWW_DASHED2
 62
    92
370
    13
100
AcDbLine
 10
-29.08145715668667
 20
2492.962168973791
 30
0.0
 11
-269.0814571566867
 21
2492.962168973791
 31
0.0
  0
ARC
  5
23A
330
1F
100
AcDbEntity
  8
0-5_ケーシング
  6
JWW_DASHED2
 62
    92
370
    13
100
AcDbCircle
 10
-269.0814571566867
 20
2498.96216897379
 30
0.0
 40
6.0
100
AcDbArc
 50
180.0
 51
270.0
  0
LINE
  5
23B
330
1F
100
AcDbEntity
  8
0-5_ケーシング
  6
JWW_DASHED2
 62
    92
370
    13
100
AcDbLine
 10
-275.081457156688
 20
2498.96216897379
 30
0.0
 11
-275.081457156688
 21
2510.962168973791
 31
0.0
  0
LINE
  5
23C
330
1F
100
AcDbEntity
  8
0-5_ケーシング
  6
JWW_DASHED2
 62
    92
370
    13
100
AcDbLine
 10
-204.5814571566908
 20
2265.293197308672
 30
0.0
 11
-230.081457156688
 21
2492.962168973791
 31
0.0
  0
LINE
  5
23D
330
1F
100
AcDbEntity
  8
0-5_ケーシング
  6
JWW_DASHED2
 62
    92
370
    13
100
AcDbLine
 10
-93.5814571566894
 20
2265.293197308672
 30
0.0
 11
-68.08145715669212
 21
2492.962168973791
 31
0.0
  0
LINE
  5
23E
330
1F
100
AcDbEntity
  8
0-5_ケーシング
  6
JWW_DASHED2
 62
    92
370
    13
100
AcDbLine
 10
-23.08145715669212
 20
2510.962168973791
 30
0.0
 11
-275.081457156688
 21
2510.962168973791
 31
0.0
  0
ARC
  5
23F
330
1F
100
AcDbEntity
  8
0-5_ケーシング
  6
JWW_DASHED2
 62
    92
370
    13
100
AcDbCircle
 10
-269.0814571566867
 20
2702.962168973791
 30
0.0
 40
6.0
100
AcDbArc
 50
90.0
 51
180.0
  0
LINE
  5
240
330
1F
100
AcDbEntity
  8
0-5_ケーシング
  6
JWW_DASHED2
 62
    92
370
    13
100
AcDbLine
 10
-275.081457156688
 20
2702.962168973791
 30
0.0
 11
-275.081457156688
 21
2690.96216897379
 31
0.0
  0
LINE
  5
241
330
1F
100
AcDbEntity
  8
0-5_ケーシング
  6
JWW_DASHED2
 62
    92
370
    13
100
AcDbLine
 10
-269.0814571566867
 20
2708.96216897379
 30
0.0
 11
-29.08145715668667
 21
2708.96216897379
 31
0.0
  0
ARC
  5
242
330
1F
100
AcDbEntity
  8
0-5_ケーシング
  6
JWW_DASHED2
 62
    92
370
    13
100
AcDbCircle
 10
-29.08145715668667
 20
2702.962168973791
 30
0.0
 40
6.0
100
AcDbArc
 50
0.0
 51
90.0
  0
LINE
  5
243
330
1F
100
AcDbEntity
  8
0-5_ケーシング
  6
JWW_DASHED2
 62
    92
370
    13
100
AcDbLine
 10
-23.08145715669212
 20
2702.962168973791
 30
0.0
 11
-23.08145715669212
 21
2690.96216897379
 31
0.0
  0
LINE
  5
244
330
1F
100
AcDbEntity
  8
0-5_ケーシング
  6
JWW_DASHED2
 62
    92
370
    13
100
AcDbLine
 10
-93.5814571566894
 20
2936.631140638908
 30
0.0
 11
-68.08145715669212
 21
2708.96216897379
 31
0.0
  0
LINE
  5
245
330
1F
100
AcDbEntity
  8
0-5_ケーシング
  6
JWW_DASHED2
 62
    92
370
    13
100
AcDbLine
 10
-204.5814571566908
 20
2936.631140638908
 30
0.0
 11
-230.081457156688
 21
2708.96216897379
 31
0.0
  0
LINE
  5
246
330
1F
100
AcDbEntity
  8
0-5_ケーシング
  6
JWW_DASHED2
 62
    92
370
    13
100
AcDbLine
 10
-275.081457156688
 20
2690.96216897379
 30
0.0
 11
-23.08145715669212
 21
2690.96216897379
 31
0.0
  0
CIRCLE
  5
247
330
1F
100
AcDbEntity
  8
0-5_ケーシング
  6
JWW_DASHED2
 62
    92
370
    13
100
AcDbCircle
 10
-149.0814571566867
 20
3014.96216897379
 30
0.0
 40
96.0
  0
CIRCLE
  5
248
330
1F
100
AcDbEntity
  8
0-5_ケーシング
  6
JWW_DASHED2
 62
    92
370
    13
100
AcDbCircle
 10
-149.0814571566867
 20
2186.962168973791
 30
0.0
 40
96.0
  0
LINE
  5
249
330
1F
100
AcDbEntity
  8
0-6_扉
  6
Continuous
 62
   200
370
    20
100
AcDbLine
 10
474.9185428433137
 20
2690.962168973791
 30
0.0
 11
-1022.232729492244
 21
2690.962168973791
 31
0.0
  0
LINE
  5
24A
330
1F
100
AcDbEntity
  8
0-6_扉
  6
Continuous
 62
   200
370
    20
100
AcDbLine
 10
-1022.232729492244
 20
2510.962168973791
 30
0.0
 11
474.9185428433137
 21
2510.962168973791
 31
0.0
  0
LINE
  5
24B
330
1F
100
AcDbEntity
  8
0-6_扉
  6
JWW_DASHED2
 62
    40
370
    15
100
AcDbLine
 10
2284.128161489058
 20
2690.962168973791
 30
0.0
 11
1161.883684758309
 21
2690.962168973791
 31
0.0
  0
LINE
  5
24C
330
1F
100
AcDbEntity
  8
0-6_扉
  6
JWW_DASHED2
 62
    40
370
    15
100
AcDbLine
 10
1161.883684758309
 20
2510.962168973791
 30
0.0
 11
2284.128161489058
 21
2510.962168973791
 31
0.0
  0
LINE
  5
24D
330
1F
100
AcDbEntity
  8
0-6_扉
  6
JWW_DASHED2
 62
    40
370
    15
100
AcDbLine
 10
1041.883684758309
 20
2690.962168973791
 30
0.0
 11
-455.0814571566863
 21
2690.962168973791
 31
0.0
  0
LINE
  5
24E
330
1F
100
AcDbEntity
  8
0-6_扉
  6
JWW_DASHED2
 62
    40
370
    15
100
AcDbLine
 10
-455.0814571566863
 20
2510.962168973791
 30
0.0
 11
1041.883684758309
 21
2510.962168973791
 31
0.0
  0
LWPOLYLINE
  5
24F
330
1F
100
AcDbEntity
  8
0-B_寸法
  6
Continuous
 62
     7
370
     9
100
AcDbPolyline
 90
        4
 70
     1
 43
3.0
 10
-2096.833601271236
 20
2147.96216897379
 42
0.4142135623731
 10
-2098.333601271236
 20
2149.46216897379
 42
0.4142135623731
 10
-2099.833601271236
 20
2147.96216897379
 42
0.4142135623731
 10
-2098.333601271236
 20
2146.46216897379
 42
0.4142135623731
  0
LWPOLYLINE
  5
250
330
1F
100
AcDbEntity
  8
0-B_寸法
  6
Continuous
 62
     7
370
     9
100
AcDbPolyline
 90
        4
 70
     1
 43
3.0
 10
-2096.833601271231
 20
2825.96216897379
 42
0.4142135623731
 10
-2098.333601271231
 20
2827.46216897379
 42
0.4142135623731
 10
-2099.833601271231
 20
2825.96216897379
 42
0.4142135623731
 10
-2098.333601271231
 20
2824.46216897379
 42
0.4142135623731
  0
LINE
  5
251
330
1F
100
AcDbEntity
  8
0-B_寸法
  6
Continuous
 62
   120
370
     5
100
AcDbLine
 10
-2098.333601271236
 20
2147.96216897379
 30
0.0
 11
-2098.333601271231
 21
2825.96216897379
 31
0.0
  0
MTEXT
  5
252
330
1F
100
AcDbEntity
  8
0-B_寸法
  6
Continuous
 62
     7
370
     0
100
AcDbMText
 10
-2113.333601271231
 20
2382.682540133524
 30
0.0
 40
91.44
 41
180.0
 46
0.0
 71
     7
 72
     1
  1
{\fＭＳ ゴシック|b0|i0|c128|p49;113}
 11
6.123031769111886E-17
 21
1.0
 31
0.0
 73
     1
 44
1.0
  0
LINE
  5
253
330
1F
100
AcDbEntity
  8
0-B_寸法
  6
Continuous
 62
   120
370
     5
100
AcDbLine
 10
-2098.333601271231
 20
2825.96216897379
 30
0.0
 11
-2218.333601271233
 21
2825.96216897379
 31
0.0
  0
LINE
  5
254
330
1F
100
AcDbEntity
  8
0-B_寸法
  6
Continuous
 62
   120
370
     5
100
AcDbLine
 10
-2098.333601271236
 20
2147.96216897379
 30
0.0
 11
-2218.333601271233
 21
2147.96216897379
 31
0.0
  0
MTEXT
  5
255
330
1F
100
AcDbEntity
  8
0-A_文字
  6
Continuous
 62
     7
370
     9
100
AcDbMText
 10
-3900.387860862061
 20
-64.21185141956161
 30
0.0
 40
91.44
 41
600.0
 46
0.0
 71
     7
 72
     1
  1
{\fＭＳ ゴシック|b0|i0|c128|p49;■縦断面図}
 73
     1
 44
1.0
  0
MTEXT
  5
256
330
1F
100
AcDbEntity
  8
1-B_寸法
  6
Continuous
 62
     7
370
   211
100
AcDbMText
 10
860.5342636477059
 20
-2900.7839063946
 30
0.0
 40
91.44
 41
120.0
 46
0.0
 71
     7
 72
     1
  1
{\fＭＳ ゴシック|b0|i0|c128|p49;12}
 11
6.123031769111886E-17
 21
1.0
 31
0.0
 73
     1
 44
1.0
  0
MTEXT
  5
257
330
1F
100
AcDbEntity
  8
1-B_寸法
  6
Continuous
 62
     7
370
   211
100
AcDbMText
 10
710.5342636477059
 20
-2758.283906394601
 30
0.0
 40
91.44
 41
60.0
 46
0.0
 71
     7
 72
     1
  1
{\fＭＳ ゴシック|b0|i0|c128|p49;3}
 11
6.123031769111886E-17
 21
1.0
 31
0.0
 73
     1
 44
1.0
  0
MTEXT
  5
258
330
1F
100
AcDbEntity
  8
1-B_寸法
  6
Continuous
 62
     7
370
   211
100
AcDbMText
 10
710.5342636477059
 20
-2612.224467353419
 30
0.0
 40
91.44
 41
180.0
 46
0.0
 71
     7
 72
     1
  1
{\fＭＳ ゴシック|b0|i0|c128|p49;5.5}
 11
6.123031769111886E-17
 21
1.0
 31
0.0
 73
     1
 44
1.0
  0
MTEXT
  5
259
330
1F
100
AcDbEntity
  8
1-B_寸法
  6
Continuous
 62
     7
370
   211
100
AcDbMText
 10
860.5342636477059
 20
-2610.073024659572
 30
0.0
 40
91.44
 41
180.0
 46
0.0
 71
     7
 72
     1
  1
{\fＭＳ ゴシック|b0|i0|c128|p49;8.5}
 11
6.123031769111886E-17
 21
1.0
 31
0.0
 73
     1
 44
1.0
  0
MTEXT
  5
25A
330
1F
100
AcDbEntity
  8
1-B_寸法
  6
Continuous
 62
     7
370
   211
100
AcDbMText
 10
-61.39593303024981
 20
-2603.184969783013
 30
0.0
 40
91.44
 41
120.0
 46
0.0
 71
     7
 72
     1
  1
{\fＭＳ ゴシック|b0|i0|c128|p49;20}
 11
6.123031769111886E-17
 21
1.0
 31
0.0
 73
     1
 44
1.0
  0
MTEXT
  5
25B
330
1F
100
AcDbEntity
  8
1-B_寸法
  6
Continuous
 62
     7
370
   211
100
AcDbMText
 10
-219.8929595909203
 20
-2548.283906394602
 30
0.0
 40
91.44
 41
120.0
 46
0.0
 71
     7
 72
     1
  1
{\fＭＳ ゴシック|b0|i0|c128|p49;18}
 11
6.123031769111886E-17
 21
1.0
 31
0.0
 73
     1
 44
1.0
  0
MTEXT
  5
25C
330
1F
100
AcDbEntity
  8
1-B_寸法
  6
Continuous
 62
     7
370
   211
100
AcDbMText
 10
230.5342636477178
 20
-2119.275300090842
 30
0.0
 40
97.15499999999999
 41
127.5
 46
0.0
 71
     7
 72
     1
  1
{\fＭＳ ゴシック|b0|i0|c128|p49;18}
 73
     1
 44
1.0
  0
MTEXT
  5
25D
330
1F
100
AcDbEntity
  8
1-B_寸法
  6
Continuous
 62
     7
370
   211
100
AcDbMText
 10
91.78318361155789
 20
-2122.132800090842
 30
0.0
 40
91.44
 41
60.0
 46
0.0
 71
     7
 72
     1
  1
{\fＭＳ ゴシック|b0|i0|c128|p49;5}
 73
     1
 44
1.0
  0
MTEXT
  5
25E
330
1F
100
AcDbEntity
  8
1-B_寸法
  6
Continuous
 62
     7
370
   211
100
AcDbMText
 10
226.7821035754116
 20
-1319.80699514071
 30
0.0
 40
99.06
 41
195.0
 46
0.0
 71
     7
 72
     1
  1
{\fＭＳ ゴシック|b0|i0|c128|p49;6.5}
 73
     1
 44
1.0
  0
MTEXT
  5
25F
330
1F
100
AcDbEntity
  8
1-B_寸法
  6
Continuous
 62
     7
370
   211
100
AcDbMText
 10
-384.4678964245747
 20
-1320.75949514071
 30
0.0
 40
97.15499999999999
 41
127.5
 46
0.0
 71
     7
 72
     1
  1
{\fＭＳ ゴシック|b0|i0|c128|p49;54}
 73
     1
 44
1.0
  0
MTEXT
  5
260
330
1F
100
AcDbEntity
  8
1-B_寸法
  6
Continuous
 62
     7
370
   211
100
AcDbMText
 10
24.28210357542696
 20
-1139.80699514071
 30
0.0
 40
99.06
 41
195.0
 46
0.0
 71
     7
 72
     1
  1
{\fＭＳ ゴシック|b0|i0|c128|p49;113}
 73
     1
 44
1.0
  0
MTEXT
  5
261
330
1F
100
AcDbEntity
  8
1-A_文字
  6
Continuous
 62
     7
370
     9
100
AcDbMText
 10
-797.6713019627675
 20
-3127.100989152277
 30
0.0
 40
91.44
 41
720.0
 46
0.0
 71
     7
 72
     1
  1
{\fＭＳ ゴシック|b0|i0|c128|p49;振れ止め金具}
 73
     1
 44
1.0
  0
MTEXT
  5
262
330
1F
100
AcDbEntity
  8
1-A_文字
  6
Continuous
 62
     7
370
     9
100
AcDbMText
 10
-853.1783830984921
 20
-2900.783906394597
 30
0.0
 40
91.44
 41
480.0
 46
0.0
 71
     7
 72
     1
  1
{\fＭＳ ゴシック|b0|i0|c128|p49;フロアー}
 73
     1
 44
1.0
  0
MTEXT
  5
263
330
1F
100
AcDbEntity
  8
1-A_文字
  6
Continuous
 62
     7
370
     9
100
AcDbMText
 10
361.7821035754321
 20
-1566.196934547262
 30
0.0
 40
91.44
 41
360.0
 46
0.0
 71
     7
 72
     1
  1
{\f@ＭＳ ゴシック|b0|i0|c128|p49;引き戸}
 11
-1.836909530733566E-16
 21
-1.0
 31
0.0
 73
     1
 44
1.0
  0
MTEXT
  5
264
330
1F
100
AcDbEntity
  8
1-A_文字
  6
Continuous
 62
     7
370
     9
100
AcDbMText
 10
-380.7178964245747
 20
-1566.196934547262
 30
0.0
 40
91.44
 41
360.0
 46
0.0
 71
     7
 72
     1
  1
{\f@ＭＳ ゴシック|b0|i0|c128|p49;中方立}
 11
-1.836909530733566E-16
 21
-1.0
 31
0.0
 73
     1
 44
1.0
  0
MTEXT
  5
265
330
1F
100
AcDbEntity
  8
1-A_文字
  6
Continuous
 62
     7
370
     9
100
AcDbMText
 10
-118.2178964245679
 20
-917.2417585251316
 30
0.0
 40
91.44
 41
480.0
 46
0.0
 71
     7
 72
     1
  1
{\fＭＳ ゴシック|b0|i0|c128|p49;センター}
 73
     1
 44
1.0
  0
MTEXT
  5
266
330
1F
100
AcDbEntity
  8
0-B_寸法
  6
Continuous
 62
     7
370
   211
100
AcDbMText
 10
-1693.217896424571
 20
-3409.771213271376
 30
0.0
 40
97.15499999999999
 41
127.5
 46
0.0
 71
     7
 72
     1
  1
{\fＭＳ ゴシック|b0|i0|c128|p49;12}
 11
6.123031769111886E-17
 21
1.0
 31
0.0
 73
     1
 44
1.0
  0
MTEXT
  5
267
330
1F
100
AcDbEntity
  8
0-B_寸法
  6
Continuous
 62
     7
370
   211
100
AcDbMText
 10
-3349.217895871216
 20
-3190.36905022569
 30
0.0
 40
91.44
 41
120.0
 46
0.0
 71
     7
 72
     1
  1
{\fＭＳ ゴシック|b0|i0|c128|p49;20}
 11
6.123031769111886E-17
 21
1.0
 31
0.0
 73
     1
 44
1.0
  0
MTEXT
  5
268
330
1F
100
AcDbEntity
  8
0-B_寸法
  6
Continuous
 62
     7
370
   211
100
AcDbMText
 10
-2839.217895871216
 20
-3156.128713271376
 30
0.0
 40
91.44
 41
120.0
 46
0.0
 71
     7
 72
     1
  1
{\fＭＳ ゴシック|b0|i0|c128|p49;18}
 11
6.123031769111886E-17
 21
1.0
 31
0.0
 73
     1
 44
1.0
  0
MTEXT
  5
269
330
1F
100
AcDbEntity
  8
0-B_寸法
  6
Continuous
 62
     7
370
   211
100
AcDbMText
 10
-2113.217896424571
 20
-3134.318713271375
 30
0.0
 40
99.06
 41
195.0
 46
0.0
 71
     7
 72
     1
  1
{\fＭＳ ゴシック|b0|i0|c128|p49;8.5}
 11
6.123031769111886E-17
 21
1.0
 31
0.0
 73
     1
 44
1.0
  0
MTEXT
  5
26A
330
1F
100
AcDbEntity
  8
0-B_寸法
  6
Continuous
 62
     7
370
   211
100
AcDbMText
 10
-3172.217895871206
 20
-2929.748713271375
 30
0.0
 40
76.19999999999999
 41
150.0
 46
0.0
 71
     7
 72
     1
  1
{\fＭＳ ゴシック|b0|i0|c128|p49;4.5}
 73
     1
 44
1.0
  0
MTEXT
  5
26B
330
1F
100
AcDbEntity
  8
0-B_寸法
  6
Continuous
 62
     7
370
   211
100
AcDbMText
 10
-1693.217896424571
 20
-2321.433258725941
 30
0.0
 40
101.8309090909091
 41
735.0
 46
0.0
 71
     7
 72
     1
  1
{\fＭＳ ゴシック|b0|i0|c128|p49;枠外＝2,035}
 11
6.123031769111886E-17
 21
1.0
 31
0.0
 73
     1
 44
1.0
  0
MTEXT
  5
26C
330
1F
100
AcDbEntity
  8
0-B_寸法
  6
Continuous
 62
     7
370
   211
100
AcDbMText
 10
-1903.217896424571
 20
-2321.433258725941
 30
0.0
 40
101.8309090909091
 41
735.0
 46
0.0
 71
     7
 72
     1
  1
{\fＭＳ ゴシック|b0|i0|c128|p49;枠内＝2,005}
 11
6.123031769111886E-17
 21
1.0
 31
0.0
 73
     1
 44
1.0
  0
MTEXT
  5
26D
330
1F
100
AcDbEntity
  8
0-B_寸法
  6
Continuous
 62
     7
370
   211
100
AcDbMText
 10
-2113.217896424571
 20
-2321.433258725941
 30
0.0
 40
101.8309090909091
 41
735.0
 46
0.0
 71
     7
 72
     1
  1
{\fＭＳ ゴシック|b0|i0|c128|p49;ＤＨ＝1,983}
 11
6.123031769111886E-17
 21
1.0
 31
0.0
 73
     1
 44
1.0
  0
MTEXT
  5
26E
330
1F
100
AcDbEntity
  8
0-B_寸法
  6
Continuous
 62
     7
370
     0
100
AcDbMText
 10
-3298.217895871207
 20
-1273.953503350413
 30
0.0
 40
91.44
 41
180.0
 46
0.0
 71
     7
 72
     1
  1
{\fＭＳ ゴシック|b0|i0|c128|p49;105}
 73
     1
 44
1.0
  0
MTEXT
  5
26F
330
1F
100
AcDbEntity
  8
0-B_寸法
  6
Continuous
 62
     7
370
   211
100
AcDbMText
 10
-2113.217896424571
 20
-1110.342462638992
 30
0.0
 40
100.0125
 41
262.5
 46
0.0
 71
     7
 72
     1
  1
{\fＭＳ ゴシック|b0|i0|c128|p49;13.5}
 11
6.123031769111886E-17
 21
1.0
 31
0.0
 73
     1
 44
1.0
  0
MTEXT
  5
270
330
1F
100
AcDbEntity
  8
0-B_寸法
  6
Continuous
 62
     7
370
   211
100
AcDbMText
 10
-2323.217896424571
 20
-1043.318712638993
 30
0.0
 40
99.06
 41
195.0
 46
0.0
 71
     7
 72
     1
  1
{\fＭＳ ゴシック|b0|i0|c128|p49;6.3}
 11
6.123031769111886E-17
 21
1.0
 31
0.0
 73
     1
 44
1.0
  0
MTEXT
  5
271
330
1F
100
AcDbEntity
  8
0-B_寸法
  6
Continuous
 62
     7
370
   211
100
AcDbMText
 10
-1903.217896424571
 20
-724.021213271399
 30
0.0
 40
97.15499999999967
 41
127.4999999999996
 46
0.0
 71
     7
 72
     1
  1
{\fＭＳ ゴシック|b0|i0|c128|p49;30}
 11
6.123031769111886E-17
 21
1.0
 31
0.0
 73
     1
 44
1.0
  0
MTEXT
  5
272
330
1F
100
AcDbEntity
  8
0-A_文字
  6
Continuous
 62
     7
370
     9
100
AcDbMText
 10
-808.2178964245696
 20
-603.1283010156397
 30
0.0
 40
91.44000000000001
 41
1860.0
 46
0.0
 71
     7
 72
     1
  1
{\fＭＳ ゴシック|b0|i0|c128|p49;振れ止め金具取り付け位置　S=1/2}
 73
     1
 44
1.0
  0
LINE
  5
273
330
1F
100
AcDbEntity
  8
1-B_寸法
  6
Continuous
 62
   120
370
     5
100
AcDbLine
 10
-204.8929595909203
 20
-2609.003906394601
 30
0.0
 11
-204.8929595909203
 21
-2339.003906394602
 31
0.0
  0
LWPOLYLINE
  5
274
330
1F
100
AcDbEntity
  8
1-B_寸法
  6
Continuous
 62
     7
370
     9
100
AcDbPolyline
 90
        4
 70
     1
 43
3.0
 10
-203.3929595909203
 20
-2609.003906394601
 42
0.4142135623731
 10
-204.8929595909203
 20
-2607.503906394601
 42
0.4142135623731
 10
-206.3929595909203
 20
-2609.003906394601
 42
0.4142135623731
 10
-204.8929595909203
 20
-2610.503906394601
 42
0.4142135623731
  0
LWPOLYLINE
  5
275
330
1F
100
AcDbEntity
  8
1-B_寸法
  6
Continuous
 62
     7
370
     9
100
AcDbPolyline
 90
        4
 70
     1
 43
3.0
 10
-203.3929595909203
 20
-2339.003906394602
 42
0.4142135623731
 10
-204.8929595909203
 20
-2337.503906394602
 42
0.4142135623731
 10
-206.3929595909203
 20
-2339.003906394602
 42
0.4142135623731
 10
-204.8929595909203
 20
-2340.503906394602
 42
0.4142135623731
  0
LINE
  5
276
330
1F
100
AcDbEntity
  8
1-B_寸法
  6
Continuous
 62
   120
370
     5
100
AcDbLine
 10
-204.8929595909203
 20
-2339.003906394602
 30
0.0
 11
46.7821035754082
 21
-2339.003906394602
 31
0.0
  0
LINE
  5
277
330
1F
100
AcDbEntity
  8
1-B_寸法
  6
Continuous
 62
   120
370
     5
100
AcDbLine
 10
-204.8929595909203
 20
-2609.003906394601
 30
0.0
 11
-62.21409103850874
 21
-2609.003906394601
 31
0.0
  0
LWPOLYLINE
  5
278
330
1F
100
AcDbEntity
  8
1-B_寸法
  6
Continuous
 62
     7
370
     9
100
AcDbPolyline
 90
        4
 70
     1
 43
3.0
 10
877.0342636477059
 20
-2609.003906394601
 42
0.4142135623731
 10
875.5342636477059
 20
-2607.503906394601
 42
0.4142135623731
 10
874.0342636477059
 20
-2609.003906394601
 42
0.4142135623731
 10
875.5342636477059
 20
-2610.503906394601
 42
0.4142135623731
  0
LWPOLYLINE
  5
279
330
1F
100
AcDbEntity
  8
1-B_寸法
  6
Continuous
 62
     7
370
     9
100
AcDbPolyline
 90
        4
 70
     1
 43
3.0
 10
727.0342636477059
 20
-2609.003906394601
 42
0.4142135623731
 10
725.5342636477059
 20
-2607.503906394601
 42
0.4142135623731
 10
724.0342636477059
 20
-2609.003906394601
 42
0.4142135623731
 10
725.5342636477059
 20
-2610.503906394601
 42
0.4142135623731
  0
LINE
  5
27A
330
1F
100
AcDbEntity
  8
1-B_寸法
  6
Continuous
 62
   120
370
     5
100
AcDbLine
 10
875.5342636477059
 20
-2417.944467353419
 30
0.0
 11
875.5342636477059
 21
-2736.503906394601
 31
0.0
  0
LINE
  5
27B
330
1F
100
AcDbEntity
  8
1-B_寸法
  6
Continuous
 62
   120
370
     5
100
AcDbLine
 10
725.5342636477059
 20
-2691.503906394601
 30
0.0
 11
725.5342636477059
 21
-2417.944467353419
 31
0.0
  0
LINE
  5
27C
330
1F
100
AcDbEntity
  8
1-B_寸法
  6
Continuous
 62
   120
370
     5
100
AcDbLine
 10
575.5342636477059
 20
-2609.003906394601
 30
0.0
 11
875.5342636477059
 21
-2609.003906394601
 31
0.0
  0
LWPOLYLINE
  5
27D
330
1F
100
AcDbEntity
  8
1-B_寸法
  6
Continuous
 62
     7
370
     9
100
AcDbPolyline
 90
        4
 70
     1
 43
3.0
 10
877.0342636477059
 20
-2736.503906394601
 42
0.4142135623731
 10
875.5342636477059
 20
-2735.003906394601
 42
0.4142135623731
 10
874.0342636477059
 20
-2736.503906394601
 42
0.4142135623731
 10
875.5342636477059
 20
-2738.003906394601
 42
0.4142135623731
  0
LWPOLYLINE
  5
27E
330
1F
100
AcDbEntity
  8
1-B_寸法
  6
Continuous
 62
     7
370
     9
100
AcDbPolyline
 90
        4
 70
     1
 43
3.0
 10
877.0342636477059
 20
-2916.5039063946
 42
0.4142135623731
 10
875.5342636477059
 20
-2915.003906394601
 42
0.4142135623731
 10
874.0342636477059
 20
-2916.5039063946
 42
0.4142135623731
 10
875.5342636477059
 20
-2918.0039063946
 42
0.4142135623731
  0
LWPOLYLINE
  5
27F
330
1F
100
AcDbEntity
  8
1-B_寸法
  6
Continuous
 62
     7
370
     9
100
AcDbPolyline
 90
        4
 70
     1
 43
3.0
 10
727.0342636477059
 20
-2691.503906394601
 42
0.4142135623731
 10
725.5342636477059
 20
-2690.003906394601
 42
0.4142135623731
 10
724.0342636477059
 20
-2691.503906394601
 42
0.4142135623731
 10
725.5342636477059
 20
-2693.003906394601
 42
0.4142135623731
  0
LWPOLYLINE
  5
280
330
1F
100
AcDbEntity
  8
1-B_寸法
  6
Continuous
 62
     7
370
     9
100
AcDbPolyline
 90
        4
 70
     1
 43
3.0
 10
727.0342636477059
 20
-2736.503906394601
 42
0.4142135623731
 10
725.5342636477059
 20
-2735.003906394601
 42
0.4142135623731
 10
724.0342636477059
 20
-2736.503906394601
 42
0.4142135623731
 10
725.5342636477059
 20
-2738.003906394601
 42
0.4142135623731
  0
LINE
  5
281
330
1F
100
AcDbEntity
  8
1-B_寸法
  6
Continuous
 62
   120
370
     5
100
AcDbLine
 10
875.5342636477059
 20
-2916.5039063946
 30
0.0
 11
575.5342636477059
 21
-2916.5039063946
 31
0.0
  0
LINE
  5
282
330
1F
100
AcDbEntity
  8
1-B_寸法
  6
Continuous
 62
   120
370
     5
100
AcDbLine
 10
875.5342636477059
 20
-2736.503906394601
 30
0.0
 11
875.5342636477059
 21
-2916.5039063946
 31
0.0
  0
LINE
  5
283
330
1F
100
AcDbEntity
  8
1-B_寸法
  6
Continuous
 62
   120
370
     5
100
AcDbLine
 10
725.5342636477059
 20
-2691.503906394601
 30
0.0
 11
725.5342636477059
 21
-2736.503906394601
 31
0.0
  0
LINE
  5
284
330
1F
100
AcDbEntity
  8
1-B_寸法
  6
Continuous
 62
   120
370
     5
100
AcDbLine
 10
575.5342636477059
 20
-2691.503906394601
 30
0.0
 11
725.5342636477059
 21
-2691.503906394601
 31
0.0
  0
LINE
  5
285
330
1F
100
AcDbEntity
  8
1-B_寸法
  6
Continuous
 62
   120
370
     5
100
AcDbLine
 10
875.5342636477059
 20
-2736.503906394601
 30
0.0
 11
575.5342636477059
 21
-2736.503906394601
 31
0.0
  0
LINE
  5
286
330
1F
100
AcDbEntity
  8
1-6_扉
  6
JWW_DASHED2
 62
     7
370
     9
100
AcDbLine
 10
358.0299864184224
 20
-2609.003906394601
 30
0.0
 11
181.7821035754116
 21
-2609.003906394601
 31
0.0
  0
LINE
  5
287
330
1F
100
AcDbEntity
  8
1-6_扉
  6
JWW_DASHED2
 62
     7
370
     9
100
AcDbLine
 10
575.5342636477059
 20
-2609.003906394601
 30
0.0
 11
455.5342636477076
 21
-2609.003906394601
 31
0.0
  0
LINE
  5
288
330
1F
100
AcDbEntity
  8
1-7_金物
  6
Continuous
 62
     7
370
     9
100
AcDbLine
 10
455.5342636477076
 20
-2609.003906394601
 30
0.0
 11
500.5342636477059
 21
-2609.003906394601
 31
0.0
  0
LINE
  5
289
330
1F
100
AcDbEntity
  8
1-7_金物
  6
Continuous
 62
     7
370
     9
100
AcDbLine
 10
500.5342636477059
 20
-2609.003906394601
 30
0.0
 11
500.5342636477059
 21
-2624.003906394598
 31
0.0
  0
LINE
  5
28A
330
1F
100
AcDbEntity
  8
1-7_金物
  6
Continuous
 62
     7
370
     9
100
AcDbLine
 10
440.5342636477042
 20
-2624.003906394598
 30
0.0
 11
500.5342636477059
 21
-2624.003906394598
 31
0.0
  0
LINE
  5
28B
330
1F
100
AcDbEntity
  8
1-7_金物
  6
Continuous
 62
     7
370
     9
100
AcDbLine
 10
440.5342636477042
 20
-2354.003906394601
 30
0.0
 11
373.034263647711
 21
-2354.003906394601
 31
0.0
  0
LINE
  5
28C
330
1F
100
AcDbEntity
  8
1-7_金物
  6
Continuous
 62
     7
370
     9
100
AcDbLine
 10
358.0342636477076
 20
-2339.003906394601
 30
0.0
 11
455.5342636477076
 21
-2339.003906394601
 31
0.0
  0
LINE
  5
28D
330
1F
100
AcDbEntity
  8
1-7_金物
  6
Continuous
 62
     7
370
     9
100
AcDbLine
 10
440.5342636477042
 20
-2354.003906394601
 30
0.0
 11
440.5342636477042
 21
-2624.003906394598
 31
0.0
  0
LINE
  5
28E
330
1F
100
AcDbEntity
  8
1-7_金物
  6
Continuous
 62
     7
370
     9
100
AcDbLine
 10
455.5342636477076
 20
-2339.003906394601
 30
0.0
 11
455.5342636477076
 21
-2609.003906394601
 31
0.0
  0
LINE
  5
28F
330
1F
100
AcDbEntity
  8
1-7_金物
  6
Continuous
 62
     7
370
     9
100
AcDbLine
 10
373.034263647711
 20
-2624.003906394598
 30
0.0
 11
313.0342636477059
 21
-2624.003906394598
 31
0.0
  0
LINE
  5
290
330
1F
100
AcDbEntity
  8
1-7_金物
  6
Continuous
 62
     7
370
     9
100
AcDbLine
 10
373.034263647711
 20
-2624.003906394598
 30
0.0
 11
373.034263647711
 21
-2354.003906394601
 31
0.0
  0
LINE
  5
291
330
1F
100
AcDbEntity
  8
1-7_金物
  6
Continuous
 62
     7
370
     9
100
AcDbLine
 10
313.0342636477059
 20
-2624.003906394598
 30
0.0
 11
313.0342636477059
 21
-2609.003906394601
 31
0.0
  0
LINE
  5
292
330
1F
100
AcDbEntity
  8
1-7_金物
  6
Continuous
 62
     7
370
     9
100
AcDbLine
 10
313.0342636477059
 20
-2609.003906394601
 30
0.0
 11
358.0342636477076
 21
-2609.003906394601
 31
0.0
  0
LINE
  5
293
330
1F
100
AcDbEntity
  8
1-7_金物
  6
Continuous
 62
     7
370
     9
100
AcDbLine
 10
358.0342636477076
 20
-2609.003906394601
 30
0.0
 11
358.0342636477076
 21
-2339.003906394601
 31
0.0
  0
LINE
  5
294
330
1F
100
AcDbEntity
  8
1-6_扉
  6
JWW_DASHED2
 62
     7
370
     9
100
AcDbLine
 10
455.5321035754065
 20
-2339.003906394598
 30
0.0
 11
358.0299864184224
 21
-2339.003906394598
 31
0.0
  0
LINE
  5
295
330
1F
100
AcDbEntity
  8
1-6_扉
  6
JWW_DASHED2
 62
     7
370
     9
100
AcDbLine
 10
455.5321035754065
 20
-2339.003906394598
 30
0.0
 11
455.5321035754065
 21
-2609.003906394597
 31
0.0
  0
LINE
  5
296
330
1F
100
AcDbEntity
  8
1-6_扉
  6
JWW_DASHED2
 62
     7
370
     9
100
AcDbLine
 10
358.0299864184224
 20
-2609.003906394597
 30
0.0
 11
358.0299864184224
 21
-2339.003906394598
 31
0.0
  0
LINE
  5
297
330
1F
100
AcDbEntity
  8
1-B_寸法
  6
Continuous
 62
   120
370
     5
100
AcDbLine
 10
84.2821035754082
 20
-2122.852800090842
 30
0.0
 11
84.2821035754082
 21
-2272.852800090842
 31
0.0
  0
LWPOLYLINE
  5
298
330
1F
100
AcDbEntity
  8
1-B_寸法
  6
Continuous
 62
     7
370
     9
100
AcDbPolyline
 90
        4
 70
     1
 43
3.0
 10
85.7821035754082
 20
-2122.852800090842
 42
0.4142135623731
 10
84.2821035754082
 20
-2121.352800090842
 42
0.4142135623731
 10
82.7821035754082
 20
-2122.852800090842
 42
0.4142135623731
 10
84.2821035754082
 20
-2124.352800090842
 42
0.4142135623731
  0
LINE
  5
299
330
1F
100
AcDbEntity
  8
1-B_寸法
  6
Continuous
 62
   120
370
     5
100
AcDbLine
 10
159.2842636477042
 20
-2122.852800090842
 30
0.0
 11
84.2821035754082
 21
-2122.852800090842
 31
0.0
  0
LINE
  5
29A
330
1F
100
AcDbEntity
  8
1-B_寸法
  6
Continuous
 62
   120
370
     5
100
AcDbLine
 10
159.2842636477042
 20
-2122.852800090842
 30
0.0
 11
159.2842636477042
 21
-2272.852800090842
 31
0.0
  0
LINE
  5
29B
330
1F
100
AcDbEntity
  8
1-B_寸法
  6
Continuous
 62
   120
370
     5
100
AcDbLine
 10
429.284263647728
 20
-2122.852800090842
 30
0.0
 11
429.284263647728
 21
-2272.852800090842
 31
0.0
  0
LWPOLYLINE
  5
29C
330
1F
100
AcDbEntity
  8
1-B_寸法
  6
Continuous
 62
     7
370
     9
100
AcDbPolyline
 90
        4
 70
     1
 43
3.0
 10
160.7842636477042
 20
-2122.852800090842
 42
0.4142135623731
 10
159.2842636477042
 20
-2121.352800090842
 42
0.4142135623731
 10
157.7842636477042
 20
-2122.852800090842
 42
0.4142135623731
 10
159.2842636477042
 20
-2124.352800090842
 42
0.4142135623731
  0
LWPOLYLINE
  5
29D
330
1F
100
AcDbEntity
  8
1-B_寸法
  6
Continuous
 62
     7
370
     9
100
AcDbPolyline
 90
        4
 70
     1
 43
3.0
 10
430.784263647728
 20
-2122.852800090842
 42
0.4142135623731
 10
429.284263647728
 20
-2121.352800090842
 42
0.4142135623731
 10
427.784263647728
 20
-2122.852800090842
 42
0.4142135623731
 10
429.284263647728
 20
-2124.352800090842
 42
0.4142135623731
  0
LINE
  5
29E
330
1F
100
AcDbEntity
  8
1-B_寸法
  6
Continuous
 62
   120
370
     5
100
AcDbLine
 10
429.284263647728
 20
-2122.852800090842
 30
0.0
 11
159.2842636477042
 21
-2122.852800090842
 31
0.0
  0
LINE
  5
29F
330
1F
100
AcDbEntity
  8
1-B_寸法
  6
Continuous
 62
   120
370
     5
100
AcDbLine
 10
-46.39593303024981
 20
-2436.503906394601
 30
0.0
 11
46.7821035754082
 21
-2436.503906394601
 31
0.0
  0
LWPOLYLINE
  5
2A0
330
1F
100
AcDbEntity
  8
1-B_寸法
  6
Continuous
 62
     7
370
     9
100
AcDbPolyline
 90
        4
 70
     1
 43
3.0
 10
-44.89593303024981
 20
-2436.503906394601
 42
0.4142135623731
 10
-46.39593303024981
 20
-2435.003906394601
 42
0.4142135623731
 10
-47.89593303024981
 20
-2436.503906394601
 42
0.4142135623731
 10
-46.39593303024981
 20
-2438.003906394601
 42
0.4142135623731
  0
LINE
  5
2A1
330
1F
100
AcDbEntity
  8
1-B_寸法
  6
Continuous
 62
   120
370
     5
100
AcDbLine
 10
-46.39593303024981
 20
-2736.503906394601
 30
0.0
 11
-46.39593303024981
 21
-2436.503906394601
 31
0.0
  0
ARC
  5
2A2
330
1F
100
AcDbEntity
  8
1-7_金物
  6
Continuous
 62
    92
370
    13
100
AcDbCircle
 10
384.284263647728
 20
-2691.503906394601
 30
0.0
 40
45.0
100
AcDbArc
 50
270.0
 51
0.0
  0
LINE
  5
2A3
330
1F
100
AcDbEntity
  8
1-7_金物
  6
Continuous
 62
    92
370
    13
100
AcDbLine
 10
429.284263647728
 20
-2691.503906394601
 30
0.0
 11
429.284263647728
 21
-2436.503906394601
 31
0.0
  0
LINE
  5
2A4
330
1F
100
AcDbEntity
  8
1-7_金物
  6
Continuous
 62
    92
370
    13
100
AcDbLine
 10
384.284263647728
 20
-2736.503906394601
 30
0.0
 11
159.2842636477042
 21
-2736.503906394601
 31
0.0
  0
LINE
  5
2A5
330
1F
100
AcDbEntity
  8
1-7_金物
  6
Continuous
 62
    92
370
    13
100
AcDbLine
 10
384.284263647728
 20
-2436.503906394601
 30
0.0
 11
384.284263647728
 21
-2691.503906394601
 31
0.0
  0
LINE
  5
2A6
330
1F
100
AcDbEntity
  8
1-7_金物
  6
Continuous
 62
    92
370
    13
100
AcDbLine
 10
384.284263647728
 20
-2436.503906394601
 30
0.0
 11
429.284263647728
 21
-2436.503906394601
 31
0.0
  0
LINE
  5
2A7
330
1F
100
AcDbEntity
  8
1-7_金物
  6
Continuous
 62
    92
370
    13
100
AcDbLine
 10
159.2842636477042
 20
-2691.503906394601
 30
0.0
 11
384.284263647728
 21
-2691.503906394601
 31
0.0
  0
LINE
  5
2A8
330
1F
100
AcDbEntity
  8
1-7_金物
  6
Continuous
 62
    92
370
    13
100
AcDbLine
 10
159.2842636477042
 20
-2691.503906394601
 30
0.0
 11
159.2842636477042
 21
-2736.503906394601
 31
0.0
  0
LINE
  5
2A9
330
1F
100
AcDbEntity
  8
1-7_金物
  6
Continuous
 62
   120
370
     5
100
AcDbLine
 10
159.2842636477042
 20
-2713.739831611431
 30
0.0
 11
181.518696146353
 21
-2691.505399112783
 31
0.0
  0
LINE
  5
2AA
330
1F
100
AcDbEntity
  8
1-7_金物
  6
Continuous
 62
   120
370
     5
100
AcDbLine
 10
384.2842636477263
 20
-2488.739831611419
 30
0.0
 11
429.2842636477451
 21
-2443.739831611395
 31
0.0
  0
LINE
  5
2AB
330
1F
100
AcDbEntity
  8
1-7_金物
  6
Continuous
 62
   120
370
     5
100
AcDbLine
 10
384.2842636477434
 20
-2552.379441918279
 30
0.0
 11
429.2842636477536
 21
-2507.379441918266
 31
0.0
  0
LINE
  5
2AC
330
1F
100
AcDbEntity
  8
1-7_金物
  6
Continuous
 62
   120
370
     5
100
AcDbLine
 10
200.1597991714169
 20
-2736.503906394607
 30
0.0
 11
245.1583064531923
 21
-2691.505399112828
 31
0.0
  0
LINE
  5
2AD
330
1F
100
AcDbEntity
  8
1-7_金物
  6
Continuous
 62
   120
370
     5
100
AcDbLine
 10
384.2842636477178
 20
-2616.019052225046
 30
0.0
 11
429.2842636477366
 21
-2571.019052225031
 31
0.0
  0
LINE
  5
2AE
330
1F
100
AcDbEntity
  8
1-7_金物
  6
Continuous
 62
   120
370
     5
100
AcDbLine
 10
263.7994094781709
 20
-2736.503906394599
 30
0.0
 11
308.7979167599548
 21
-2691.505399112802
 31
0.0
  0
LINE
  5
2AF
330
1F
100
AcDbEntity
  8
1-7_金物
  6
Continuous
 62
   120
370
     5
100
AcDbLine
 10
384.2842636476922
 20
-2679.658662531808
 30
0.0
 11
429.284263647728
 21
-2634.658662531785
 31
0.0
  0
LINE
  5
2B0
330
1F
100
AcDbEntity
  8
1-7_金物
  6
Continuous
 62
   120
370
     5
100
AcDbLine
 10
327.4390197849249
 20
-2736.503906394578
 30
0.0
 11
372.4375270667343
 21
-2691.505399112777
 31
0.0
  0
LINE
  5
2B1
330
1F
100
AcDbEntity
  8
1-7_金物
  6
Continuous
 62
   120
370
     5
100
AcDbLine
 10
391.6900786262607
 20
-2735.892457860139
 30
0.0
 11
428.6842574642469
 21
-2698.898279022144
 31
0.0
  0
LINE
  5
2B2
330
1F
100
AcDbEntity
  8
1-A_文字
  6
Continuous
 62
     7
370
     9
100
AcDbLine
 10
191.0797196028983
 20
-2717.234375782171
 30
0.0
 11
-2.671301962767529
 21
-3052.820989152277
 31
0.0
  0
LINE
  5
2B3
330
1F
100
AcDbEntity
  8
1-A_文字
  6
Continuous
 62
     7
370
     9
100
AcDbLine
 10
-2.671301962767529
 20
-3052.820989152277
 30
0.0
 11
-77.67130196276753
 21
-3052.820989152277
 31
0.0
  0
LINE
  5
2B4
330
1F
100
AcDbEntity
  8
1-B_寸法
  6
Continuous
 62
   120
370
     5
100
AcDbLine
 10
-46.39593303024981
 20
-2736.503906394601
 30
0.0
 11
46.7821035754082
 21
-2736.503906394601
 31
0.0
  0
LWPOLYLINE
  5
2B5
330
1F
100
AcDbEntity
  8
1-B_寸法
  6
Continuous
 62
     7
370
     9
100
AcDbPolyline
 90
        4
 70
     1
 43
3.0
 10
-44.89593303024981
 20
-2736.503906394601
 42
0.4142135623731
 10
-46.39593303024981
 20
-2735.003906394601
 42
0.4142135623731
 10
-47.89593303024981
 20
-2736.503906394601
 42
0.4142135623731
 10
-46.39593303024981
 20
-2738.003906394601
 42
0.4142135623731
  0
LINE
  5
2B6
330
1F
100
AcDbEntity
  8
1-4_枠
  6
Continuous
 62
    92
370
    13
100
AcDbLine
 10
84.28210357542525
 20
-931.7585027460607
 30
0.0
 11
84.28210357542525
 21
-2736.503906394598
 31
0.0
  0
LINE
  5
2B7
330
1F
100
AcDbEntity
  8
1-4_枠
  6
Continuous
 62
    92
370
    13
100
AcDbLine
 10
-725.7178964245747
 20
-931.7585027460607
 30
0.0
 11
-725.7178964245747
 21
-2736.503906394598
 31
0.0
  0
LINE
  5
2B8
330
1F
100
AcDbEntity
  8
1-0_補助線
  6
JWW_HOJO
 62
   120
370
     5
100
AcDbLine
 10
9.282103575425253
 20
-2264.0039063946
 30
0.0
 11
9.282103575425253
 21
-2916.50339071329
 31
0.0
  0
LINE
  5
2B9
330
1F
100
AcDbEntity
  8
1-0_補助線
  6
JWW_HOJO
 62
   120
370
     5
100
AcDbLine
 10
-166.9678964246191
 20
-2264.0039063946
 30
0.0
 11
-166.9678964246191
 21
-2916.50339071329
 31
0.0
  0
LINE
  5
2BA
330
1F
100
AcDbEntity
  8
1-0_補助線
  6
JWW_HOJO
 62
   120
370
     5
100
AcDbLine
 10
706.7821035754116
 20
-2264.0039063946
 30
0.0
 11
-166.9678964246191
 21
-2264.0039063946
 31
0.0
  0
LINE
  5
2BB
330
1F
100
AcDbEntity
  8
1-B_寸法
  6
Continuous
 62
   120
370
     5
100
AcDbLine
 10
421.7821035754116
 20
-1324.33699514071
 30
0.0
 11
84.28210357542525
 21
-1324.33699514071
 31
0.0
  0
LINE
  5
2BC
330
1F
100
AcDbEntity
  8
1-B_寸法
  6
Continuous
 62
   120
370
     5
100
AcDbLine
 10
-725.7178964245747
 20
-1324.33699514071
 30
0.0
 11
-725.7178964245747
 21
-1474.33699514071
 31
0.0
  0
LWPOLYLINE
  5
2BD
330
1F
100
AcDbEntity
  8
1-B_寸法
  6
Continuous
 62
     7
370
     9
100
AcDbPolyline
 90
        4
 70
     1
 43
3.0
 10
-724.2178964245747
 20
-1324.33699514071
 42
0.4142135623731
 10
-725.7178964245747
 20
-1322.836995140711
 42
0.4142135623731
 10
-727.2178964245747
 20
-1324.33699514071
 42
0.4142135623731
 10
-725.7178964245747
 20
-1325.83699514071
 42
0.4142135623731
  0
LINE
  5
2BE
330
1F
100
AcDbEntity
  8
1-B_寸法
  6
Continuous
 62
   120
370
     5
100
AcDbLine
 10
84.28210357542525
 20
-1324.33699514071
 30
0.0
 11
-725.7178964245747
 21
-1324.33699514071
 31
0.0
  0
LINE
  5
2BF
330
1F
100
AcDbEntity
  8
1-B_寸法
  6
Continuous
 62
   120
370
     5
100
AcDbLine
 10
84.28210357542525
 20
-1324.33699514071
 30
0.0
 11
84.28210357542525
 21
-1474.33699514071
 31
0.0
  0
LINE
  5
2C0
330
1F
100
AcDbEntity
  8
1-B_寸法
  6
Continuous
 62
   120
370
     5
100
AcDbLine
 10
181.7821035754116
 20
-1324.33699514071
 30
0.0
 11
181.7821035754116
 21
-1474.33699514071
 31
0.0
  0
LWPOLYLINE
  5
2C1
330
1F
100
AcDbEntity
  8
1-B_寸法
  6
Continuous
 62
     7
370
     9
100
AcDbPolyline
 90
        4
 70
     1
 43
3.0
 10
85.78210357542525
 20
-1324.33699514071
 42
0.4142135623731
 10
84.28210357542525
 20
-1322.836995140711
 42
0.4142135623731
 10
82.78210357542525
 20
-1324.33699514071
 42
0.4142135623731
 10
84.28210357542525
 20
-1325.83699514071
 42
0.4142135623731
  0
LWPOLYLINE
  5
2C2
330
1F
100
AcDbEntity
  8
1-B_寸法
  6
Continuous
 62
     7
370
     9
100
AcDbPolyline
 90
        4
 70
     1
 43
3.0
 10
183.2821035754116
 20
-1324.33699514071
 42
0.4142135623731
 10
181.7821035754116
 20
-1322.836995140711
 42
0.4142135623731
 10
180.2821035754116
 20
-1324.33699514071
 42
0.4142135623731
 10
181.7821035754116
 20
-1325.83699514071
 42
0.4142135623731
  0
LINE
  5
2C3
330
1F
100
AcDbEntity
  8
1-0_補助線
  6
JWW_HOJO
 62
   120
370
     5
100
AcDbLine
 10
406.7821035754355
 20
-931.7585027460607
 30
0.0
 11
406.7821035754355
 21
-2916.503906394596
 31
0.0
  0
LINE
  5
2C4
330
1F
100
AcDbEntity
  8
1-6_扉
  6
JWW_DASHED2
 62
     7
370
     9
100
AcDbLine
 10
631.7821035754116
 20
-931.7585027460607
 30
0.0
 11
631.7821035754116
 21
-2402.944467353419
 31
0.0
  0
LWPOLYLINE
  5
2C5
330
1F
100
AcDbEntity
  8
1-B_寸法
  6
Continuous
 62
     7
370
     9
100
AcDbPolyline
 90
        4
 70
     1
 43
3.0
 10
970.7821035754286
 20
-1144.33699514071
 42
0.4142135623731
 10
969.2821035754287
 20
-1142.836995140711
 42
0.4142135623731
 10
967.7821035754288
 20
-1144.33699514071
 42
0.4142135623731
 10
969.2821035754287
 20
-1145.83699514071
 42
0.4142135623731
  0
LWPOLYLINE
  5
2C6
330
1F
100
AcDbEntity
  8
1-B_寸法
  6
Continuous
 62
     7
370
     9
100
AcDbPolyline
 90
        4
 70
     1
 43
3.0
 10
-724.2178964245747
 20
-1144.33699514071
 42
0.4142135623731
 10
-725.7178964245747
 20
-1142.836995140711
 42
0.4142135623731
 10
-727.2178964245747
 20
-1144.33699514071
 42
0.4142135623731
 10
-725.7178964245747
 20
-1145.83699514071
 42
0.4142135623731
  0
LINE
  5
2C7
330
1F
100
AcDbEntity
  8
1-B_寸法
  6
Continuous
 62
   120
370
     5
100
AcDbLine
 10
-725.7178964245747
 20
-1144.33699514071
 30
0.0
 11
969.2821035754287
 21
-1144.33699514071
 31
0.0
  0
LINE
  5
2C8
330
1F
100
AcDbEntity
  8
1-4_枠
  6
Continuous
 62
    92
370
    13
100
AcDbLine
 10
969.2821035754287
 20
-931.7585027460607
 30
0.0
 11
969.2821035754287
 21
-2736.503906394598
 31
0.0
  0
LINE
  5
2C9
330
1F
100
AcDbEntity
  8
1-6_扉
  6
JWW_DASHED2
 62
     7
370
     9
100
AcDbLine
 10
181.7821035754116
 20
-931.7585027460607
 30
0.0
 11
181.7821035754116
 21
-2609.003906394601
 31
0.0
  0
LINE
  5
2CA
330
1F
100
AcDbEntity
  8
1-0_補助線
  6
JWW_HOJO
 62
   120
370
     5
100
AcDbLine
 10
706.7821035754116
 20
-2264.0039063946
 30
0.0
 11
706.7821035754116
 21
-2916.50339071329
 31
0.0
  0
LINE
  5
2CB
330
1F
100
AcDbEntity
  8
1-0_補助線
  6
JWW_HOJO
 62
   120
370
     5
100
AcDbLine
 10
530.5321035754082
 20
-2264.0039063946
 30
0.0
 11
530.5321035754082
 21
-2916.50339071329
 31
0.0
  0
LINE
  5
2CC
330
1F
100
AcDbEntity
  8
0-A_文字
  6
Continuous
 62
    92
370
    13
100
AcDbLine
 10
1441.782103575429
 20
-438.8483010156398
 30
0.0
 11
1441.782103575429
 21
-3258.848507009291
 31
0.0
  0
LINE
  5
2CD
330
1F
100
AcDbEntity
  8
0-A_文字
  6
Continuous
 62
    92
370
    13
100
AcDbLine
 10
-1198.217896424571
 20
-3258.848507009291
 30
0.0
 11
1441.782103575429
 21
-3258.848507009291
 31
0.0
  0
LINE
  5
2CE
330
1F
100
AcDbEntity
  8
0-A_文字
  6
Continuous
 62
    92
370
    13
100
AcDbLine
 10
-1198.217896424571
 20
-438.8483010156398
 30
0.0
 11
1441.782103575429
 21
-438.8483010156398
 31
0.0
  0
LINE
  5
2CF
330
1F
100
AcDbEntity
  8
0-A_文字
  6
Continuous
 62
    92
370
    13
100
AcDbLine
 10
-1198.217896424571
 20
-618.8483010156393
 30
0.0
 11
1441.782103575429
 21
-618.8483010156393
 31
0.0
  0
LINE
  5
2D0
330
1F
100
AcDbEntity
  8
1-3_仕上げ
  6
Continuous
 62
    40
370
    15
100
AcDbLine
 10
-919.2556020560107
 20
-2916.503906394596
 30
0.0
 11
1153.708444578704
 21
-2916.503906394596
 31
0.0
  0
LINE
  5
2D1
330
1F
100
AcDbEntity
  8
0-A_文字
  6
Continuous
 62
    92
370
    13
100
AcDbLine
 10
-1198.217896424571
 20
-3258.848507009291
 30
0.0
 11
-1198.217896424571
 21
-438.8483010156398
 31
0.0
  0
LINE
  5
2D2
330
1F
100
AcDbEntity
  8
1-3_仕上げ
  6
Continuous
 62
    40
370
    15
100
AcDbLine
 10
-919.2556020560107
 20
-2736.503906394598
 30
0.0
 11
1153.708444578704
 21
-2736.503906394598
 31
0.0
  0
LINE
  5
2D3
330
1F
100
AcDbEntity
  8
1-1_通り芯
  6
JWW_CENTER1
 62
   120
370
     5
100
AcDbLine
 10
121.7821035754321
 20
-902.9617585251316
 30
0.0
 11
121.7821035754321
 21
-3050.585246061583
 31
0.0
  0
LINE
  5
2D4
330
1F
100
AcDbEntity
  8
0-B_寸法
  6
Continuous
 62
   120
370
     5
100
AcDbLine
 10
-2098.217896424571
 20
-3135.848713271376
 30
0.0
 11
-2098.217896424571
 21
-3186.848713271375
 31
0.0
  0
LWPOLYLINE
  5
2D5
330
1F
100
AcDbEntity
  8
0-B_寸法
  6
Continuous
 62
     7
370
     9
100
AcDbPolyline
 90
        4
 70
     1
 43
3.0
 10
-2096.717896424571
 20
-3186.848713271375
 42
0.4142135623731
 10
-2098.217896424571
 20
-3185.348713271375
 42
0.4142135623731
 10
-2099.717896424571
 20
-3186.848713271375
 42
0.4142135623731
 10
-2098.217896424571
 20
-3188.348713271375
 42
0.4142135623731
  0
LINE
  5
2D6
330
1F
100
AcDbEntity
  8
0-0_補助線
  6
JWW_HOJO
 62
   120
370
     5
100
AcDbLine
 10
-3143.717895871198
 20
-2997.848713271375
 30
0.0
 11
-3143.717895871198
 21
-3261.848900736786
 31
0.0
  0
LINE
  5
2D7
330
1F
100
AcDbEntity
  8
0-B_寸法
  6
Continuous
 62
   120
370
     5
100
AcDbLine
 10
-3334.217895871216
 20
-3186.848713271375
 30
0.0
 11
-3214.217895871216
 21
-3186.848713271375
 31
0.0
  0
LWPOLYLINE
  5
2D8
330
1F
100
AcDbEntity
  8
0-B_寸法
  6
Continuous
 62
     7
370
     9
100
AcDbPolyline
 90
        4
 70
     1
 43
3.0
 10
-3332.717895871216
 20
-3186.848713271375
 42
0.4142135623731
 10
-3334.217895871216
 20
-3185.348713271375
 42
0.4142135623731
 10
-3335.717895871216
 20
-3186.848713271375
 42
0.4142135623731
 10
-3334.217895871216
 20
-3188.348713271375
 42
0.4142135623731
  0
LINE
  5
2D9
330
1F
100
AcDbEntity
  8
0-0_補助線
  6
JWW_HOJO
 62
   120
370
     5
100
AcDbLine
 10
-2974.217895871216
 20
-2997.848713271375
 30
0.0
 11
-3214.217895871216
 21
-2997.848713271375
 31
0.0
  0
LINE
  5
2DA
330
1F
100
AcDbEntity
  8
0-0_補助線
  6
JWW_HOJO
 62
   120
370
     5
100
AcDbLine
 10
-3214.217895871216
 20
-2997.848713271375
 30
0.0
 11
-3214.217895871216
 21
-3261.848900736786
 31
0.0
  0
LINE
  5
2DB
330
1F
100
AcDbEntity
  8
0-B_寸法
  6
Continuous
 62
   120
370
     5
100
AcDbLine
 10
-3334.217895871216
 20
-3066.848713271374
 30
0.0
 11
-3214.217895871216
 21
-3066.848713271374
 31
0.0
  0
LWPOLYLINE
  5
2DC
330
1F
100
AcDbEntity
  8
0-B_寸法
  6
Continuous
 62
     7
370
     9
100
AcDbPolyline
 90
        4
 70
     1
 43
3.0
 10
-3332.717895871216
 20
-3066.848713271374
 42
0.4142135623731
 10
-3334.217895871216
 20
-3065.348713271374
 42
0.4142135623731
 10
-3335.717895871216
 20
-3066.848713271374
 42
0.4142135623731
 10
-3334.217895871216
 20
-3068.348713271374
 42
0.4142135623731
  0
LINE
  5
2DD
330
1F
100
AcDbEntity
  8
0-B_寸法
  6
Continuous
 62
   120
370
     5
100
AcDbLine
 10
-3334.217895871216
 20
-3186.848713271375
 30
0.0
 11
-3334.217895871216
 21
-3066.848713271374
 31
0.0
  0
LINE
  5
2DE
330
1F
100
AcDbEntity
  8
0-6_扉
  6
Continuous
 62
   200
370
    20
100
AcDbLine
 10
-3004.217895871216
 20
-2004.848507009309
 30
0.0
 11
-3004.217895871216
 21
-3135.848713271376
 31
0.0
  0
LINE
  5
2DF
330
1F
100
AcDbEntity
  8
0-6_扉
  6
Continuous
 62
   200
370
    20
100
AcDbLine
 10
-3184.217895871216
 20
-2004.848507009309
 30
0.0
 11
-3184.217895871216
 21
-3135.848713271376
 31
0.0
  0
LWPOLYLINE
  5
2E0
330
1F
100
AcDbEntity
  8
0-B_寸法
  6
Continuous
 62
     7
370
     9
100
AcDbPolyline
 90
        4
 70
     1
 43
3.0
 10
-2096.717896424571
 20
-3135.848713271376
 42
0.4142135623731
 10
-2098.217896424571
 20
-3134.348713271376
 42
0.4142135623731
 10
-2099.717896424571
 20
-3135.848713271376
 42
0.4142135623731
 10
-2098.217896424571
 20
-3137.348713271375
 42
0.4142135623731
  0
LINE
  5
2E1
330
1F
100
AcDbEntity
  8
0-B_寸法
  6
Continuous
 62
   120
370
     5
100
AcDbLine
 10
-2098.217896424571
 20
-3135.848713271376
 30
0.0
 11
-2518.217896424571
 21
-3135.848713271376
 31
0.0
  0
LINE
  5
2E2
330
1F
100
AcDbEntity
  8
0-B_寸法
  6
Continuous
 62
   120
370
     5
100
AcDbLine
 10
-2098.217896424571
 20
-819.8487126389922
 30
0.0
 11
-2098.217896424571
 21
-3135.848713271376
 31
0.0
  0
LWPOLYLINE
  5
2E3
330
1F
100
AcDbEntity
  8
0-B_寸法
  6
Continuous
 62
     7
370
     9
100
AcDbPolyline
 90
        4
 70
     1
 43
3.0
 10
-2096.717896424571
 20
-819.8487126389922
 42
0.4142135623731
 10
-2098.217896424571
 20
-818.3487126389922
 42
0.4142135623731
 10
-2099.717896424571
 20
-819.8487126389922
 42
0.4142135623731
 10
-2098.217896424571
 20
-821.3487126389922
 42
0.4142135623731
  0
LINE
  5
2E4
330
1F
100
AcDbEntity
  8
0-B_寸法
  6
Continuous
 62
   120
370
     5
100
AcDbLine
 10
-2098.217896424571
 20
-738.8487132713989
 30
0.0
 11
-2098.217896424571
 21
-819.8487126389922
 31
0.0
  0
LINE
  5
2E5
330
1F
100
AcDbEntity
  8
0-B_寸法
  6
Continuous
 62
   120
370
     5
100
AcDbLine
 10
-2098.217896424571
 20
-819.8487126389922
 30
0.0
 11
-2518.217896424571
 21
-819.8487126389922
 31
0.0
  0
LWPOLYLINE
  5
2E6
330
1F
100
AcDbEntity
  8
0-B_寸法
  6
Continuous
 62
     7
370
     9
100
AcDbPolyline
 90
        4
 70
     1
 43
3.0
 10
-2306.717896424571
 20
-819.8487126389922
 42
0.4142135623731
 10
-2308.217896424571
 20
-818.3487126389922
 42
0.4142135623731
 10
-2309.717896424571
 20
-819.8487126389922
 42
0.4142135623731
 10
-2308.217896424571
 20
-821.3487126389922
 42
0.4142135623731
  0
LINE
  5
2E7
330
1F
100
AcDbEntity
  8
0-B_寸法
  6
Continuous
 62
   120
370
     5
100
AcDbLine
 10
-2308.217896424571
 20
-782.0487129868154
 30
0.0
 11
-2308.217896424571
 21
-819.8487126389922
 31
0.0
  0
LINE
  5
2E8
330
1F
100
AcDbEntity
  8
0-B_寸法
  6
Continuous
 62
   120
370
     5
100
AcDbLine
 10
-2308.217896424571
 20
-782.0487129868154
 30
0.0
 11
-2518.217896424571
 21
-782.0487129868154
 31
0.0
  0
LWPOLYLINE
  5
2E9
330
1F
100
AcDbEntity
  8
0-B_寸法
  6
Continuous
 62
     7
370
     9
100
AcDbPolyline
 90
        4
 70
     1
 43
3.0
 10
-2306.717896424571
 20
-782.0487129868154
 42
0.4142135623731
 10
-2308.217896424571
 20
-780.5487129868154
 42
0.4142135623731
 10
-2309.717896424571
 20
-782.0487129868154
 42
0.4142135623731
 10
-2308.217896424571
 20
-783.5487129868154
 42
0.4142135623731
  0
LWPOLYLINE
  5
2EA
330
1F
100
AcDbEntity
  8
0-B_寸法
  6
Continuous
 62
     7
370
     9
100
AcDbPolyline
 90
        4
 70
     1
 43
3.0
 10
-1676.717896424571
 20
-558.8487132713985
 42
0.4142135623731
 10
-1678.217896424571
 20
-557.3487132713984
 42
0.4142135623731
 10
-1679.717896424571
 20
-558.8487132713985
 42
0.4142135623731
 10
-1678.217896424571
 20
-560.3487132713985
 42
0.4142135623731
  0
LINE
  5
2EB
330
1F
100
AcDbEntity
  8
0-B_寸法
  6
Continuous
 62
   120
370
     5
100
AcDbLine
 10
-1678.217896424571
 20
-3186.848713271375
 30
0.0
 11
-1678.217896424571
 21
-558.8487132713985
 31
0.0
  0
LINE
  5
2EC
330
1F
100
AcDbEntity
  8
0-B_寸法
  6
Continuous
 62
   120
370
     5
100
AcDbLine
 10
-1678.217896424571
 20
-3258.848713271375
 30
0.0
 11
-2518.217896424571
 21
-3258.848713271375
 31
0.0
  0
LWPOLYLINE
  5
2ED
330
1F
100
AcDbEntity
  8
0-B_寸法
  6
Continuous
 62
     7
370
     9
100
AcDbPolyline
 90
        4
 70
     1
 43
3.0
 10
-1676.717896424571
 20
-3186.848713271375
 42
0.4142135623731
 10
-1678.217896424571
 20
-3185.348713271375
 42
0.4142135623731
 10
-1679.717896424571
 20
-3186.848713271375
 42
0.4142135623731
 10
-1678.217896424571
 20
-3188.348713271375
 42
0.4142135623731
  0
LWPOLYLINE
  5
2EE
330
1F
100
AcDbEntity
  8
0-B_寸法
  6
Continuous
 62
     7
370
     9
100
AcDbPolyline
 90
        4
 70
     1
 43
3.0
 10
-1676.717896424571
 20
-3258.848713271375
 42
0.4142135623731
 10
-1678.217896424571
 20
-3257.348713271375
 42
0.4142135623731
 10
-1679.717896424571
 20
-3258.848713271375
 42
0.4142135623731
 10
-1678.217896424571
 20
-3260.348713271375
 42
0.4142135623731
  0
LINE
  5
2EF
330
1F
100
AcDbEntity
  8
0-B_寸法
  6
Continuous
 62
   120
370
     5
100
AcDbLine
 10
-1678.217896424571
 20
-3258.848713271375
 30
0.0
 11
-1678.217896424571
 21
-3186.848713271375
 31
0.0
  0
LINE
  5
2F0
330
1F
100
AcDbEntity
  8
0-B_寸法
  6
Continuous
 62
   120
370
     5
100
AcDbLine
 10
-1678.217896424571
 20
-558.8487132713985
 30
0.0
 11
-2518.217896424571
 21
-558.8487132713985
 31
0.0
  0
LWPOLYLINE
  5
2F1
330
1F
100
AcDbEntity
  8
0-B_寸法
  6
Continuous
 62
     7
370
     9
100
AcDbPolyline
 90
        4
 70
     1
 43
3.0
 10
-1886.717896424571
 20
-558.8487132713985
 42
0.4142135623731
 10
-1888.217896424571
 20
-557.3487132713984
 42
0.4142135623731
 10
-1889.717896424571
 20
-558.8487132713985
 42
0.4142135623731
 10
-1888.217896424571
 20
-560.3487132713985
 42
0.4142135623731
  0
LINE
  5
2F2
330
1F
100
AcDbEntity
  8
0-B_寸法
  6
Continuous
 62
   120
370
     5
100
AcDbLine
 10
-1888.217896424571
 20
-558.8487132713985
 30
0.0
 11
-1888.217896424571
 21
-738.8487132713989
 31
0.0
  0
LWPOLYLINE
  5
2F3
330
1F
100
AcDbEntity
  8
0-B_寸法
  6
Continuous
 62
     7
370
     9
100
AcDbPolyline
 90
        4
 70
     1
 43
3.0
 10
-1886.717896424571
 20
-738.8487132713989
 42
0.4142135623731
 10
-1888.217896424571
 20
-737.3487132713989
 42
0.4142135623731
 10
-1889.717896424571
 20
-738.8487132713989
 42
0.4142135623731
 10
-1888.217896424571
 20
-740.3487132713989
 42
0.4142135623731
  0
LINE
  5
2F4
330
1F
100
AcDbEntity
  8
0-B_寸法
  6
Continuous
 62
   120
370
     5
100
AcDbLine
 10
-1678.217896424571
 20
-3186.848713271375
 30
0.0
 11
-2518.217896424571
 21
-3186.848713271375
 31
0.0
  0
LWPOLYLINE
  5
2F5
330
1F
100
AcDbEntity
  8
0-B_寸法
  6
Continuous
 62
     7
370
     9
100
AcDbPolyline
 90
        4
 70
     1
 43
3.0
 10
-1886.717896424571
 20
-3186.848713271375
 42
0.4142135623731
 10
-1888.217896424571
 20
-3185.348713271375
 42
0.4142135623731
 10
-1889.717896424571
 20
-3186.848713271375
 42
0.4142135623731
 10
-1888.217896424571
 20
-3188.348713271375
 42
0.4142135623731
  0
LINE
  5
2F6
330
1F
100
AcDbEntity
  8
0-B_寸法
  6
Continuous
 62
   120
370
     5
100
AcDbLine
 10
-1888.217896424571
 20
-738.8487132713989
 30
0.0
 11
-2518.217896424571
 21
-738.8487132713989
 31
0.0
  0
LWPOLYLINE
  5
2F7
330
1F
100
AcDbEntity
  8
0-B_寸法
  6
Continuous
 62
     7
370
     9
100
AcDbPolyline
 90
        4
 70
     1
 43
3.0
 10
-2096.717896424571
 20
-738.8487132713989
 42
0.4142135623731
 10
-2098.217896424571
 20
-737.3487132713989
 42
0.4142135623731
 10
-2099.717896424571
 20
-738.8487132713989
 42
0.4142135623731
 10
-2098.217896424571
 20
-740.3487132713989
 42
0.4142135623731
  0
LINE
  5
2F8
330
1F
100
AcDbEntity
  8
0-B_寸法
  6
Continuous
 62
   120
370
     5
100
AcDbLine
 10
-1888.217896424571
 20
-3186.848713271375
 30
0.0
 11
-1888.217896424571
 21
-3168.848713271375
 31
0.0
  0
LINE
  5
2F9
330
1F
100
AcDbEntity
  8
0-B_寸法
  6
Continuous
 62
   120
370
     5
100
AcDbLine
 10
-1888.217896424571
 20
-3168.848713271375
 30
0.0
 11
-1888.217896424571
 21
-738.8487132713989
 31
0.0
  0
LINE
  5
2FA
330
1F
100
AcDbEntity
  8
0-C_ハッチ
  6
Continuous
 62
   120
370
     5
100
AcDbLine
 10
-3329.002757360298
 20
-735.8485070093175
 30
0.0
 11
-3152.002757360296
 21
-558.8485070093147
 31
0.0
  0
LINE
  5
2FB
330
1F
100
AcDbEntity
  8
0-C_ハッチ
  6
Continuous
 62
   120
370
     5
100
AcDbLine
 10
-3269.605787740661
 20
-735.8485070093175
 30
0.0
 11
-3180.617896424569
 21
-646.8606156932392
 31
0.0
  0
LINE
  5
2FC
330
1F
100
AcDbEntity
  8
0-C_ハッチ
  6
Continuous
 62
   120
370
     5
100
AcDbLine
 10
-3210.208818120949
 20
-735.8485070093175
 30
0.0
 11
-3180.617896424569
 21
-706.2575853129364
 31
0.0
  0
LINE
  5
2FD
330
1F
100
AcDbEntity
  8
0-C_ハッチ
  6
Continuous
 62
   120
370
     5
100
AcDbLine
 10
-3388.399726979928
 20
-735.8485070093175
 30
0.0
 11
-3211.399726979943
 21
-558.8485070093147
 31
0.0
  0
LINE
  5
2FE
330
1F
100
AcDbEntity
  8
0-C_ハッチ
  6
Continuous
 62
   120
370
     5
100
AcDbLine
 10
-3507.193666219305
 20
-735.8485070093311
 30
0.0
 11
-3330.193666219288
 21
-558.8485070093147
 31
0.0
  0
LINE
  5
2FF
330
1F
100
AcDbEntity
  8
0-C_ハッチ
  6
Continuous
 62
   120
370
     5
100
AcDbLine
 10
-3270.796696599648
 20
-558.8485070093079
 30
0.0
 11
-3447.796696599647
 21
-735.8485070093196
 31
0.0
  0
LINE
  5
300
330
1F
100
AcDbEntity
  8
0-4_枠
  6
Continuous
 62
    92
370
    13
100
AcDbLine
 10
-3180.617896424569
 20
-738.8485070093147
 30
0.0
 11
-3523.217896424571
 21
-738.8485070093147
 31
0.0
  0
LINE
  5
301
330
1F
100
AcDbEntity
  8
0-4_枠
  6
Continuous
 62
    92
370
    13
100
AcDbLine
 10
-3180.617896424569
 20
-735.8485070093175
 30
0.0
 11
-3520.218331300061
 21
-735.8485070093175
 31
0.0
  0
LINE
  5
302
330
1F
100
AcDbEntity
  8
0-6_扉
  6
Continuous
 62
   200
370
    20
100
AcDbLine
 10
-3184.217895871216
 20
-1224.276612326072
 30
0.0
 11
-3184.217895871216
 21
-1884.848507009309
 31
0.0
  0
LINE
  5
303
330
1F
100
AcDbEntity
  8
0-6_扉
  6
Continuous
 62
   200
370
    20
100
AcDbLine
 10
-3004.217895871216
 20
-819.8485063769081
 30
0.0
 11
-3004.217895871216
 21
-1884.848507009309
 31
0.0
  0
LINE
  5
304
330
1F
100
AcDbEntity
  8
0-6_扉
  6
Continuous
 62
   200
370
    20
100
AcDbLine
 10
-3004.217895871216
 20
-819.8485063769081
 30
0.0
 11
-3184.217895871216
 21
-819.8485063769081
 31
0.0
  0
LINE
  5
305
330
1F
100
AcDbEntity
  8
0-6_扉
  6
Continuous
 62
   200
370
    20
100
AcDbLine
 10
-3184.217895871216
 20
-819.8485063769081
 30
0.0
 11
-3184.217895871216
 21
-1134.705761789875
 31
0.0
  0
LINE
  5
306
330
1F
100
AcDbEntity
  8
0-7_金物
  6
Continuous
 62
     7
370
     9
100
AcDbLine
 10
-3112.217895317849
 20
-819.8485063769081
 30
0.0
 11
-3112.217895317849
 21
-788.6485060488452
 31
0.0
  0
LINE
  5
307
330
1F
100
AcDbEntity
  8
0-7_金物
  6
Continuous
 62
     7
370
     9
100
AcDbLine
 10
-3076.217895317855
 20
-788.6485060488452
 30
0.0
 11
-3076.217895317855
 21
-819.8485063769081
 31
0.0
  0
ARC
  5
308
330
1F
100
AcDbEntity
  8
0-7_金物
  6
Continuous
 62
     7
370
     9
100
AcDbCircle
 10
-3208.217895120233
 20
-849.248505649638
 30
0.0
 40
3.599999976284835
100
AcDbArc
 50
180.0
 51
0.0
  0
LINE
  5
309
330
1F
100
AcDbEntity
  8
0-7_金物
  6
Continuous
 62
     7
370
     9
100
AcDbLine
 10
-3204.617895143947
 20
-747.2485063215722
 30
0.0
 11
-3204.617895143947
 21
-849.248505649638
 31
0.0
  0
LINE
  5
30A
330
1F
100
AcDbEntity
  8
0-7_金物
  6
Continuous
 62
     7
370
     9
100
AcDbLine
 10
-3211.817895096519
 20
-849.248505649638
 30
0.0
 11
-3211.817895096519
 21
-740.048506369002
 31
0.0
  0
ARC
  5
30B
330
1F
100
AcDbEntity
  8
0-7_金物
  6
Continuous
 62
     7
370
     9
100
AcDbCircle
 10
-3203.417895151854
 20
-747.2485063215736
 30
0.0
 40
1.199999992095854
100
AcDbArc
 50
89.99999999993486
 51
179.9999999999349
  0
ARC
  5
30C
330
1F
100
AcDbEntity
  8
0-7_金物
  6
Continuous
 62
     7
370
     9
100
AcDbCircle
 10
-3210.617895104419
 20
-740.048506369002
 30
0.0
 40
1.199999992094489
100
AcDbArc
 50
89.99999999999997
 51
180.0
  0
LINE
  5
30D
330
1F
100
AcDbEntity
  8
0-7_金物
  6
Continuous
 62
     7
370
     9
100
AcDbLine
 10
-3178.217895317857
 20
-746.048506329477
 30
0.0
 11
-3203.417895151851
 21
-746.048506329477
 31
0.0
  0
LINE
  5
30E
330
1F
100
AcDbEntity
  8
0-7_金物
  6
Continuous
 62
     7
370
     9
100
AcDbLine
 10
-3210.617895104419
 20
-738.8485063769081
 30
0.0
 11
-3178.217895317857
 21
-738.8485063769081
 31
0.0
  0
LINE
  5
30F
330
1F
100
AcDbEntity
  8
0-7_金物
  6
Continuous
 62
     7
370
     9
100
AcDbLine
 10
-3178.217895317857
 20
-759.6430998470464
 30
0.0
 11
-3178.217895317857
 21
-746.048506329477
 31
0.0
  0
ARC
  5
310
330
1F
100
AcDbEntity
  8
0-7_金物
  6
Continuous
 62
     7
370
     9
100
AcDbCircle
 10
-3166.217895396912
 20
-759.6430998470464
 30
0.0
 40
11.99999992094837
100
AcDbArc
 50
179.9999999999987
 51
215.9505676196161
  0
ARC
  5
311
330
1F
100
AcDbEntity
  8
0-7_金物
  6
Continuous
 62
     7
370
     9
100
AcDbCircle
 10
-3145.817895531295
 20
-744.8485063373813
 30
0.0
 40
37.19999975494188
100
AcDbArc
 50
215.9505676196163
 51
293.8188413934565
  0
ARC
  5
312
330
1F
100
AcDbEntity
  8
0-7_金物
  6
Continuous
 62
     7
370
     9
100
AcDbCircle
 10
-3133.2178956143
 20
-773.391105890795
 30
0.0
 40
5.999999960474696
100
AcDbArc
 50
293.8188413934587
 51
0.0000000000009542
  0
LINE
  5
313
330
1F
100
AcDbEntity
  8
0-7_金物
  6
Continuous
 62
     7
370
     9
100
AcDbLine
 10
-3127.217895653828
 20
-771.8485061595168
 30
0.0
 11
-3127.217895653828
 21
-773.391105890795
 31
0.0
  0
ARC
  5
314
330
1F
100
AcDbEntity
  8
0-7_金物
  6
Continuous
 62
     7
370
     9
100
AcDbCircle
 10
-3129.017895641968
 20
-771.8485061595168
 30
0.0
 40
1.799999988141737
100
AcDbArc
 50
359.9999999999994
 51
121.8907918018427
  0
ARC
  5
315
330
1F
100
AcDbEntity
  8
0-7_金物
  6
Continuous
 62
     7
370
     9
100
AcDbCircle
 10
-3145.817895531295
 20
-744.8485063373813
 30
0.0
 40
29.99999980237392
100
AcDbArc
 50
213.9231120032609
 51
301.8907918018446
  0
ARC
  5
316
330
1F
100
AcDbEntity
  8
0-7_金物
  6
Continuous
 62
     7
370
     9
100
AcDbCircle
 10
-3169.217895377145
 20
-760.5863586920339
 30
0.0
 40
1.799999988143631
100
AcDbArc
 50
179.9999999999944
 51
213.923112003254
  0
LINE
  5
317
330
1F
100
AcDbEntity
  8
0-7_金物
  6
Continuous
 62
     7
370
     9
100
AcDbLine
 10
-3171.017895365292
 20
-675.8485067919235
 30
0.0
 11
-3171.017895365292
 21
-760.5863586920317
 31
0.0
  0
ARC
  5
318
330
1F
100
AcDbEntity
  8
0-7_金物
  6
Continuous
 62
     7
370
     9
100
AcDbCircle
 10
-3159.01789544434
 20
-675.8485067919235
 30
0.0
 40
11.99999992094899
100
AcDbArc
 50
90.0
 51
180.0
  0
LINE
  5
319
330
1F
100
AcDbEntity
  8
0-7_金物
  6
Continuous
 62
     7
370
     9
100
AcDbLine
 10
-3123.917895675563
 20
-663.8485068709759
 30
0.0
 11
-3159.01789544434
 21
-663.8485068709759
 31
0.0
  0
ARC
  5
31A
330
1F
100
AcDbEntity
  8
0-7_金物
  6
Continuous
 62
     7
370
     9
100
AcDbCircle
 10
-3123.917895675563
 20
-662.0485068828341
 30
0.0
 40
1.799999988141394
100
AcDbArc
 50
269.9999999999891
 51
359.9999999999891
  0
LINE
  5
31B
330
1F
100
AcDbEntity
  8
0-7_金物
  6
Continuous
 62
     7
370
     9
100
AcDbLine
 10
-3122.11789568742
 20
-653.6485069381686
 30
0.0
 11
-3122.11789568742
 21
-662.0485068828341
 31
0.0
  0
ARC
  5
31C
330
1F
100
AcDbEntity
  8
0-7_金物
  6
Continuous
 62
     7
370
     9
100
AcDbCircle
 10
-3120.317895699277
 20
-653.6485069381686
 30
0.0
 40
1.799999988142416
100
AcDbArc
 50
89.99999999997829
 51
179.9999999999783
  0
LINE
  5
31D
330
1F
100
AcDbEntity
  8
0-7_金物
  6
Continuous
 62
     7
370
     9
100
AcDbLine
 10
-3096.017895859359
 20
-651.8485069500268
 30
0.0
 11
-3120.317895699277
 21
-651.8485069500268
 31
0.0
  0
LINE
  5
31E
330
1F
100
AcDbEntity
  8
0-7_金物
  6
Continuous
 62
     7
370
     9
100
AcDbLine
 10
-3094.217895871216
 20
-650.0485069618837
 30
0.0
 11
-3096.017895859359
 21
-651.8485069500268
 31
0.0
  0
LINE
  5
31F
330
1F
100
AcDbEntity
  8
0-7_金物
  6
Continuous
 62
     7
370
     9
100
AcDbLine
 10
-3092.417895883073
 20
-651.8485069500268
 30
0.0
 11
-3094.217895871216
 21
-650.0485069618837
 31
0.0
  0
LINE
  5
320
330
1F
100
AcDbEntity
  8
0-7_金物
  6
Continuous
 62
     7
370
     9
100
AcDbLine
 10
-3068.117896043154
 20
-651.8485069500268
 30
0.0
 11
-3092.417895883073
 21
-651.8485069500268
 31
0.0
  0
ARC
  5
321
330
1F
100
AcDbEntity
  8
0-7_金物
  6
Continuous
 62
     7
370
     9
100
AcDbCircle
 10
-3068.117896043154
 20
-653.6485069381686
 30
0.0
 40
1.799999988142416
100
AcDbArc
 50
0.0000000000217168
 51
90.00000000002173
  0
LINE
  5
322
330
1F
100
AcDbEntity
  8
0-7_金物
  6
Continuous
 62
     7
370
     9
100
AcDbLine
 10
-3066.317896055011
 20
-662.0485068828341
 30
0.0
 11
-3066.317896055011
 21
-653.6485069381686
 31
0.0
  0
ARC
  5
323
330
1F
100
AcDbEntity
  8
0-7_金物
  6
Continuous
 62
     7
370
     9
100
AcDbCircle
 10
-3064.517896066868
 20
-662.0485068828328
 30
0.0
 40
1.799999988142076
100
AcDbArc
 50
180.0000000000326
 51
270.0000000000326
  0
LINE
  5
324
330
1F
100
AcDbEntity
  8
0-7_金物
  6
Continuous
 62
     7
370
     9
100
AcDbLine
 10
-3029.417896298091
 20
-663.8485068709759
 30
0.0
 11
-3064.517896066868
 21
-663.8485068709759
 31
0.0
  0
ARC
  5
325
330
1F
100
AcDbEntity
  8
0-7_金物
  6
Continuous
 62
     7
370
     9
100
AcDbCircle
 10
-3029.417896298091
 20
-675.8485067919235
 30
0.0
 40
11.99999992094899
100
AcDbArc
 50
0.0
 51
90.00000000000001
  0
LINE
  5
326
330
1F
100
AcDbEntity
  8
0-7_金物
  6
Continuous
 62
     7
370
     9
100
AcDbLine
 10
-3017.41789637714
 20
-760.5863586920317
 30
0.0
 11
-3017.41789637714
 21
-675.8485067919235
 31
0.0
  0
ARC
  5
327
330
1F
100
AcDbEntity
  8
0-7_金物
  6
Continuous
 62
     7
370
     9
100
AcDbCircle
 10
-3019.217896365283
 20
-760.5863586920304
 30
0.0
 40
1.799999988144312
100
AcDbArc
 50
326.0768879966748
 51
359.9999999999343
  0
ARC
  5
328
330
1F
100
AcDbEntity
  8
0-7_金物
  6
Continuous
 62
     7
370
     9
100
AcDbCircle
 10
-3042.617896211136
 20
-744.8485063373826
 30
0.0
 40
29.99999980237201
100
AcDbArc
 50
238.1092081981562
 51
326.07688799674
  0
ARC
  5
329
330
1F
100
AcDbEntity
  8
0-7_金物
  6
Continuous
 62
     7
370
     9
100
AcDbCircle
 10
-3059.41789610046
 20
-771.8485061595188
 30
0.0
 40
1.799999988143101
100
AcDbArc
 50
58.10920819813321
 51
179.9999999999765
  0
LINE
  5
32A
330
1F
100
AcDbEntity
  8
0-7_金物
  6
Continuous
 62
     7
370
     9
100
AcDbLine
 10
-3061.217896088604
 20
-773.391105890795
 30
0.0
 11
-3061.217896088604
 21
-771.8485061595168
 31
0.0
  0
ARC
  5
32B
330
1F
100
AcDbEntity
  8
0-7_金物
  6
Continuous
 62
     7
370
     9
100
AcDbCircle
 10
-3055.217896128131
 20
-773.391105890795
 30
0.0
 40
5.999999960474696
100
AcDbArc
 50
179.9999999999991
 51
246.1811586065413
  0
ARC
  5
32C
330
1F
100
AcDbEntity
  8
0-7_金物
  6
Continuous
 62
     7
370
     9
100
AcDbCircle
 10
-3042.617896211136
 20
-744.8485063373826
 30
0.0
 40
37.19999975494105
100
AcDbArc
 50
246.1811586065432
 51
324.0494323803861
  0
ARC
  5
32D
330
1F
100
AcDbEntity
  8
0-7_金物
  6
Continuous
 62
     7
370
     9
100
AcDbCircle
 10
-3022.217896345519
 20
-759.6430998470464
 30
0.0
 40
11.99999992094679
100
AcDbArc
 50
324.0494323803814
 51
359.9999999999989
  0
LINE
  5
32E
330
1F
100
AcDbEntity
  8
0-7_金物
  6
Continuous
 62
     7
370
     9
100
AcDbLine
 10
-3010.217896424574
 20
-746.048506329477
 30
0.0
 11
-3010.217896424574
 21
-759.6430998470464
 31
0.0
  0
LINE
  5
32F
330
1F
100
AcDbEntity
  8
0-7_金物
  6
Continuous
 62
     7
370
     9
100
AcDbLine
 10
-3001.817896479909
 20
-746.048506329477
 30
0.0
 11
-3010.217896424574
 21
-746.048506329477
 31
0.0
  0
ARC
  5
330
330
1F
100
AcDbEntity
  8
0-7_金物
  6
Continuous
 62
     7
370
     9
100
AcDbCircle
 10
-3001.817896479909
 20
-742.4485063531929
 30
0.0
 40
3.599999976284494
100
AcDbArc
 50
270.0
 51
90.0
  0
LINE
  5
331
330
1F
100
AcDbEntity
  8
0-7_金物
  6
Continuous
 62
     7
370
     9
100
AcDbLine
 10
-3010.217896424574
 20
-738.8485063769081
 30
0.0
 11
-3001.817896479909
 21
-738.8485063769081
 31
0.0
  0
LINE
  5
332
330
1F
100
AcDbEntity
  8
0-7_金物
  6
Continuous
 62
     7
370
     9
100
AcDbLine
 10
-3010.217896424574
 20
-645.848506989553
 30
0.0
 11
-3010.217896424574
 21
-738.8485063769081
 31
0.0
  0
ARC
  5
333
330
1F
100
AcDbEntity
  8
0-7_金物
  6
Continuous
 62
     7
370
     9
100
AcDbCircle
 10
-3013.21789640481
 20
-645.848506989553
 30
0.0
 40
2.999999980237589
100
AcDbArc
 50
0.0
 51
90.0
  0
LINE
  5
334
330
1F
100
AcDbEntity
  8
0-7_金物
  6
Continuous
 62
     7
370
     9
100
AcDbLine
 10
-3014.417896396903
 20
-642.8485070093155
 30
0.0
 11
-3013.21789640481
 21
-642.8485070093155
 31
0.0
  0
ARC
  5
335
330
1F
100
AcDbEntity
  8
0-7_金物
  6
Continuous
 62
     7
370
     9
100
AcDbCircle
 10
-3014.417896396903
 20
-645.8485069895518
 30
0.0
 40
2.999999980236907
100
AcDbArc
 50
90.00000000001303
 51
180.000000000013
  0
LINE
  5
336
330
1F
100
AcDbEntity
  8
0-7_金物
  6
Continuous
 62
     7
370
     9
100
AcDbLine
 10
-3017.41789637714
 20
-651.8485069500268
 30
0.0
 11
-3017.41789637714
 21
-645.848506989553
 31
0.0
  0
ARC
  5
337
330
1F
100
AcDbEntity
  8
0-7_金物
  6
Continuous
 62
     7
370
     9
100
AcDbCircle
 10
-3020.417896357376
 20
-651.8485069500268
 30
0.0
 40
2.999999980237248
100
AcDbArc
 50
269.9999999999935
 51
359.9999999999935
  0
LINE
  5
338
330
1F
100
AcDbEntity
  8
0-7_金物
  6
Continuous
 62
     7
370
     9
100
AcDbLine
 10
-3054.31789613406
 20
-654.848506930263
 30
0.0
 11
-3020.417896357376
 21
-654.848506930263
 31
0.0
  0
ARC
  5
339
330
1F
100
AcDbEntity
  8
0-7_金物
  6
Continuous
 62
     7
370
     9
100
AcDbCircle
 10
-3054.31789613406
 20
-651.8485069500268
 30
0.0
 40
2.999999980236565
100
AcDbArc
 50
179.9999999999935
 51
269.9999999999935
  0
LINE
  5
33A
330
1F
100
AcDbEntity
  8
0-7_金物
  6
Continuous
 62
     7
370
     9
100
AcDbLine
 10
-3057.317896114296
 20
-645.848506989553
 30
0.0
 11
-3057.317896114296
 21
-651.8485069500268
 31
0.0
  0
ARC
  5
33B
330
1F
100
AcDbEntity
  8
0-7_金物
  6
Continuous
 62
     7
370
     9
100
AcDbCircle
 10
-3060.317896094532
 20
-645.848506989553
 30
0.0
 40
2.999999980237589
100
AcDbArc
 50
0.0
 51
90.0
  0
LINE
  5
33C
330
1F
100
AcDbEntity
  8
0-7_金物
  6
Continuous
 62
     7
370
     9
100
AcDbLine
 10
-3128.117895647899
 20
-642.8485070093155
 30
0.0
 11
-3060.317896094532
 21
-642.8485070093155
 31
0.0
  0
ARC
  5
33D
330
1F
100
AcDbEntity
  8
0-7_金物
  6
Continuous
 62
     7
370
     9
100
AcDbCircle
 10
-3128.117895647899
 20
-645.848506989553
 30
0.0
 40
2.999999980237589
100
AcDbArc
 50
89.99999999999997
 51
180.0
  0
LINE
  5
33E
330
1F
100
AcDbEntity
  8
0-7_金物
  6
Continuous
 62
     7
370
     9
100
AcDbLine
 10
-3131.117895628136
 20
-651.8485069500268
 30
0.0
 11
-3131.117895628136
 21
-645.848506989553
 31
0.0
  0
ARC
  5
33F
330
1F
100
AcDbEntity
  8
0-7_金物
  6
Continuous
 62
     7
370
     9
100
AcDbCircle
 10
-3134.117895608372
 20
-651.8485069500268
 30
0.0
 40
2.999999980236565
100
AcDbArc
 50
270.0000000000065
 51
0.0000000000065138
  0
LINE
  5
340
330
1F
100
AcDbEntity
  8
0-7_金物
  6
Continuous
 62
     7
370
     9
100
AcDbLine
 10
-3168.017895385055
 20
-654.848506930263
 30
0.0
 11
-3134.117895608372
 21
-654.848506930263
 31
0.0
  0
ARC
  5
341
330
1F
100
AcDbEntity
  8
0-7_金物
  6
Continuous
 62
     7
370
     9
100
AcDbCircle
 10
-3168.017895385055
 20
-651.8485069500268
 30
0.0
 40
2.999999980237248
100
AcDbArc
 50
180.0000000000066
 51
270.0000000000065
  0
LINE
  5
342
330
1F
100
AcDbEntity
  8
0-7_金物
  6
Continuous
 62
     7
370
     9
100
AcDbLine
 10
-3171.017895365292
 20
-645.848506989553
 30
0.0
 11
-3171.017895365292
 21
-651.8485069500268
 31
0.0
  0
ARC
  5
343
330
1F
100
AcDbEntity
  8
0-7_金物
  6
Continuous
 62
     7
370
     9
100
AcDbCircle
 10
-3174.017895345528
 20
-645.8485069895518
 30
0.0
 40
2.999999980236907
100
AcDbArc
 50
359.999999999987
 51
89.99999999998697
  0
LINE
  5
344
330
1F
100
AcDbEntity
  8
0-7_金物
  6
Continuous
 62
     7
370
     9
100
AcDbLine
 10
-3175.217895337621
 20
-642.8485070093155
 30
0.0
 11
-3174.017895345528
 21
-642.8485070093155
 31
0.0
  0
ARC
  5
345
330
1F
100
AcDbEntity
  8
0-7_金物
  6
Continuous
 62
     7
370
     9
100
AcDbCircle
 10
-3175.217895337621
 20
-645.848506989553
 30
0.0
 40
2.999999980237589
100
AcDbArc
 50
89.99999999999997
 51
180.0
  0
LINE
  5
346
330
1F
100
AcDbEntity
  8
0-7_金物
  6
Continuous
 62
     7
370
     9
100
AcDbLine
 10
-3178.217895317857
 20
-738.8485063769081
 30
0.0
 11
-3178.217895317857
 21
-645.848506989553
 31
0.0
  0
LINE
  5
347
330
1F
100
AcDbEntity
  8
0-7_金物
  6
Continuous
 62
     7
370
     9
100
AcDbLine
 10
-3094.217895871216
 20
-780.8485061002284
 30
0.0
 11
-3115.217895732876
 21
-780.8485061002284
 31
0.0
  0
ARC
  5
348
330
1F
100
AcDbEntity
  8
0-7_金物
  6
Continuous
 62
     7
370
     9
100
AcDbCircle
 10
-3115.217895732876
 20
-774.848506139755
 30
0.0
 40
5.999999960474506
100
AcDbArc
 50
180.0
 51
270.0
  0
ARC
  5
349
330
1F
100
AcDbEntity
  8
0-7_金物
  6
Continuous
 62
     7
370
     9
100
AcDbCircle
 10
-3133.217895614293
 20
-774.848506139756
 30
0.0
 40
11.99999992094901
100
AcDbArc
 50
0.0
 51
63.25631604961301
  0
LINE
  5
34A
330
1F
100
AcDbEntity
  8
0-7_金物
  6
Continuous
 62
     7
370
     9
100
AcDbLine
 10
-3127.817895649871
 20
-672.8485068116859
 30
0.0
 11
-3127.817895649871
 21
-720.8485064954847
 31
0.0
  0
ARC
  5
34B
330
1F
100
AcDbEntity
  8
0-7_金物
  6
Continuous
 62
     7
370
     9
100
AcDbCircle
 10
-3145.817895531295
 20
-696.8485066535873
 30
0.0
 40
29.99999980237253
100
AcDbArc
 50
53.13010235415425
 51
126.8698976458457
  0
ARC
  5
34C
330
1F
100
AcDbEntity
  8
0-7_金物
  6
Continuous
 62
     7
370
     9
100
AcDbCircle
 10
-3145.817895531295
 20
-744.8485063373826
 30
0.0
 40
29.99999980237253
100
AcDbArc
 50
233.1301023541541
 51
306.8698976458458
  0
LINE
  5
34D
330
1F
100
AcDbEntity
  8
0-7_金物
  6
Continuous
 62
     7
370
     9
100
AcDbLine
 10
-3124.817895669635
 20
-698.048506645679
 30
0.0
 11
-3126.017895661728
 21
-696.8485066535873
 31
0.0
  0
LINE
  5
34E
330
1F
100
AcDbEntity
  8
0-7_金物
  6
Continuous
 62
     7
370
     9
100
AcDbLine
 10
-3124.817895669635
 20
-743.6485063452874
 30
0.0
 11
-3126.017895661728
 21
-744.8485063373826
 31
0.0
  0
LINE
  5
34F
330
1F
100
AcDbEntity
  8
0-7_金物
  6
Continuous
 62
     7
370
     9
100
AcDbLine
 10
-3127.817895649871
 20
-705.8485065942967
 30
0.0
 11
-3124.817895669635
 21
-705.8485065942967
 31
0.0
  0
LINE
  5
350
330
1F
100
AcDbEntity
  8
0-7_金物
  6
Continuous
 62
     7
370
     9
100
AcDbLine
 10
-3127.817895649871
 20
-735.8485063966705
 30
0.0
 11
-3124.817895669635
 21
-735.8485063966705
 31
0.0
  0
LINE
  5
351
330
1F
100
AcDbEntity
  8
0-7_金物
  6
Continuous
 62
     7
370
     9
100
AcDbLine
 10
-3126.017895661728
 20
-705.8485065942967
 30
0.0
 11
-3124.817895669635
 21
-704.6485066022015
 31
0.0
  0
LINE
  5
352
330
1F
100
AcDbEntity
  8
0-7_金物
  6
Continuous
 62
     7
370
     9
100
AcDbLine
 10
-3124.817895669635
 20
-737.048506388765
 30
0.0
 11
-3126.017895661728
 21
-735.8485063966705
 31
0.0
  0
LINE
  5
353
330
1F
100
AcDbEntity
  8
0-7_金物
  6
Continuous
 62
     7
370
     9
100
AcDbLine
 10
-3127.817895649871
 20
-696.8485066535873
 30
0.0
 11
-3126.017895661728
 21
-696.8485066535873
 31
0.0
  0
LINE
  5
354
330
1F
100
AcDbEntity
  8
0-7_金物
  6
Continuous
 62
     7
370
     9
100
AcDbLine
 10
-3127.817895649871
 20
-744.8485063373826
 30
0.0
 11
-3126.017895661728
 21
-744.8485063373826
 31
0.0
  0
LINE
  5
355
330
1F
100
AcDbEntity
  8
0-7_金物
  6
Continuous
 62
     7
370
     9
100
AcDbLine
 10
-3127.817895649871
 20
-720.8485064954839
 30
0.0
 11
-3127.817895649871
 21
-768.8485061792805
 31
0.0
  0
LINE
  5
356
330
1F
100
AcDbEntity
  8
0-7_金物
  6
Continuous
 62
     7
370
     9
100
AcDbLine
 10
-3112.21789575264
 20
-780.8485061002284
 30
0.0
 11
-3112.21789575264
 21
-782.6485060883706
 31
0.0
  0
LINE
  5
357
330
1F
100
AcDbEntity
  8
0-7_金物
  6
Continuous
 62
     7
370
     9
100
AcDbLine
 10
-3115.217895732876
 20
-687.8485067128738
 30
0.0
 11
-3094.217895871216
 21
-687.8485067128738
 31
0.0
  0
ARC
  5
358
330
1F
100
AcDbEntity
  8
0-7_金物
  6
Continuous
 62
     7
370
     9
100
AcDbCircle
 10
-3124.217895673585
 20
-747.8485063176201
 30
0.0
 40
2.999999980237253
100
AcDbArc
 50
0.0
 51
90.0
  0
ARC
  5
359
330
1F
100
AcDbEntity
  8
0-7_金物
  6
Continuous
 62
     7
370
     9
100
AcDbCircle
 10
-3124.217895673585
 20
-693.8485066733497
 30
0.0
 40
2.999999980237253
100
AcDbArc
 50
270.0
 51
0.0
  0
LINE
  5
35A
330
1F
100
AcDbEntity
  8
0-7_金物
  6
Continuous
 62
     7
370
     9
100
AcDbLine
 10
-3163.817895412719
 20
-768.8485061792805
 30
0.0
 11
-3163.817895412719
 21
-672.8485068116872
 31
0.0
  0
LINE
  5
35B
330
1F
100
AcDbEntity
  8
0-7_金物
  6
Continuous
 62
     7
370
     9
100
AcDbLine
 10
-3124.217895673585
 20
-696.8485066535873
 30
0.0
 11
-3124.817895669635
 21
-696.8485066535873
 31
0.0
  0
LINE
  5
35C
330
1F
100
AcDbEntity
  8
0-7_金物
  6
Continuous
 62
     7
370
     9
100
AcDbLine
 10
-3124.217895673585
 20
-744.8485063373826
 30
0.0
 11
-3124.817895669635
 21
-744.8485063373826
 31
0.0
  0
LINE
  5
35D
330
1F
100
AcDbEntity
  8
0-7_金物
  6
Continuous
 62
     7
370
     9
100
AcDbLine
 10
-3121.217895693349
 20
-756.8485062583318
 30
0.0
 11
-3121.217895693349
 21
-747.8485063176201
 31
0.0
  0
LINE
  5
35E
330
1F
100
AcDbEntity
  8
0-7_金物
  6
Continuous
 62
     7
370
     9
100
AcDbLine
 10
-3115.217895732876
 20
-762.8485062188042
 30
0.0
 11
-3094.217895871216
 21
-762.8485062188042
 31
0.0
  0
ARC
  5
35F
330
1F
100
AcDbEntity
  8
0-7_金物
  6
Continuous
 62
     7
370
     9
100
AcDbCircle
 10
-3115.217895732876
 20
-756.8485062583318
 30
0.0
 40
5.999999960474506
100
AcDbArc
 50
180.0
 51
270.0
  0
ARC
  5
360
330
1F
100
AcDbEntity
  8
0-7_金物
  6
Continuous
 62
     7
370
     9
100
AcDbCircle
 10
-3115.217895732876
 20
-693.8485066733497
 30
0.0
 40
5.999999960474506
100
AcDbArc
 50
90.0
 51
180.0
  0
LINE
  5
361
330
1F
100
AcDbEntity
  8
0-7_金物
  6
Continuous
 62
     7
370
     9
100
AcDbLine
 10
-3124.817895669635
 20
-696.8485066535873
 30
0.0
 11
-3124.817895669635
 21
-720.8485064954847
 31
0.0
  0
LINE
  5
362
330
1F
100
AcDbEntity
  8
0-7_金物
  6
Continuous
 62
     7
370
     9
100
AcDbLine
 10
-3124.817895669635
 20
-744.8485063373826
 30
0.0
 11
-3124.817895669635
 21
-720.8485064954839
 31
0.0
  0
LINE
  5
363
330
1F
100
AcDbEntity
  8
0-7_金物
  6
Continuous
 62
     7
370
     9
100
AcDbLine
 10
-3094.217895871216
 20
-780.8485061002284
 30
0.0
 11
-3073.217896009555
 21
-780.8485061002284
 31
0.0
  0
ARC
  5
364
330
1F
100
AcDbEntity
  8
0-7_金物
  6
Continuous
 62
     7
370
     9
100
AcDbCircle
 10
-3073.217896009555
 20
-774.848506139755
 30
0.0
 40
5.999999960474506
100
AcDbArc
 50
270.0
 51
0.0
  0
ARC
  5
365
330
1F
100
AcDbEntity
  8
0-7_金物
  6
Continuous
 62
     7
370
     9
100
AcDbCircle
 10
-3055.217896128131
 20
-774.848506139756
 30
0.0
 40
11.99999992094901
100
AcDbArc
 50
116.743683950387
 51
180.0
  0
LINE
  5
366
330
1F
100
AcDbEntity
  8
0-7_金物
  6
Continuous
 62
     7
370
     9
100
AcDbLine
 10
-3060.617896092554
 20
-672.8485068116859
 30
0.0
 11
-3060.617896092554
 21
-720.8485064954847
 31
0.0
  0
ARC
  5
367
330
1F
100
AcDbEntity
  8
0-7_金物
  6
Continuous
 62
     7
370
     9
100
AcDbCircle
 10
-3042.617896211129
 20
-696.8485066535873
 30
0.0
 40
29.99999980237253
100
AcDbArc
 50
53.13010235415425
 51
126.8698976458457
  0
ARC
  5
368
330
1F
100
AcDbEntity
  8
0-7_金物
  6
Continuous
 62
     7
370
     9
100
AcDbCircle
 10
-3042.617896211129
 20
-744.8485063373826
 30
0.0
 40
29.99999980237253
100
AcDbArc
 50
233.1301023541541
 51
306.8698976458458
  0
LINE
  5
369
330
1F
100
AcDbEntity
  8
0-7_金物
  6
Continuous
 62
     7
370
     9
100
AcDbLine
 10
-3063.61789607279
 20
-698.048506645679
 30
0.0
 11
-3062.417896080697
 21
-696.8485066535873
 31
0.0
  0
LINE
  5
36A
330
1F
100
AcDbEntity
  8
0-7_金物
  6
Continuous
 62
     7
370
     9
100
AcDbLine
 10
-3063.61789607279
 20
-743.6485063452874
 30
0.0
 11
-3062.417896080697
 21
-744.8485063373826
 31
0.0
  0
LINE
  5
36B
330
1F
100
AcDbEntity
  8
0-7_金物
  6
Continuous
 62
     7
370
     9
100
AcDbLine
 10
-3060.617896092554
 20
-705.8485065942967
 30
0.0
 11
-3063.61789607279
 21
-705.8485065942967
 31
0.0
  0
LINE
  5
36C
330
1F
100
AcDbEntity
  8
0-7_金物
  6
Continuous
 62
     7
370
     9
100
AcDbLine
 10
-3060.617896092554
 20
-735.8485063966705
 30
0.0
 11
-3063.617896072797
 21
-735.8485063966705
 31
0.0
  0
LINE
  5
36D
330
1F
100
AcDbEntity
  8
0-7_金物
  6
Continuous
 62
     7
370
     9
100
AcDbLine
 10
-3062.417896080697
 20
-705.8485065942967
 30
0.0
 11
-3063.61789607279
 21
-704.6485066022015
 31
0.0
  0
LINE
  5
36E
330
1F
100
AcDbEntity
  8
0-7_金物
  6
Continuous
 62
     7
370
     9
100
AcDbLine
 10
-3063.61789607279
 20
-737.048506388765
 30
0.0
 11
-3062.417896080697
 21
-735.8485063966705
 31
0.0
  0
LINE
  5
36F
330
1F
100
AcDbEntity
  8
0-7_金物
  6
Continuous
 62
     7
370
     9
100
AcDbLine
 10
-3060.617896092554
 20
-696.8485066535873
 30
0.0
 11
-3062.417896080697
 21
-696.8485066535873
 31
0.0
  0
LINE
  5
370
330
1F
100
AcDbEntity
  8
0-7_金物
  6
Continuous
 62
     7
370
     9
100
AcDbLine
 10
-3060.617896092554
 20
-744.8485063373826
 30
0.0
 11
-3062.417896080697
 21
-744.8485063373826
 31
0.0
  0
LINE
  5
371
330
1F
100
AcDbEntity
  8
0-7_金物
  6
Continuous
 62
     7
370
     9
100
AcDbLine
 10
-3060.617896092554
 20
-720.8485064954839
 30
0.0
 11
-3060.617896092554
 21
-768.8485061792805
 31
0.0
  0
LINE
  5
372
330
1F
100
AcDbEntity
  8
0-7_金物
  6
Continuous
 62
     7
370
     9
100
AcDbLine
 10
-3076.217895989791
 20
-780.8485061002284
 30
0.0
 11
-3076.217895989791
 21
-782.6485060883706
 31
0.0
  0
LINE
  5
373
330
1F
100
AcDbEntity
  8
0-7_金物
  6
Continuous
 62
     7
370
     9
100
AcDbLine
 10
-3073.217896009555
 20
-687.8485067128738
 30
0.0
 11
-3094.217895871216
 21
-687.8485067128738
 31
0.0
  0
ARC
  5
374
330
1F
100
AcDbEntity
  8
0-7_金物
  6
Continuous
 62
     7
370
     9
100
AcDbCircle
 10
-3064.21789606884
 20
-747.8485063176201
 30
0.0
 40
2.999999980237253
100
AcDbArc
 50
90.0
 51
180.0
  0
ARC
  5
375
330
1F
100
AcDbEntity
  8
0-7_金物
  6
Continuous
 62
     7
370
     9
100
AcDbCircle
 10
-3064.21789606884
 20
-693.8485066733497
 30
0.0
 40
2.999999980237253
100
AcDbArc
 50
180.0
 51
270.0
  0
LINE
  5
376
330
1F
100
AcDbEntity
  8
0-7_金物
  6
Continuous
 62
     7
370
     9
100
AcDbLine
 10
-3024.617896329705
 20
-768.8485061792805
 30
0.0
 11
-3024.617896329705
 21
-672.8485068116872
 31
0.0
  0
LINE
  5
377
330
1F
100
AcDbEntity
  8
0-7_金物
  6
Continuous
 62
     7
370
     9
100
AcDbLine
 10
-3064.21789606884
 20
-696.8485066535873
 30
0.0
 11
-3063.617896072797
 21
-696.8485066535873
 31
0.0
  0
LINE
  5
378
330
1F
100
AcDbEntity
  8
0-7_金物
  6
Continuous
 62
     7
370
     9
100
AcDbLine
 10
-3064.21789606884
 20
-744.8485063373826
 30
0.0
 11
-3063.617896072797
 21
-744.8485063373826
 31
0.0
  0
LINE
  5
379
330
1F
100
AcDbEntity
  8
0-7_金物
  6
Continuous
 62
     7
370
     9
100
AcDbLine
 10
-3067.217896049076
 20
-756.8485062583318
 30
0.0
 11
-3067.217896049076
 21
-747.8485063176201
 31
0.0
  0
LINE
  5
37A
330
1F
100
AcDbEntity
  8
0-7_金物
  6
Continuous
 62
     7
370
     9
100
AcDbLine
 10
-3073.217896009555
 20
-762.8485062188042
 30
0.0
 11
-3094.217895871216
 21
-762.8485062188042
 31
0.0
  0
ARC
  5
37B
330
1F
100
AcDbEntity
  8
0-7_金物
  6
Continuous
 62
     7
370
     9
100
AcDbCircle
 10
-3073.217896009555
 20
-756.8485062583318
 30
0.0
 40
5.999999960474506
100
AcDbArc
 50
270.0
 51
0.0
  0
ARC
  5
37C
330
1F
100
AcDbEntity
  8
0-7_金物
  6
Continuous
 62
     7
370
     9
100
AcDbCircle
 10
-3073.217896009555
 20
-693.8485066733497
 30
0.0
 40
5.999999960474506
100
AcDbArc
 50
0.0
 51
90.0
  0
LINE
  5
37D
330
1F
100
AcDbEntity
  8
0-7_金物
  6
Continuous
 62
     7
370
     9
100
AcDbLine
 10
-3063.617896072797
 20
-696.8485066535873
 30
0.0
 11
-3063.617896072797
 21
-720.8485064954847
 31
0.0
  0
LINE
  5
37E
330
1F
100
AcDbEntity
  8
0-7_金物
  6
Continuous
 62
     7
370
     9
100
AcDbLine
 10
-3063.617896072797
 20
-744.8485063373826
 30
0.0
 11
-3063.617896072797
 21
-720.8485064954839
 31
0.0
  0
LINE
  5
37F
330
1F
100
AcDbEntity
  8
0-7_金物
  6
Continuous
 62
     7
370
     9
100
AcDbLine
 10
-3118.217895713112
 20
-788.6485060488452
 30
0.0
 11
-3070.217896029316
 21
-788.6485060488452
 31
0.0
  0
LINE
  5
380
330
1F
100
AcDbEntity
  8
0-7_金物
  6
Continuous
 62
     7
370
     9
100
AcDbLine
 10
-3070.217896029316
 20
-782.6485060883706
 30
0.0
 11
-3070.217896029316
 21
-788.6485060488452
 31
0.0
  0
LINE
  5
381
330
1F
100
AcDbEntity
  8
0-7_金物
  6
Continuous
 62
     7
370
     9
100
AcDbLine
 10
-3070.217896029316
 20
-782.6485060883706
 30
0.0
 11
-3118.217895713112
 21
-782.6485060883706
 31
0.0
  0
LINE
  5
382
330
1F
100
AcDbEntity
  8
0-7_金物
  6
Continuous
 62
     7
370
     9
100
AcDbLine
 10
-3118.217895713112
 20
-782.6485060883706
 30
0.0
 11
-3118.217895713112
 21
-788.6485060488452
 31
0.0
  0
LINE
  5
383
330
1F
100
AcDbEntity
  8
0-7_金物
  6
Continuous
 62
     7
370
     9
100
AcDbLine
 10
-3141.357221783573
 20
-819.8485063769081
 30
0.0
 11
-3046.557222408076
 21
-819.8485063769081
 31
0.0
  0
ARC
  5
384
330
1F
100
AcDbEntity
  8
0-7_金物
  6
Continuous
 62
     7
370
     9
100
AcDbCircle
 10
-3094.213020387183
 20
-879.8485059816544
 30
0.0
 40
38.39999974703684
100
AcDbArc
 50
341.7900431357177
 51
12.17573410274985
  0
ARC
  5
385
330
1F
100
AcDbEntity
  8
0-7_金物
  6
Continuous
 62
     7
370
     9
100
AcDbCircle
 10
-3094.213020387183
 20
-879.8485059816544
 30
0.0
 40
38.39999974703684
100
AcDbArc
 50
167.8242658972536
 51
198.2099568642824
  0
ARC
  5
386
330
1F
100
AcDbEntity
  8
0-7_金物
  6
Continuous
 62
     7
370
     9
100
AcDbCircle
 10
-3094.213020387183
 20
-963.8485054282968
 30
0.0
 40
38.39999974703684
100
AcDbArc
 50
167.8242658972536
 51
198.2099568642824
  0
ARC
  5
387
330
1F
100
AcDbEntity
  8
0-7_金物
  6
Continuous
 62
     7
370
     9
100
AcDbCircle
 10
-3094.213020387183
 20
-963.8485054282968
 30
0.0
 40
38.39999974703684
100
AcDbArc
 50
341.7900431357177
 51
12.17573410274985
  0
ARC
  5
388
330
1F
100
AcDbEntity
  8
0-7_金物
  6
Continuous
 62
     7
370
     9
100
AcDbCircle
 10
-3094.213020387183
 20
-1030.448504989564
 30
0.0
 40
47.3999996877486
100
AcDbArc
 50
180.0
 51
0.0
  0
LINE
  5
389
330
1F
100
AcDbEntity
  8
0-7_金物
  6
Continuous
 62
     7
370
     9
100
AcDbLine
 10
-3046.813020699433
 20
-819.8485063769081
 30
0.0
 11
-3046.813020699433
 21
-1029.24850499747
 31
0.0
  0
LINE
  5
38A
330
1F
100
AcDbEntity
  8
0-7_金物
  6
Continuous
 62
     7
370
     9
100
AcDbLine
 10
-3141.613020074933
 20
-819.8485063769081
 30
0.0
 11
-3141.613020074933
 21
-1029.24850499747
 31
0.0
  0
LINE
  5
38B
330
1F
100
AcDbEntity
  8
0-7_金物
  6
Continuous
 62
     7
370
     9
100
AcDbLine
 10
-3055.813020640148
 20
-879.8485059816544
 30
0.0
 11
-3049.213020683626
 21
-879.8485059816544
 31
0.0
  0
LINE
  5
38C
330
1F
100
AcDbEntity
  8
0-7_金物
  6
Continuous
 62
     7
370
     9
100
AcDbLine
 10
-3129.613020153981
 20
-834.8485062780948
 30
0.0
 11
-3058.813020620385
 21
-834.8485062780948
 31
0.0
  0
CIRCLE
  5
38D
330
1F
100
AcDbEntity
  8
0-7_金物
  6
Continuous
 62
     7
370
     9
100
AcDbCircle
 10
-3094.213020387183
 20
-963.8485054282968
 30
0.0
 40
29.99999980237253
  0
LINE
  5
38E
330
1F
100
AcDbEntity
  8
0-7_金物
  6
Continuous
 62
     7
370
     9
100
AcDbLine
 10
-3135.613020114461
 20
-819.8485063769081
 30
0.0
 11
-3135.613020114461
 21
-828.8485063176211
 31
0.0
  0
LINE
  5
38F
330
1F
100
AcDbEntity
  8
0-7_金物
  6
Continuous
 62
     7
370
     9
100
AcDbLine
 10
-3052.813020659912
 20
-819.8485063769081
 30
0.0
 11
-3052.813020659912
 21
-828.8485063176211
 31
0.0
  0
ARC
  5
390
330
1F
100
AcDbEntity
  8
0-7_金物
  6
Continuous
 62
     7
370
     9
100
AcDbCircle
 10
-3129.613020153981
 20
-828.8485063176211
 30
0.0
 40
5.999999960474506
100
AcDbArc
 50
180.0
 51
270.0
  0
ARC
  5
391
330
1F
100
AcDbEntity
  8
0-7_金物
  6
Continuous
 62
     7
370
     9
100
AcDbCircle
 10
-3058.813020620385
 20
-828.8485063176211
 30
0.0
 40
5.999999960474506
100
AcDbArc
 50
270.0
 51
0.0
  0
LINE
  5
392
330
1F
100
AcDbEntity
  8
0-7_金物
  6
Continuous
 62
     7
370
     9
100
AcDbLine
 10
-3120.613020213273
 20
-999.8485051911443
 30
0.0
 11
-3067.813020561097
 21
-999.8485051911443
 31
0.0
  0
LINE
  5
393
330
1F
100
AcDbEntity
  8
0-7_金物
  6
Continuous
 62
     7
370
     9
100
AcDbLine
 10
-3135.613020114461
 20
-1029.24850499747
 30
0.0
 11
-3135.613020114461
 21
-1014.84850509233
 31
0.0
  0
LINE
  5
394
330
1F
100
AcDbEntity
  8
0-7_金物
  6
Continuous
 62
     7
370
     9
100
AcDbLine
 10
-3052.813020659912
 20
-1029.24850499747
 30
0.0
 11
-3052.813020659912
 21
-1014.84850509233
 31
0.0
  0
LINE
  5
395
330
1F
100
AcDbEntity
  8
0-7_金物
  6
Continuous
 62
     7
370
     9
100
AcDbLine
 10
-3115.213020248843
 20
-1064.927069755998
 30
0.0
 11
-3115.213020248843
 21
-1020.848505052805
 31
0.0
  0
LINE
  5
396
330
1F
100
AcDbEntity
  8
0-7_金物
  6
Continuous
 62
     7
370
     9
100
AcDbLine
 10
-3073.213020525523
 20
-1064.927069755998
 30
0.0
 11
-3073.213020525523
 21
-1020.848505052805
 31
0.0
  0
ARC
  5
397
330
1F
100
AcDbEntity
  8
0-7_金物
  6
Continuous
 62
     7
370
     9
100
AcDbCircle
 10
-3067.813020561097
 20
-1005.848505151618
 30
0.0
 40
5.999999960474506
100
AcDbArc
 50
0.0
 51
90.0
  0
ARC
  5
398
330
1F
100
AcDbEntity
  8
0-7_金物
  6
Continuous
 62
     7
370
     9
100
AcDbCircle
 10
-3055.813020640148
 20
-1005.848505151618
 30
0.0
 40
5.999999960474506
100
AcDbArc
 50
180.0
 51
270.0
  0
ARC
  5
399
330
1F
100
AcDbEntity
  8
0-7_金物
  6
Continuous
 62
     7
370
     9
100
AcDbCircle
 10
-3055.813020640148
 20
-1014.84850509233
 30
0.0
 40
2.999999980237253
100
AcDbArc
 50
0.0
 51
90.0
  0
ARC
  5
39A
330
1F
100
AcDbEntity
  8
0-7_金物
  6
Continuous
 62
     7
370
     9
100
AcDbCircle
 10
-3120.613020213273
 20
-1005.848505151618
 30
0.0
 40
5.999999960474506
100
AcDbArc
 50
90.0
 51
180.0
  0
ARC
  5
39B
330
1F
100
AcDbEntity
  8
0-7_金物
  6
Continuous
 62
     7
370
     9
100
AcDbCircle
 10
-3132.613020134221
 20
-1014.84850509233
 30
0.0
 40
2.999999980237253
100
AcDbArc
 50
90.0
 51
180.0
  0
ARC
  5
39C
330
1F
100
AcDbEntity
  8
0-7_金物
  6
Continuous
 62
     7
370
     9
100
AcDbCircle
 10
-3132.613020134221
 20
-1005.848505151618
 30
0.0
 40
5.999999960474506
100
AcDbArc
 50
270.0
 51
0.0
  0
LINE
  5
39D
330
1F
100
AcDbEntity
  8
0-7_金物
  6
Continuous
 62
     7
370
     9
100
AcDbLine
 10
-3115.213020248843
 20
-1020.848505052805
 30
0.0
 11
-3073.213020525523
 21
-1020.848505052805
 31
0.0
  0
LINE
  5
39E
330
1F
100
AcDbEntity
  8
0-7_金物
  6
Continuous
 62
     7
370
     9
100
AcDbLine
 10
-3115.213020248843
 20
-1041.848504914466
 30
0.0
 11
-3073.213020525523
 21
-1041.848504914466
 31
0.0
  0
LINE
  5
39F
330
1F
100
AcDbEntity
  8
0-7_金物
  6
Continuous
 62
     7
370
     9
100
AcDbLine
 10
-3132.613020134221
 20
-1011.848505112093
 30
0.0
 11
-3055.813020640148
 21
-1011.848505112093
 31
0.0
  0
LINE
  5
3A0
330
1F
100
AcDbEntity
  8
0-7_金物
  6
Continuous
 62
     7
370
     9
100
AcDbLine
 10
-3112.382224983164
 20
-1066.448504752412
 30
0.0
 11
-3076.043815791202
 21
-1066.448504752412
 31
0.0
  0
LINE
  5
3A1
330
1F
100
AcDbEntity
  8
0-7_金物
  6
Continuous
 62
     7
370
     9
100
AcDbLine
 10
-3064.813020580857
 20
-906.848505803788
 30
0.0
 11
-3052.813020659912
 21
-906.848505803788
 31
0.0
  0
LINE
  5
3A2
330
1F
100
AcDbEntity
  8
0-7_金物
  6
Continuous
 62
     7
370
     9
100
AcDbLine
 10
-3064.813020580857
 20
-921.8485057049752
 30
0.0
 11
-3052.813020659912
 21
-921.8485057049752
 31
0.0
  0
LINE
  5
3A3
330
1F
100
AcDbEntity
  8
0-7_金物
  6
Continuous
 62
     7
370
     9
100
AcDbLine
 10
-3052.813020659912
 20
-906.848505803788
 30
0.0
 11
-3052.813020659912
 21
-921.8485057049752
 31
0.0
  0
LINE
  5
3A4
330
1F
100
AcDbEntity
  8
0-7_金物
  6
Continuous
 62
     7
370
     9
100
AcDbLine
 10
-3070.813020541336
 20
-912.8485057642627
 30
0.0
 11
-3070.813020541336
 21
-915.8485057445023
 31
0.0
  0
ARC
  5
3A5
330
1F
100
AcDbEntity
  8
0-7_金物
  6
Continuous
 62
     7
370
     9
100
AcDbCircle
 10
-3064.813020580857
 20
-912.8485057642627
 30
0.0
 40
5.999999960474506
100
AcDbArc
 50
90.0
 51
180.0
  0
ARC
  5
3A6
330
1F
100
AcDbEntity
  8
0-7_金物
  6
Continuous
 62
     7
370
     9
100
AcDbCircle
 10
-3064.813020580857
 20
-915.8485057445023
 30
0.0
 40
5.999999960474506
100
AcDbArc
 50
180.0
 51
270.0
  0
LINE
  5
3A7
330
1F
100
AcDbEntity
  8
0-7_金物
  6
Continuous
 62
     7
370
     9
100
AcDbLine
 10
-3123.613020193509
 20
-906.848505803788
 30
0.0
 11
-3135.613020114461
 21
-906.848505803788
 31
0.0
  0
LINE
  5
3A8
330
1F
100
AcDbEntity
  8
0-7_金物
  6
Continuous
 62
     7
370
     9
100
AcDbLine
 10
-3123.613020193509
 20
-921.8485057049752
 30
0.0
 11
-3135.613020114461
 21
-921.8485057049752
 31
0.0
  0
ARC
  5
3A9
330
1F
100
AcDbEntity
  8
0-7_金物
  6
Continuous
 62
     7
370
     9
100
AcDbCircle
 10
-3123.613020193509
 20
-912.8485057642627
 30
0.0
 40
5.999999960474506
100
AcDbArc
 50
0.0
 51
90.0
  0
ARC
  5
3AA
330
1F
100
AcDbEntity
  8
0-7_金物
  6
Continuous
 62
     7
370
     9
100
AcDbCircle
 10
-3123.613020193509
 20
-915.8485057445023
 30
0.0
 40
5.999999960474506
100
AcDbArc
 50
270.0
 51
0.0
  0
LINE
  5
3AB
330
1F
100
AcDbEntity
  8
0-7_金物
  6
Continuous
 62
     7
370
     9
100
AcDbLine
 10
-3135.613020114461
 20
-906.848505803788
 30
0.0
 11
-3135.613020114461
 21
-921.8485057049752
 31
0.0
  0
LINE
  5
3AC
330
1F
100
AcDbEntity
  8
0-7_金物
  6
Continuous
 62
     7
370
     9
100
AcDbLine
 10
-3117.613020233036
 20
-912.8485057642627
 30
0.0
 11
-3117.613020233036
 21
-915.8485057445023
 31
0.0
  0
LINE
  5
3AD
330
1F
100
AcDbEntity
  8
0-7_金物
  6
Continuous
 62
     7
370
     9
100
AcDbLine
 10
-3060.271895113819
 20
-867.8485060607056
 30
0.0
 11
-3049.213020683626
 21
-879.8485059816544
 31
0.0
  0
LINE
  5
3AE
330
1F
100
AcDbEntity
  8
0-7_金物
  6
Continuous
 62
     7
370
     9
100
AcDbLine
 10
-3128.154145660546
 20
-867.8485060607056
 30
0.0
 11
-3139.213020090747
 21
-879.8485059816544
 31
0.0
  0
LINE
  5
3AF
330
1F
100
AcDbEntity
  8
0-7_金物
  6
Continuous
 62
     7
370
     9
100
AcDbLine
 10
-3132.613020134221
 20
-879.8485059816544
 30
0.0
 11
-3139.213020090747
 21
-879.8485059816544
 31
0.0
  0
LINE
  5
3B0
330
1F
100
AcDbEntity
  8
0-7_金物
  6
Continuous
 62
     7
370
     9
100
AcDbLine
 10
-3128.154145660546
 20
-951.8485055073485
 30
0.0
 11
-3139.213020090747
 21
-963.8485054282968
 31
0.0
  0
LINE
  5
3B1
330
1F
100
AcDbEntity
  8
0-7_金物
  6
Continuous
 62
     7
370
     9
100
AcDbLine
 10
-3132.613020134221
 20
-963.8485054282968
 30
0.0
 11
-3139.213020090747
 21
-963.8485054282968
 31
0.0
  0
LINE
  5
3B2
330
1F
100
AcDbEntity
  8
0-7_金物
  6
Continuous
 62
     7
370
     9
100
AcDbLine
 10
-3055.813020640148
 20
-963.8485054282968
 30
0.0
 11
-3049.213020683626
 21
-963.8485054282968
 31
0.0
  0
LINE
  5
3B3
330
1F
100
AcDbEntity
  8
0-7_金物
  6
Continuous
 62
     7
370
     9
100
AcDbLine
 10
-3060.271895113819
 20
-951.8485055073485
 30
0.0
 11
-3049.213020683626
 21
-963.8485054282968
 31
0.0
  0
LINE
  5
3B4
330
1F
100
AcDbEntity
  8
0-7_金物
  6
Continuous
 62
     7
370
     9
100
AcDbLine
 10
-3091.296838112844
 20
-865.1485060784922
 30
0.0
 11
-3097.129202661529
 21
-865.1485060784922
 31
0.0
  0
LINE
  5
3B5
330
1F
100
AcDbEntity
  8
0-7_金物
  6
Continuous
 62
     7
370
     9
100
AcDbLine
 10
-3097.331361271674
 20
-876.7301650971631
 30
0.0
 11
-3097.129202661529
 21
-865.1485060784922
 31
0.0
  0
LINE
  5
3B6
330
1F
100
AcDbEntity
  8
0-7_金物
  6
Continuous
 62
     7
370
     9
100
AcDbLine
 10
-3091.094679502692
 20
-876.7301650971631
 30
0.0
 11
-3091.296838112844
 21
-865.1485060784922
 31
0.0
  0
LINE
  5
3B7
330
1F
100
AcDbEntity
  8
0-7_金物
  6
Continuous
 62
     7
370
     9
100
AcDbLine
 10
-3079.513020484023
 20
-882.7646882559964
 30
0.0
 11
-3079.513020484023
 21
-876.9323237073115
 31
0.0
  0
LINE
  5
3B8
330
1F
100
AcDbEntity
  8
0-7_金物
  6
Continuous
 62
     7
370
     9
100
AcDbLine
 10
-3091.094679502692
 20
-876.7301650971631
 30
0.0
 11
-3079.513020484023
 21
-876.9323237073115
 31
0.0
  0
LINE
  5
3B9
330
1F
100
AcDbEntity
  8
0-7_金物
  6
Continuous
 62
     7
370
     9
100
AcDbLine
 10
-3091.094679502692
 20
-882.9668468661444
 30
0.0
 11
-3079.513020484023
 21
-882.7646882559964
 31
0.0
  0
LINE
  5
3BA
330
1F
100
AcDbEntity
  8
0-7_金物
  6
Continuous
 62
     7
370
     9
100
AcDbLine
 10
-3097.129202661529
 20
-894.5485058848169
 30
0.0
 11
-3091.296838112844
 21
-894.5485058848169
 31
0.0
  0
LINE
  5
3BB
330
1F
100
AcDbEntity
  8
0-7_金物
  6
Continuous
 62
     7
370
     9
100
AcDbLine
 10
-3091.094679502692
 20
-882.9668468661444
 30
0.0
 11
-3091.296838112844
 21
-894.5485058848169
 31
0.0
  0
LINE
  5
3BC
330
1F
100
AcDbEntity
  8
0-7_金物
  6
Continuous
 62
     7
370
     9
100
AcDbLine
 10
-3097.331361271674
 20
-882.9668468661444
 30
0.0
 11
-3097.129202661529
 21
-894.5485058848169
 31
0.0
  0
LINE
  5
3BD
330
1F
100
AcDbEntity
  8
0-7_金物
  6
Continuous
 62
     7
370
     9
100
AcDbLine
 10
-3108.913020290346
 20
-876.9323237073115
 30
0.0
 11
-3108.913020290346
 21
-882.7646882559964
 31
0.0
  0
LINE
  5
3BE
330
1F
100
AcDbEntity
  8
0-7_金物
  6
Continuous
 62
     7
370
     9
100
AcDbLine
 10
-3097.331361271674
 20
-882.9668468661444
 30
0.0
 11
-3108.913020290346
 21
-882.7646882559964
 31
0.0
  0
LINE
  5
3BF
330
1F
100
AcDbEntity
  8
0-7_金物
  6
Continuous
 62
     7
370
     9
100
AcDbLine
 10
-3097.331361271674
 20
-876.7301650971631
 30
0.0
 11
-3108.913020290346
 21
-876.9323237073115
 31
0.0
  0
LINE
  5
3C0
330
1F
100
AcDbEntity
  8
0-7_金物
  6
Continuous
 62
     7
370
     9
100
AcDbLine
 10
-3091.296838112844
 20
-949.1485055251338
 30
0.0
 11
-3097.129202661529
 21
-949.1485055251338
 31
0.0
  0
LINE
  5
3C1
330
1F
100
AcDbEntity
  8
0-7_金物
  6
Continuous
 62
     7
370
     9
100
AcDbLine
 10
-3097.331361271674
 20
-960.7301645438055
 30
0.0
 11
-3097.129202661529
 21
-949.1485055251338
 31
0.0
  0
LINE
  5
3C2
330
1F
100
AcDbEntity
  8
0-7_金物
  6
Continuous
 62
     7
370
     9
100
AcDbLine
 10
-3091.094679502692
 20
-960.7301645438055
 30
0.0
 11
-3091.296838112844
 21
-949.1485055251338
 31
0.0
  0
LINE
  5
3C3
330
1F
100
AcDbEntity
  8
0-7_金物
  6
Continuous
 62
     7
370
     9
100
AcDbLine
 10
-3079.513020484023
 20
-966.7646877026414
 30
0.0
 11
-3079.513020484023
 21
-960.9323231539544
 31
0.0
  0
LINE
  5
3C4
330
1F
100
AcDbEntity
  8
0-7_金物
  6
Continuous
 62
     7
370
     9
100
AcDbLine
 10
-3091.094679502692
 20
-960.7301645438055
 30
0.0
 11
-3079.513020484023
 21
-960.9323231539544
 31
0.0
  0
LINE
  5
3C5
330
1F
100
AcDbEntity
  8
0-7_金物
  6
Continuous
 62
     7
370
     9
100
AcDbLine
 10
-3091.094679502692
 20
-966.9668463127873
 30
0.0
 11
-3079.513020484023
 21
-966.7646877026414
 31
0.0
  0
LINE
  5
3C6
330
1F
100
AcDbEntity
  8
0-7_金物
  6
Continuous
 62
     7
370
     9
100
AcDbLine
 10
-3097.129202661529
 20
-978.5485053314598
 30
0.0
 11
-3091.296838112844
 21
-978.5485053314598
 31
0.0
  0
LINE
  5
3C7
330
1F
100
AcDbEntity
  8
0-7_金物
  6
Continuous
 62
     7
370
     9
100
AcDbLine
 10
-3091.094679502692
 20
-966.9668463127873
 30
0.0
 11
-3091.296838112844
 21
-978.5485053314598
 31
0.0
  0
LINE
  5
3C8
330
1F
100
AcDbEntity
  8
0-7_金物
  6
Continuous
 62
     7
370
     9
100
AcDbLine
 10
-3097.331361271674
 20
-966.9668463127873
 30
0.0
 11
-3097.129202661529
 21
-978.5485053314598
 31
0.0
  0
LINE
  5
3C9
330
1F
100
AcDbEntity
  8
0-7_金物
  6
Continuous
 62
     7
370
     9
100
AcDbLine
 10
-3108.913020290346
 20
-960.9323231539544
 30
0.0
 11
-3108.913020290346
 21
-966.7646877026414
 31
0.0
  0
LINE
  5
3CA
330
1F
100
AcDbEntity
  8
0-7_金物
  6
Continuous
 62
     7
370
     9
100
AcDbLine
 10
-3097.331361271674
 20
-966.9668463127873
 30
0.0
 11
-3108.913020290346
 21
-966.7646877026414
 31
0.0
  0
LINE
  5
3CB
330
1F
100
AcDbEntity
  8
0-7_金物
  6
Continuous
 62
     7
370
     9
100
AcDbLine
 10
-3097.331361271674
 20
-960.7301645438055
 30
0.0
 11
-3108.913020290346
 21
-960.9323231539544
 31
0.0
  0
ARC
  5
3CC
330
1F
100
AcDbEntity
  8
0-7_金物
  6
Continuous
 62
     7
370
     9
100
AcDbCircle
 10
-3094.213020387183
 20
-1029.24850499747
 30
0.0
 40
41.39999972727429
100
AcDbArc
 50
180.0
 51
0.0
  0
CIRCLE
  5
3CD
330
1F
100
AcDbEntity
  8
0-7_金物
  6
Continuous
 62
     7
370
     9
100
AcDbCircle
 10
-3094.213020387183
 20
-879.8485059816544
 30
0.0
 40
29.99999980237253
  0
LINE
  5
3CE
330
1F
100
AcDbEntity
  8
0-0_補助線
  6
JWW_HOJO
 62
   120
370
     5
100
AcDbLine
 10
-3673.217896424575
 20
-2004.848507009309
 30
0.0
 11
-2743.217896424571
 21
-2004.848507009309
 31
0.0
  0
LINE
  5
3CF
330
1F
100
AcDbEntity
  8
0-0_補助線
  6
JWW_HOJO
 62
   120
370
     5
100
AcDbLine
 10
-3673.217896424575
 20
-1884.848507009309
 30
0.0
 11
-2743.217896424571
 21
-1884.848507009309
 31
0.0
  0
LINE
  5
3D0
330
1F
100
AcDbEntity
  8
0-B_寸法
  6
Continuous
 62
   120
370
     5
100
AcDbLine
 10
-3523.217896424571
 20
-1274.673503350413
 30
0.0
 11
-2893.217896424571
 21
-1274.673503350413
 31
0.0
  0
LWPOLYLINE
  5
3D1
330
1F
100
AcDbEntity
  8
0-B_寸法
  6
Continuous
 62
     7
370
     9
100
AcDbPolyline
 90
        4
 70
     1
 43
3.0
 10
-2891.717896424571
 20
-1274.673503350413
 42
0.4142135623731
 10
-2893.217896424571
 20
-1273.173503350413
 42
0.4142135623731
 10
-2894.717896424571
 20
-1274.673503350413
 42
0.4142135623731
 10
-2893.217896424571
 20
-1276.173503350413
 42
0.4142135623731
  0
LINE
  5
3D2
330
1F
100
AcDbEntity
  8
0-B_寸法
  6
Continuous
 62
   120
370
     5
100
AcDbLine
 10
-2893.217896424571
 20
-1274.673503350413
 30
0.0
 11
-2893.217896424571
 21
-1151.324070075929
 31
0.0
  0
LWPOLYLINE
  5
3D3
330
1F
100
AcDbEntity
  8
0-B_寸法
  6
Continuous
 62
     7
370
     9
100
AcDbPolyline
 90
        4
 70
     1
 43
3.0
 10
-3521.717896424571
 20
-1274.673503350413
 42
0.4142135623731
 10
-3523.217896424571
 20
-1273.173503350413
 42
0.4142135623731
 10
-3524.717896424571
 20
-1274.673503350413
 42
0.4142135623731
 10
-3523.217896424571
 20
-1276.173503350413
 42
0.4142135623731
  0
LINE
  5
3D4
330
1F
100
AcDbEntity
  8
0-B_寸法
  6
Continuous
 62
   120
370
     5
100
AcDbLine
 10
-3523.217896424571
 20
-1274.673503350413
 30
0.0
 11
-3523.217896424571
 21
-1130.324070075934
 31
0.0
  0
LINE
  5
3D5
330
1F
100
AcDbEntity
  8
0-C_ハッチ
  6
Continuous
 62
   120
370
     5
100
AcDbLine
 10
-3007.817896424569
 20
-652.2515245522904
 30
0.0
 11
-2917.414878881598
 21
-561.8485070093138
 31
0.0
  0
LINE
  5
3D6
330
1F
100
AcDbEntity
  8
0-C_ハッチ
  6
Continuous
 62
   120
370
     5
100
AcDbLine
 10
-2896.218056641858
 20
-659.4456240089302
 30
0.0
 11
-2972.620939642241
 21
-735.8485070093128
 31
0.0
  0
LINE
  5
3D7
330
1F
100
AcDbEntity
  8
0-C_ハッチ
  6
Continuous
 62
   120
370
     5
100
AcDbLine
 10
-2913.223970022607
 20
-735.8485070093243
 30
0.0
 11
-2896.218056641858
 21
-718.8425936285753
 31
0.0
  0
LINE
  5
3D8
330
1F
100
AcDbEntity
  8
0-C_ハッチ
  6
Continuous
 62
   120
370
     5
100
AcDbLine
 10
-3007.817896424569
 20
-711.6484941719377
 30
0.0
 11
-2896.218056641858
 21
-600.0486543892212
 31
0.0
  0
LINE
  5
3D9
330
1F
100
AcDbEntity
  8
0-C_ハッチ
  6
Continuous
 62
   120
370
     5
100
AcDbLine
 10
-3520.218331300061
 20
-630.0792328507341
 30
0.0
 11
-3448.987605458641
 21
-558.8485070093147
 31
0.0
  0
LINE
  5
3DA
330
1F
100
AcDbEntity
  8
0-C_ハッチ
  6
Continuous
 62
   120
370
     5
100
AcDbLine
 10
-3520.218331300061
 20
-689.4762024703836
 30
0.0
 11
-3389.59063583899
 21
-558.8485070093147
 31
0.0
  0
LINE
  5
3DB
330
1F
100
AcDbEntity
  8
0-C_ハッチ
  6
Continuous
 62
   120
370
     5
100
AcDbLine
 10
-3520.218331300061
 20
-570.6822632310868
 30
0.0
 11
-3511.384575078289
 21
-561.8485070093138
 31
0.0
  0
LINE
  5
3DC
330
1F
100
AcDbEntity
  8
0-4_枠
  6
Continuous
 62
    92
370
    13
100
AcDbLine
 10
-2953.217896424571
 20
-561.8485070093138
 30
0.0
 11
-2896.218056641858
 21
-561.8485070093138
 31
0.0
  0
LINE
  5
3DD
330
1F
100
AcDbEntity
  8
0-4_枠
  6
Continuous
 62
    92
370
    13
100
AcDbLine
 10
-2953.217896424571
 20
-561.8485070093138
 30
0.0
 11
-2953.217896424571
 21
-558.8485070093147
 31
0.0
  0
LINE
  5
3DE
330
1F
100
AcDbEntity
  8
0-4_枠
  6
Continuous
 62
    92
370
    13
100
AcDbLine
 10
-3463.217896424571
 20
-561.8485070093138
 30
0.0
 11
-3463.217896424571
 21
-558.8485070093147
 31
0.0
  0
LINE
  5
3DF
330
1F
100
AcDbEntity
  8
0-4_枠
  6
Continuous
 62
    92
370
    13
100
AcDbLine
 10
-3463.217896424571
 20
-561.8485070093138
 30
0.0
 11
-3520.218331300061
 21
-561.8485070093138
 31
0.0
  0
LINE
  5
3E0
330
1F
100
AcDbEntity
  8
0-4_枠
  6
Continuous
 62
    92
370
    13
100
AcDbLine
 10
-2893.217896424571
 20
-558.8485070093147
 30
0.0
 11
-3523.217896424571
 21
-558.8485070093147
 31
0.0
  0
LINE
  5
3E1
330
1F
100
AcDbEntity
  8
0-4_枠
  6
Continuous
 62
   120
370
     5
100
AcDbLine
 10
-2869.217896424573
 20
-1884.848507009309
 30
0.0
 11
-2869.217896424573
 21
-558.8485070093147
 31
0.0
  0
LINE
  5
3E2
330
1F
100
AcDbEntity
  8
0-4_枠
  6
Continuous
 62
   120
370
     5
100
AcDbLine
 10
-2869.217896424573
 20
-3186.848713271374
 30
0.0
 11
-2869.217896424573
 21
-2004.848507009309
 31
0.0
  0
LINE
  5
3E3
330
1F
100
AcDbEntity
  8
0-4_枠
  6
Continuous
 62
   120
370
     5
100
AcDbLine
 10
-2869.217896424573
 20
-558.8485070093147
 30
0.0
 11
-2893.217896424571
 21
-558.8485070093147
 31
0.0
  0
LINE
  5
3E4
330
1F
100
AcDbEntity
  8
0-4_枠
  6
Continuous
 62
    92
370
    13
100
AcDbLine
 10
-2896.218056641858
 20
-735.8485070093175
 30
0.0
 11
-2896.218056641858
 21
-561.8485070093138
 31
0.0
  0
LINE
  5
3E5
330
1F
100
AcDbEntity
  8
0-4_枠
  6
Continuous
 62
    92
370
    13
100
AcDbLine
 10
-2893.217896424571
 20
-738.8485070093147
 30
0.0
 11
-2893.217896424571
 21
-558.8485070093147
 31
0.0
  0
LINE
  5
3E6
330
1F
100
AcDbEntity
  8
0-4_枠
  6
Continuous
 62
    92
370
    13
100
AcDbLine
 10
-2893.217896424571
 20
-738.8485070093147
 30
0.0
 11
-3007.817896424569
 21
-738.8485070093147
 31
0.0
  0
LINE
  5
3E7
330
1F
100
AcDbEntity
  8
0-4_枠
  6
Continuous
 62
    92
370
    13
100
AcDbLine
 10
-2896.218056641858
 20
-735.8485070093175
 30
0.0
 11
-3007.817896424569
 21
-735.8485070093175
 31
0.0
  0
LINE
  5
3E8
330
1F
100
AcDbEntity
  8
0-4_枠
  6
Continuous
 62
   120
370
     5
100
AcDbLine
 10
-3547.217896424577
 20
-558.8485070093147
 30
0.0
 11
-3547.217896424577
 21
-1884.848507009309
 31
0.0
  0
LINE
  5
3E9
330
1F
100
AcDbEntity
  8
0-4_枠
  6
Continuous
 62
   120
370
     5
100
AcDbLine
 10
-3547.217896424577
 20
-2004.848507009309
 30
0.0
 11
-3547.217896424577
 21
-3186.848713271374
 31
0.0
  0
LINE
  5
3EA
330
1F
100
AcDbEntity
  8
0-4_枠
  6
Continuous
 62
   120
370
     5
100
AcDbLine
 10
-3547.217896424577
 20
-558.8485070093147
 30
0.0
 11
-3523.217896424571
 21
-558.8485070093147
 31
0.0
  0
LINE
  5
3EB
330
1F
100
AcDbEntity
  8
0-4_枠
  6
Continuous
 62
    92
370
    13
100
AcDbLine
 10
-3520.218331300061
 20
-735.8485070093175
 30
0.0
 11
-3520.218331300061
 21
-561.8485070093138
 31
0.0
  0
LINE
  5
3EC
330
1F
100
AcDbEntity
  8
0-4_枠
  6
Continuous
 62
    92
370
    13
100
AcDbLine
 10
-3523.217896424571
 20
-738.8485070093147
 30
0.0
 11
-3523.217896424571
 21
-558.8485070093147
 31
0.0
  0
LINE
  5
3ED
330
1F
100
AcDbEntity
  8
0-C_ハッチ
  6
Continuous
 62
   120
370
     5
100
AcDbLine
 10
-3117.208818120948
 20
-642.8485070093155
 30
0.0
 11
-3033.208818120943
 21
-558.8485070093147
 31
0.0
  0
LINE
  5
3EE
330
1F
100
AcDbEntity
  8
0-C_ハッチ
  6
Continuous
 62
   120
370
     5
100
AcDbLine
 10
-3176.60578774065
 20
-642.8485070093155
 30
0.0
 11
-3092.605787740645
 21
-558.8485070093147
 31
0.0
  0
LINE
  5
3EF
330
1F
100
AcDbEntity
  8
0-C_ハッチ
  6
Continuous
 62
   120
370
     5
100
AcDbLine
 10
-3057.811848501301
 20
-642.8485070093155
 30
0.0
 11
-2973.811848501299
 21
-558.8485070093147
 31
0.0
  0
LINE
  5
3F0
330
1F
100
AcDbEntity
  8
0-4_枠
  6
Continuous
 62
    92
370
    13
100
AcDbLine
 10
-3007.817896424569
 20
-738.8485070093147
 30
0.0
 11
-3007.817896424569
 21
-642.8485070093155
 31
0.0
  0
LINE
  5
3F1
330
1F
100
AcDbEntity
  8
0-4_枠
  6
Continuous
 62
    92
370
    13
100
AcDbLine
 10
-3007.817896424569
 20
-642.8485070093155
 30
0.0
 11
-3180.617896424569
 21
-642.8485070093155
 31
0.0
  0
LINE
  5
3F2
330
1F
100
AcDbEntity
  8
0-4_枠
  6
Continuous
 62
    92
370
    13
100
AcDbLine
 10
-3180.617896424569
 20
-738.8485070093147
 30
0.0
 11
-3180.617896424569
 21
-642.8485070093155
 31
0.0
  0
LINE
  5
3F3
330
1F
100
AcDbEntity
  8
0-3_仕上げ
  6
Continuous
 62
    40
370
    15
100
AcDbLine
 10
-3013.217896424565
 20
-210.8485070092919
 30
0.0
 11
-3013.217896424565
 21
-558.8485070093147
 31
0.0
  0
LINE
  5
3F4
330
1F
100
AcDbEntity
  8
0-3_仕上げ
  6
Continuous
 62
    40
370
    15
100
AcDbLine
 10
-3403.217896424558
 20
-210.8485070092919
 30
0.0
 11
-3403.217896424558
 21
-558.8485070093147
 31
0.0
  0
LINE
  5
3F5
330
1F
100
AcDbEntity
  8
0-C_ハッチ
  6
JWW_DASHED1
 62
   120
370
     5
100
AcDbLine
 10
-3013.217896424558
 20
-274.4685686128688
 30
0.0
 11
-2949.597834820979
 21
-210.8485070092919
 31
0.0
  0
LINE
  5
3F6
330
1F
100
AcDbEntity
  8
0-C_ハッチ
  6
JWW_DASHED1
 62
   120
370
     5
100
AcDbLine
 10
-3013.217896424558
 20
-232.0421617416687
 30
0.0
 11
-2992.024241692179
 21
-210.8485070092919
 31
0.0
  0
LINE
  5
3F7
330
1F
100
AcDbEntity
  8
0-C_ハッチ
  6
JWW_DASHED1
 62
   120
370
     5
100
AcDbLine
 10
-3478.217896424558
 20
-258.2196518025827
 30
0.0
 11
-3430.84675163127
 21
-210.8485070092919
 31
0.0
  0
LINE
  5
3F8
330
1F
100
AcDbEntity
  8
0-3_仕上げ
  6
Continuous
 62
    40
370
    15
100
AcDbLine
 10
-2938.217896424565
 20
-210.8485070092919
 30
0.0
 11
-2938.217896424565
 21
-558.8485070093147
 31
0.0
  0
LINE
  5
3F9
330
1F
100
AcDbEntity
  8
0-3_仕上げ
  6
Continuous
 62
    40
370
    15
100
AcDbLine
 10
-3478.217896424558
 20
-210.8485070092919
 30
0.0
 11
-3478.217896424558
 21
-558.8485070093147
 31
0.0
  0
LINE
  5
3FA
330
1F
100
AcDbEntity
  8
0-2_柱
  6
Continuous
 62
     7
370
     9
100
AcDbLine
 10
-3403.217896424558
 20
-558.8485070093147
 30
0.0
 11
-3013.217896424565
 21
-288.8485070093148
 31
0.0
  0
LINE
  5
3FB
330
1F
100
AcDbEntity
  8
0-2_柱
  6
Continuous
 62
    92
370
    13
100
AcDbLine
 10
-3403.217896424571
 20
-288.8485070093148
 30
0.0
 11
-3013.217896424565
 21
-288.8485070093148
 31
0.0
  0
LINE
  5
3FC
330
1F
100
AcDbEntity
  8
0-2_柱
  6
Continuous
 62
    92
370
    13
100
AcDbLine
 10
-3403.217896424571
 20
-558.8485070093147
 30
0.0
 11
-3013.217896424565
 21
-558.8485070093147
 31
0.0
  0
LINE
  5
3FD
330
1F
100
AcDbEntity
  8
0-C_ハッチ
  6
JWW_DASHED1
 62
   120
370
     5
100
AcDbLine
 10
-3439.435496661685
 20
-558.8485070093147
 30
0.0
 11
-3403.217896424534
 21
-522.630906772164
 31
0.0
  0
LINE
  5
3FE
330
1F
100
AcDbEntity
  8
0-C_ハッチ
  6
JWW_DASHED1
 62
   120
370
     5
100
AcDbLine
 10
-3478.217896424544
 20
-555.2044999009718
 30
0.0
 11
-3403.217896424548
 21
-480.2044999009777
 31
0.0
  0
LINE
  5
3FF
330
1F
100
AcDbEntity
  8
0-C_ハッチ
  6
JWW_DASHED1
 62
   120
370
     5
100
AcDbLine
 10
-2958.186579851462
 20
-558.8485070093147
 30
0.0
 11
-2938.217896424565
 21
-538.8798235824142
 31
0.0
  0
LINE
  5
400
330
1F
100
AcDbEntity
  8
0-C_ハッチ
  6
JWW_DASHED1
 62
   120
370
     5
100
AcDbLine
 10
-3000.612986722658
 20
-558.8485070093147
 30
0.0
 11
-2938.217896424571
 21
-496.4534167112254
 31
0.0
  0
LINE
  5
401
330
1F
100
AcDbEntity
  8
0-C_ハッチ
  6
JWW_DASHED1
 62
   120
370
     5
100
AcDbLine
 10
-3013.217896424565
 20
-529.027009840022
 30
0.0
 11
-2938.217896424571
 21
-454.0270098400279
 31
0.0
  0
LINE
  5
402
330
1F
100
AcDbEntity
  8
0-C_ハッチ
  6
JWW_DASHED1
 62
   120
370
     5
100
AcDbLine
 10
-3013.217896424565
 20
-486.6006029688765
 30
0.0
 11
-2938.217896424578
 21
-411.6006029688901
 31
0.0
  0
LINE
  5
403
330
1F
100
AcDbEntity
  8
0-C_ハッチ
  6
JWW_DASHED1
 62
   120
370
     5
100
AcDbLine
 10
-3478.217896424558
 20
-512.7780930297854
 30
0.0
 11
-3403.217896424561
 21
-437.7780930297888
 31
0.0
  0
LINE
  5
404
330
1F
100
AcDbEntity
  8
0-C_ハッチ
  6
JWW_DASHED1
 62
   120
370
     5
100
AcDbLine
 10
-3013.217896424575
 20
-444.1741960976901
 30
0.0
 11
-2938.217896424578
 21
-369.1741960976935
 31
0.0
  0
LINE
  5
405
330
1F
100
AcDbEntity
  8
0-C_ハッチ
  6
JWW_DASHED1
 62
   120
370
     5
100
AcDbLine
 10
-3013.217896424578
 20
-401.7477892264935
 30
0.0
 11
-2938.217896424585
 21
-326.7477892264961
 31
0.0
  0
LINE
  5
406
330
1F
100
AcDbEntity
  8
0-C_ハッチ
  6
JWW_DASHED1
 62
   120
370
     5
100
AcDbLine
 10
-3013.217896424571
 20
-359.3213823552824
 30
0.0
 11
-2938.217896424561
 21
-284.3213823552739
 31
0.0
  0
LINE
  5
407
330
1F
100
AcDbEntity
  8
0-C_ハッチ
  6
JWW_DASHED1
 62
   120
370
     5
100
AcDbLine
 10
-3013.217896424571
 20
-316.8949754840824
 30
0.0
 11
-2938.217896424558
 21
-241.8949754840688
 31
0.0
  0
LINE
  5
408
330
1F
100
AcDbEntity
  8
0-C_ハッチ
  6
JWW_DASHED1
 62
   120
370
     5
100
AcDbLine
 10
-3478.217896424561
 20
-427.9252792873888
 30
0.0
 11
-3403.217896424571
 21
-352.9252792873956
 31
0.0
  0
LINE
  5
409
330
1F
100
AcDbEntity
  8
0-C_ハッチ
  6
JWW_DASHED1
 62
   120
370
     5
100
AcDbLine
 10
-3478.217896424565
 20
-385.4988724161913
 30
0.0
 11
-3403.217896424558
 21
-310.4988724161828
 31
0.0
  0
LINE
  5
40A
330
1F
100
AcDbEntity
  8
0-C_ハッチ
  6
JWW_DASHED1
 62
   120
370
     5
100
AcDbLine
 10
-3478.217896424565
 20
-343.0724655449913
 30
0.0
 11
-3403.217896424551
 21
-268.0724655449777
 31
0.0
  0
LINE
  5
40B
330
1F
100
AcDbEntity
  8
0-C_ハッチ
  6
JWW_DASHED1
 62
   120
370
     5
100
AcDbLine
 10
-3478.217896424551
 20
-300.6460586737776
 30
0.0
 11
-3403.217896424558
 21
-225.6460586737828
 31
0.0
  0
LINE
  5
40C
330
1F
100
AcDbEntity
  8
0-C_ハッチ
  6
JWW_DASHED1
 62
   120
370
     5
100
AcDbLine
 10
-3478.217896424571
 20
-470.351686158599
 30
0.0
 11
-3403.217896424575
 21
-395.3516861586024
 31
0.0
  0
LINE
  5
40D
330
1F
100
AcDbEntity
  8
0-3_仕上げ
  6
Continuous
 62
     7
370
     9
100
AcDbLine
 10
-2518.217896424571
 20
-3249.848713271374
 30
0.0
 11
-3898.217896424571
 21
-3249.848713271374
 31
0.0
  0
LINE
  5
40E
330
1F
100
AcDbEntity
  8
0-3_仕上げ
  6
Continuous
 62
     7
370
     9
100
AcDbLine
 10
-2518.217896424571
 20
-3195.848713271376
 30
0.0
 11
-3898.217896424571
 21
-3195.848713271376
 31
0.0
  0
LINE
  5
40F
330
1F
100
AcDbEntity
  8
0-3_仕上げ
  6
Continuous
 62
     7
370
     9
100
AcDbLine
 10
-2518.217896424571
 20
-3204.848713271374
 30
0.0
 11
-3898.217896424571
 21
-3204.848713271374
 31
0.0
  0
LINE
  5
410
330
1F
100
AcDbEntity
  8
0-3_仕上げ
  6
Continuous
 62
     7
370
     9
100
AcDbLine
 10
-2518.217896424571
 20
-3213.848713271373
 30
0.0
 11
-3898.217896424571
 21
-3213.848713271373
 31
0.0
  0
LINE
  5
411
330
1F
100
AcDbEntity
  8
0-3_仕上げ
  6
Continuous
 62
     7
370
     9
100
AcDbLine
 10
-2518.217896424571
 20
-3231.848713271374
 30
0.0
 11
-3898.217896424571
 21
-3231.848713271374
 31
0.0
  0
LINE
  5
412
330
1F
100
AcDbEntity
  8
0-3_仕上げ
  6
Continuous
 62
     7
370
     9
100
AcDbLine
 10
-2518.217896424571
 20
-3240.848713271376
 30
0.0
 11
-3898.217896424571
 21
-3240.848713271376
 31
0.0
  0
LINE
  5
413
330
1F
100
AcDbEntity
  8
0-3_仕上げ
  6
Continuous
 62
     7
370
     9
100
AcDbLine
 10
-2518.217896424571
 20
-3222.848713271373
 30
0.0
 11
-3898.217896424571
 21
-3222.848713271373
 31
0.0
  0
LINE
  5
414
330
1F
100
AcDbEntity
  8
0-3_仕上げ
  6
Continuous
 62
    40
370
    15
100
AcDbLine
 10
-2518.217896424571
 20
-3186.848713271374
 30
0.0
 11
-3898.217896424571
 21
-3186.848713271374
 31
0.0
  0
LINE
  5
415
330
1F
100
AcDbEntity
  8
0-3_仕上げ
  6
Continuous
 62
    40
370
    15
100
AcDbLine
 10
-2518.217896424571
 20
-3258.848713271375
 30
0.0
 11
-3898.217896424571
 21
-3258.848713271375
 31
0.0
  0
LINE
  5
416
330
1F
100
AcDbEntity
  8
0-0_補助線
  6
JWW_HOJO
 62
   120
370
     5
100
AcDbLine
 10
-1678.217896424571
 20
-3258.848507009291
 30
0.0
 11
-3898.217896424571
 21
-3258.848507009291
 31
0.0
  0
LINE
  5
417
330
1F
100
AcDbEntity
  8
0-0_補助線
  6
JWW_HOJO
 62
   120
370
     5
100
AcDbLine
 10
-3898.217896424571
 20
-210.8485070092919
 30
0.0
 11
-1678.217896424571
 21
-210.8485070092919
 31
0.0
  0
LINE
  5
418
330
1F
100
AcDbEntity
  8
0-1_通り芯
  6
JWW_CENTER1
 62
   120
370
     5
100
AcDbLine
 10
-3898.217896424571
 20
-558.8485070093147
 30
0.0
 11
-1564.217896424569
 21
-558.8485070093147
 31
0.0
  0
LINE
  5
419
330
1F
100
AcDbEntity
  8
0-0_補助線
  6
JWW_HOJO
 62
   120
370
     5
100
AcDbLine
 10
-1678.217896424571
 20
-3258.848507009289
 30
0.0
 11
-1678.217896424571
 21
-210.8485070092919
 31
0.0
  0
LINE
  5
41A
330
1F
100
AcDbEntity
  8
0-0_補助線
  6
JWW_HOJO
 62
   120
370
     5
100
AcDbLine
 10
-1888.217896424571
 20
-3258.848507009289
 30
0.0
 11
-1888.217896424571
 21
-210.8485070092919
 31
0.0
  0
LINE
  5
41B
330
1F
100
AcDbEntity
  8
0-0_補助線
  6
JWW_HOJO
 62
   120
370
     5
100
AcDbLine
 10
-2098.217896424571
 20
-3258.848507277723
 30
0.0
 11
-2098.217896424571
 21
-210.8485070092919
 31
0.0
  0
LINE
  5
41C
330
1F
100
AcDbEntity
  8
0-0_補助線
  6
JWW_HOJO
 62
   120
370
     5
100
AcDbLine
 10
-2308.217896424571
 20
-3258.848507009289
 30
0.0
 11
-2308.217896424571
 21
-210.8485070092919
 31
0.0
  0
LINE
  5
41D
330
1F
100
AcDbEntity
  8
0-0_補助線
  6
JWW_HOJO
 62
   120
370
     5
100
AcDbLine
 10
-2518.217896424571
 20
-3258.848507009291
 30
0.0
 11
-2518.217896424571
 21
-210.8485070092919
 31
0.0
  0
LINE
  5
41E
330
1F
100
AcDbEntity
  8
0-1_通り芯
  6
JWW_CENTER1
 62
   120
370
     5
100
AcDbLine
 10
-3898.217896424571
 20
-3258.848507277721
 30
0.0
 11
-1564.217896424569
 21
-3258.848507009291
 31
0.0
  0
LINE
  5
41F
330
1F
100
AcDbEntity
  8
0-0_補助線
  6
JWW_HOJO
 62
   120
370
     5
100
AcDbLine
 10
-3898.217896424571
 20
-3258.848507009291
 30
0.0
 11
-3898.217896424571
 21
-210.8485070092919
 31
0.0
  0
LINE
  5
420
330
1F
100
AcDbEntity
  8
0-A_文字
  6
Continuous
 62
     7
370
     9
100
AcDbLine
 10
-3804.830792424158
 20
-3133.967215338787
 30
0.0
 11
-3834.830792424154
 21
-3185.928739565853
 31
0.0
  0
LINE
  5
421
330
1F
100
AcDbEntity
  8
0-A_文字
  6
Continuous
 62
     7
370
     9
100
AcDbLine
 10
-3864.830792424158
 20
-3133.967215338787
 30
0.0
 11
-3804.830792424158
 21
-3133.967215338787
 31
0.0
  0
LINE
  5
422
330
1F
100
AcDbEntity
  8
0-A_文字
  6
Continuous
 62
     7
370
     9
100
AcDbLine
 10
-3864.830792424158
 20
-3133.967215338787
 30
0.0
 11
-3834.830792424158
 21
-3185.928739565853
 31
0.0
  0
LINE
  5
423
330
1F
100
AcDbEntity
  8
0-C_ハッチ
  6
Continuous
 62
   120
370
     5
100
AcDbLine
 10
-3100.255569879794
 20
-3186.60413385759
 30
0.0
 11
-3085.457898344603
 21
-3171.806462322392
 31
0.0
  0
LINE
  5
424
330
1F
100
AcDbEntity
  8
0-C_ハッチ
  6
Continuous
 62
   120
370
     5
100
AcDbLine
 10
-3125.955993416328
 20
-3186.848713271365
 30
0.0
 11
-3107.956590503604
 21
-3168.849310358645
 31
0.0
  0
LINE
  5
425
330
1F
100
AcDbEntity
  8
0-C_ハッチ
  6
Continuous
 62
   120
370
     5
100
AcDbLine
 10
-3103.217895871221
 20
-3164.110615726257
 30
0.0
 11
-3085.21789587121
 21
-3146.110615726248
 31
0.0
  0
LINE
  5
426
330
1F
100
AcDbEntity
  8
0-C_ハッチ
  6
Continuous
 62
   120
370
     5
100
AcDbLine
 10
-3151.41183753903
 20
-3186.848713271374
 30
0.0
 11
-3133.412434626316
 21
-3168.849310358655
 31
0.0
  0
LINE
  5
427
330
1F
100
AcDbEntity
  8
0-C_ハッチ
  6
Continuous
 62
   120
370
     5
100
AcDbLine
 10
-3103.217895871211
 20
-3138.654771603552
 30
0.0
 11
-3085.217895871203
 21
-3120.654771603547
 31
0.0
  0
LINE
  5
428
330
1F
100
AcDbEntity
  8
0-C_ハッチ
  6
Continuous
 62
   120
370
     5
100
AcDbLine
 10
-3176.867681661731
 20
-3186.848713271377
 30
0.0
 11
-3158.868278749021
 21
-3168.849310358665
 31
0.0
  0
LINE
  5
429
330
1F
100
AcDbEntity
  8
0-C_ハッチ
  6
Continuous
 62
   120
370
     5
100
AcDbLine
 10
-3103.217895871201
 20
-3113.198927480846
 30
0.0
 11
-3085.217895871197
 21
-3095.198927480841
 31
0.0
  0
LINE
  5
42A
330
1F
100
AcDbEntity
  8
0-C_ハッチ
  6
Continuous
 62
   120
370
     5
100
AcDbLine
 10
-3103.217895871207
 20
-3087.743083358101
 30
0.0
 11
-3085.2178958712
 21
-3069.743083358092
 31
0.0
  0
LINE
  5
42B
330
1F
100
AcDbEntity
  8
0-C_ハッチ
  6
Continuous
 62
   120
370
     5
100
AcDbLine
 10
-3193.217895871221
 20
-3177.743083358107
 30
0.0
 11
-3184.324122871757
 21
-3168.849310358647
 31
0.0
  0
LINE
  5
42C
330
1F
100
AcDbEntity
  8
0-7_金物
  6
Continuous
 62
     7
370
     9
100
AcDbLine
 10
-3113.717895871218
 20
-3135.848713271376
 30
0.0
 11
-3113.717895871218
 21
-3027.848713271376
 31
0.0
  0
LINE
  5
42D
330
1F
100
AcDbEntity
  8
0-7_金物
  6
Continuous
 62
     7
370
     9
100
AcDbLine
 10
-3131.717895871216
 20
-3135.848713271376
 30
0.0
 11
-3113.717895871218
 21
-3135.848713271376
 31
0.0
  0
LINE
  5
42E
330
1F
100
AcDbEntity
  8
0-7_金物
  6
Continuous
 62
     7
370
     9
100
AcDbLine
 10
-3131.717895871216
 20
-3141.848713271374
 30
0.0
 11
-3131.717895871216
 21
-3135.848713271376
 31
0.0
  0
LINE
  5
42F
330
1F
100
AcDbEntity
  8
0-7_金物
  6
Continuous
 62
     7
370
     9
100
AcDbLine
 10
-3107.717895871214
 20
-3141.848713271374
 30
0.0
 11
-3107.717895871214
 21
-3033.848713271375
 31
0.0
  0
LINE
  5
430
330
1F
100
AcDbEntity
  8
0-7_金物
  6
Continuous
 62
     7
370
     9
100
AcDbLine
 10
-3107.717895871214
 20
-3141.848713271374
 30
0.0
 11
-3131.717895871216
 21
-3141.848713271374
 31
0.0
  0
LINE
  5
431
330
1F
100
AcDbEntity
  8
0-7_金物
  6
Continuous
 62
     7
370
     9
100
AcDbLine
 10
-3074.717895871217
 20
-3027.848713271376
 30
0.0
 11
-3074.717895871217
 21
-3135.848713271376
 31
0.0
  0
LINE
  5
432
330
1F
100
AcDbEntity
  8
0-7_金物
  6
Continuous
 62
     7
370
     9
100
AcDbLine
 10
-3080.717895871221
 20
-3033.848713271375
 30
0.0
 11
-3080.717895871221
 21
-3141.848713271374
 31
0.0
  0
LINE
  5
433
330
1F
100
AcDbEntity
  8
0-7_金物
  6
Continuous
 62
     7
370
     9
100
AcDbLine
 10
-3113.717895871218
 20
-3027.848713271376
 30
0.0
 11
-3074.717895871217
 21
-3027.848713271376
 31
0.0
  0
LINE
  5
434
330
1F
100
AcDbEntity
  8
0-7_金物
  6
Continuous
 62
     7
370
     9
100
AcDbLine
 10
-3080.717895871221
 20
-3033.848713271375
 30
0.0
 11
-3107.717895871214
 21
-3033.848713271375
 31
0.0
  0
LINE
  5
435
330
1F
100
AcDbEntity
  8
0-7_金物
  6
Continuous
 62
     7
370
     9
100
AcDbLine
 10
-3080.717895871221
 20
-3141.848713271374
 30
0.0
 11
-3056.717895871216
 21
-3141.848713271374
 31
0.0
  0
LINE
  5
436
330
1F
100
AcDbEntity
  8
0-7_金物
  6
Continuous
 62
     7
370
     9
100
AcDbLine
 10
-3056.717895871216
 20
-3135.848713271376
 30
0.0
 11
-3056.717895871216
 21
-3141.848713271374
 31
0.0
  0
LINE
  5
437
330
1F
100
AcDbEntity
  8
0-7_金物
  6
Continuous
 62
     7
370
     9
100
AcDbLine
 10
-3074.717895871217
 20
-3135.848713271376
 30
0.0
 11
-3056.717895871216
 21
-3135.848713271376
 31
0.0
  0
LINE
  5
438
330
1F
100
AcDbEntity
  8
0-7_金物
  6
Continuous
 62
    92
370
    13
100
AcDbLine
 10
-3193.217895871221
 20
-3168.848713271374
 30
0.0
 11
-3193.217895871221
 21
-3186.848713271374
 31
0.0
  0
LINE
  5
439
330
1F
100
AcDbEntity
  8
0-7_金物
  6
Continuous
 62
    92
370
    13
100
AcDbLine
 10
-3193.217895871221
 20
-3168.848713271374
 30
0.0
 11
-3103.217895871207
 21
-3168.848713271374
 31
0.0
  0
LINE
  5
43A
330
1F
100
AcDbEntity
  8
0-7_金物
  6
Continuous
 62
    92
370
    13
100
AcDbLine
 10
-3103.217895871207
 20
-3066.848713271374
 30
0.0
 11
-3085.21789587121
 21
-3066.848713271374
 31
0.0
  0
LINE
  5
43B
330
1F
100
AcDbEntity
  8
0-7_金物
  6
Continuous
 62
    92
370
    13
100
AcDbLine
 10
-3103.217895871207
 20
-3066.848713271374
 30
0.0
 11
-3103.217895871207
 21
-3168.848713271374
 31
0.0
  0
LINE
  5
43C
330
1F
100
AcDbEntity
  8
0-7_金物
  6
Continuous
 62
    92
370
    13
100
AcDbLine
 10
-3103.217895871207
 20
-3186.848713271374
 30
0.0
 11
-3193.217895871221
 21
-3186.848713271374
 31
0.0
  0
LINE
  5
43D
330
1F
100
AcDbEntity
  8
0-7_金物
  6
Continuous
 62
    92
370
    13
100
AcDbLine
 10
-3085.21789587121
 20
-3168.848713271374
 30
0.0
 11
-3085.21789587121
 21
-3066.848713271374
 31
0.0
  0
ARC
  5
43E
330
1F
100
AcDbEntity
  8
0-7_金物
  6
Continuous
 62
    92
370
    13
100
AcDbCircle
 10
-3103.217895871207
 20
-3168.848713271374
 30
0.0
 40
18.0
100
AcDbArc
 50
270.0
 51
0.0
  0
LINE
  5
43F
330
1F
100
AcDbEntity
  8
0-6_扉
  6
Continuous
 62
   200
370
    20
100
AcDbLine
 10
-3074.717895871217
 20
-3027.848713271376
 30
0.0
 11
-3074.717895871217
 21
-3135.848713271376
 31
0.0
  0
LINE
  5
440
330
1F
100
AcDbEntity
  8
0-6_扉
  6
Continuous
 62
   200
370
    20
100
AcDbLine
 10
-3113.717895871218
 20
-3027.848713271376
 30
0.0
 11
-3113.717895871218
 21
-3135.848713271376
 31
0.0
  0
LINE
  5
441
330
1F
100
AcDbEntity
  8
0-6_扉
  6
Continuous
 62
   200
370
    20
100
AcDbLine
 10
-3074.717895871217
 20
-3027.848713271376
 30
0.0
 11
-3113.717895871218
 21
-3027.848713271376
 31
0.0
  0
LINE
  5
442
330
1F
100
AcDbEntity
  8
0-6_扉
  6
Continuous
 62
   200
370
    20
100
AcDbLine
 10
-3113.717895871218
 20
-3135.848713271376
 30
0.0
 11
-3184.217895871216
 21
-3135.848713271376
 31
0.0
  0
LINE
  5
443
330
1F
100
AcDbEntity
  8
0-6_扉
  6
Continuous
 62
   200
370
    20
100
AcDbLine
 10
-3004.217895871216
 20
-3135.848713271376
 30
0.0
 11
-3074.717895871217
 21
-3135.848713271376
 31
0.0
  0
LINE
  5
444
330
1F
100
AcDbEntity
  8
0-0_補助線
  6
JWW_HOJO
 62
   120
370
     5
100
AcDbLine
 10
-3044.717895871217
 20
-2997.848713271375
 30
0.0
 11
-3044.717895871217
 21
-3261.848900736786
 31
0.0
  0
LWPOLYLINE
  5
445
330
1F
100
AcDbEntity
  8
0-B_寸法
  6
Continuous
 62
     7
370
     9
100
AcDbPolyline
 90
        4
 70
     1
 43
3.0
 10
-3079.217895871207
 20
-2937.848713271375
 42
0.4142135623731
 10
-3080.717895871207
 20
-2936.348713271375
 42
0.4142135623731
 10
-3082.217895871207
 20
-2937.848713271375
 42
0.4142135623731
 10
-3080.717895871207
 20
-2939.348713271375
 42
0.4142135623731
  0
LINE
  5
446
330
1F
100
AcDbEntity
  8
0-B_寸法
  6
Continuous
 62
   120
370
     5
100
AcDbLine
 10
-3080.717895871207
 20
-2937.848713271375
 30
0.0
 11
-3080.717895871207
 21
-2997.848713271375
 31
0.0
  0
LWPOLYLINE
  5
447
330
1F
100
AcDbEntity
  8
0-B_寸法
  6
Continuous
 62
     7
370
     9
100
AcDbPolyline
 90
        4
 70
     1
 43
3.0
 10
-3106.21789587121
 20
-2937.848713271375
 42
0.4142135623731
 10
-3107.71789587121
 20
-2936.348713271375
 42
0.4142135623731
 10
-3109.21789587121
 20
-2937.848713271375
 42
0.4142135623731
 10
-3107.71789587121
 20
-2939.348713271375
 42
0.4142135623731
  0
LINE
  5
448
330
1F
100
AcDbEntity
  8
0-B_寸法
  6
Continuous
 62
   120
370
     5
100
AcDbLine
 10
-3107.71789587121
 20
-2937.848713271375
 30
0.0
 11
-3107.71789587121
 21
-2997.848713271375
 31
0.0
  0
LINE
  5
449
330
1F
100
AcDbEntity
  8
0-B_寸法
  6
Continuous
 62
   120
370
     5
100
AcDbLine
 10
-3107.71789587121
 20
-2937.848713271375
 30
0.0
 11
-3080.717895871207
 21
-2937.848713271375
 31
0.0
  0
LINE
  5
44A
330
1F
100
AcDbEntity
  8
0-0_補助線
  6
JWW_HOJO
 62
   120
370
     5
100
AcDbLine
 10
-2974.217895871216
 20
-2997.848713271375
 30
0.0
 11
-2974.217895871216
 21
-3261.848900736786
 31
0.0
  0
LINE
  5
44B
330
1F
100
AcDbEntity
  8
0-B_寸法
  6
Continuous
 62
   120
370
     5
100
AcDbLine
 10
-2824.217895871216
 20
-3135.848713271376
 30
0.0
 11
-2824.217895871216
 21
-3027.848713271376
 31
0.0
  0
LWPOLYLINE
  5
44C
330
1F
100
AcDbEntity
  8
0-B_寸法
  6
Continuous
 62
     7
370
     9
100
AcDbPolyline
 90
        4
 70
     1
 43
3.0
 10
-2822.717895871216
 20
-3135.848713271376
 42
0.4142135623731
 10
-2824.217895871216
 20
-3134.348713271376
 42
0.4142135623731
 10
-2825.717895871216
 20
-3135.848713271376
 42
0.4142135623731
 10
-2824.217895871216
 20
-3137.348713271375
 42
0.4142135623731
  0
LWPOLYLINE
  5
44D
330
1F
100
AcDbEntity
  8
0-B_寸法
  6
Continuous
 62
     7
370
     9
100
AcDbPolyline
 90
        4
 70
     1
 43
3.0
 10
-2822.717895871216
 20
-3027.848713271376
 42
0.4142135623731
 10
-2824.217895871216
 20
-3026.348713271376
 42
0.4142135623731
 10
-2825.717895871216
 20
-3027.848713271376
 42
0.4142135623731
 10
-2824.217895871216
 20
-3029.348713271376
 42
0.4142135623731
  0
LINE
  5
44E
330
1F
100
AcDbEntity
  8
0-B_寸法
  6
Continuous
 62
   120
370
     5
100
AcDbLine
 10
-2824.217895871216
 20
-3135.848713271376
 30
0.0
 11
-2944.217895871216
 21
-3135.848713271376
 31
0.0
  0
LINE
  5
44F
330
1F
100
AcDbEntity
  8
0-B_寸法
  6
Continuous
 62
   120
370
     5
100
AcDbLine
 10
-2824.217895871216
 20
-3027.848713271376
 30
0.0
 11
-2944.217895871216
 21
-3027.848713271376
 31
0.0
  0
LINE
  5
450
330
1F
100
AcDbEntity
  8
1-4_枠
  6
Continuous
 62
    92
370
    13
100
AcDbLine
 10
2769.66582333066
 20
-2298.72358040474
 30
0.0
 11
3579.665823330658
 21
-2298.72358040474
 31
0.0
  0
LINE
  5
451
330
1F
100
AcDbEntity
  8
1-4_枠
  6
Continuous
 62
     7
370
     9
100
AcDbLine
 10
3407.165823330658
 20
-2243.372905177944
 30
0.0
 11
3407.165823330658
 21
-2298.72358040474
 31
0.0
  0
LINE
  5
452
330
1F
100
AcDbEntity
  8
1-4_枠
  6
Continuous
 62
     7
370
     9
100
AcDbLine
 10
2882.165204731098
 20
-2298.72358040474
 30
0.0
 11
3407.165823330658
 21
-2298.72358040474
 31
0.0
  0
LINE
  5
453
330
1F
100
AcDbEntity
  8
1-4_枠
  6
Continuous
 62
     7
370
     9
100
AcDbLine
 10
3407.165823330658
 20
-2098.60531879962
 30
0.0
 11
3407.165823330658
 21
-1795.02542990042
 31
0.0
  0
LINE
  5
454
330
1F
100
AcDbEntity
  8
1-4_枠
  6
Continuous
 62
     7
370
     9
100
AcDbLine
 10
2882.165204731098
 20
-1795.02542990042
 30
0.0
 11
2882.165204731098
 21
-2098.60531879962
 31
0.0
  0
LINE
  5
455
330
1F
100
AcDbEntity
  8
1-4_枠
  6
Continuous
 62
     7
370
     9
100
AcDbLine
 10
2882.165204731098
 20
-2243.372905177944
 30
0.0
 11
2882.165204731098
 21
-2298.72358040474
 31
0.0
  0
LINE
  5
456
330
1F
100
AcDbEntity
  8
1-4_枠
  6
JWW_CENTER1
 62
   120
370
     5
100
AcDbLine
 10
3579.665823330658
 20
-2523.72358040474
 30
0.0
 11
3269.328499879667
 21
-2523.72358040474
 31
0.0
  0
LINE
  5
457
330
1F
100
AcDbEntity
  8
1-4_枠
  6
JWW_CENTER1
 62
   120
370
     5
100
AcDbLine
 10
2988.976154880857
 20
-2523.72358040474
 30
0.0
 11
2369.441507414139
 21
-2523.72358040474
 31
0.0
  0
MTEXT
  5
458
330
1F
100
AcDbEntity
  8
0-A_文字
  6
Continuous
 62
     7
370
     9
100
AcDbMText
 10
3009.665514030878
 20
-2579.43358040474
 30
0.0
 40
68.57999999999998
 41
270.0
 46
0.0
 71
     7
 72
     1
  1
{\fＭＳ ゴシック|b0|i0|c128|p49;中方立}
 73
     1
 44
1.0
  0
MTEXT
  5
459
330
1F
100
AcDbEntity
  8
0-A_文字
  6
Continuous
 62
     7
370
     9
100
AcDbMText
 10
3054.665514030878
 20
-1940.482539034435
 30
0.0
 40
68.58
 41
180.0
 46
0.0
 71
     7
 72
     1
  1
{\fＭＳ ゴシック|b0|i0|c128|p49;小壁}
 73
     1
 44
1.0
  0
LINE
  5
45A
330
1F
100
AcDbEntity
  8
1-4_枠
  6
Continuous
 62
    92
370
    13
100
AcDbLine
 10
3579.665823330658
 20
-2727.510376969144
 30
0.0
 11
3558.452619895063
 21
-2748.72358040474
 31
0.0
  0
LINE
  5
45B
330
1F
100
AcDbEntity
  8
1-4_枠
  6
Continuous
 62
    92
370
    13
100
AcDbLine
 10
3558.452619895063
 20
-2748.72358040474
 30
0.0
 11
2769.66582333066
 21
-2748.72358040474
 31
0.0
  0
LINE
  5
45C
330
1F
100
AcDbEntity
  8
1-4_枠
  6
Continuous
 62
    92
370
    13
100
AcDbLine
 10
3579.665823330658
 20
-2727.510376969144
 30
0.0
 11
3579.665823330658
 21
-2298.72358040474
 31
0.0
  0
LINE
  5
45D
330
1F
100
AcDbEntity
  8
1-4_枠
  6
Continuous
 62
    92
370
    13
100
AcDbLine
 10
2769.66582333066
 20
-2298.72358040474
 30
0.0
 11
2769.66582333066
 21
-2748.72358040474
 31
0.0
  0
MTEXT
  5
45E
330
1F
100
AcDbEntity
  8
1-B_寸法
  6
Continuous
 62
     7
370
   211
100
AcDbMText
 10
2552.16582333066
 20
-2949.769156296773
 30
0.0
 40
91.44
 41
60.0
 46
0.0
 71
     7
 72
     1
  1
{\fＭＳ ゴシック|b0|i0|c128|p49;5}
 73
     1
 44
1.0
  0
LWPOLYLINE
  5
45F
330
1F
100
AcDbEntity
  8
1-B_寸法
  6
Continuous
 62
     7
370
     9
100
AcDbPolyline
 90
        4
 70
     1
 43
3.0
 10
2771.165823330659
 20
-2943.819716474254
 42
0.4142135623731
 10
2769.66582333066
 20
-2942.319716474254
 42
0.4142135623731
 10
2768.16582333066
 20
-2943.819716474254
 42
0.4142135623731
 10
2769.66582333066
 20
-2945.319716474254
 42
0.4142135623731
  0
LINE
  5
460
330
1F
100
AcDbEntity
  8
1-B_寸法
  6
Continuous
 62
   120
370
     5
100
AcDbLine
 10
2769.66582333066
 20
-2943.819716474254
 30
0.0
 11
2769.66582333066
 21
-2823.72358040474
 31
0.0
  0
LINE
  5
461
330
1F
100
AcDbEntity
  8
1-B_寸法
  6
Continuous
 62
   120
370
     5
100
AcDbLine
 10
2769.66582333066
 20
-2943.819716474254
 30
0.0
 11
2485.39639741229
 21
-2943.819716474254
 31
0.0
  0
LINE
  5
462
330
1F
100
AcDbEntity
  8
0-B_寸法
  6
JWW_CENTER1
 62
   120
370
     5
100
AcDbLine
 10
2853.864812309925
 20
-987.9637915527678
 30
0.0
 11
2468.955429603002
 21
-1210.19132727222
 31
0.0
  0
LINE
  5
463
330
1F
100
AcDbEntity
  8
0-6_扉
  6
Continuous
 62
    40
370
    15
100
AcDbLine
 10
3012.963826092132
 20
-1079.819649987727
 30
0.0
 11
2694.765774558184
 21
-896.107919278991
 31
0.0
  0
LINE
  5
464
330
1F
100
AcDbEntity
  8
0-A_文字
  6
Continuous
 62
   120
370
     5
100
AcDbLine
 10
2749.452451742079
 20
-2214.092079904315
 30
0.0
 11
3517.378660338178
 21
-2214.092079904315
 31
0.0
  0
MTEXT
  5
465
330
1F
100
AcDbEntity
  8
0-B_寸法
  6
Continuous
 62
     7
370
     9
100
AcDbMText
 10
3119.754891513243
 20
-1741.350075523577
 30
0.0
 40
68.58
 41
540.0
 46
0.0
 71
     7
 72
     1
  1
{\fＭＳ ゴシック|b0|i0|c128|p49;　場合です。}
 73
     1
 44
1.0
  0
MTEXT
  5
466
330
1F
100
AcDbEntity
  8
0-B_寸法
  6
Continuous
 62
     7
370
     9
100
AcDbMText
 10
3119.754891513243
 20
-1629.86380516837
 30
0.0
 40
68.58000000000001
 41
765.0
 46
0.0
 71
     7
 72
     1
  1
{\fＭＳ ゴシック|b0|i0|c128|p49;※図は左引き(L)の}
 73
     1
 44
1.0
  0
MTEXT
  5
467
330
1F
100
AcDbEntity
  8
0-B_寸法
  6
Continuous
 62
     7
370
   211
100
AcDbMText
 10
2155.350644726733
 20
-1536.557553416234
 30
0.0
 40
91.44
 41
720.0
 46
0.0
 71
     7
 72
     1
  1
{\fＭＳ ゴシック|b0|i0|c128|p49;15(中方立芯)}
 73
     1
 44
1.0
  0
MTEXT
  5
468
330
1F
100
AcDbEntity
  8
0-B_寸法
  6
Continuous
 62
     7
370
   211
100
AcDbMText
 10
3251.815018978526
 20
-1379.279562007818
 30
0.0
 40
91.44
 41
60.0
 46
0.0
 71
     7
 72
     1
  1
{\fＭＳ ゴシック|b0|i0|c128|p49;5}
 73
     1
 44
1.0
  0
MTEXT
  5
469
330
1F
100
AcDbEntity
  8
0-B_寸法
  6
Continuous
 62
     7
370
     9
100
AcDbMText
 10
2063.571355150911
 20
-685.763276165442
 30
0.0
 40
68.58
 41
450.0
 46
0.0
 71
     7
 72
     1
  1
{\fＭＳ ゴシック|b0|i0|c128|p49;ビス(同梱)}
 73
     1
 44
1.0
  0
MTEXT
  5
46A
330
1F
100
AcDbEntity
  8
0-A_文字
  6
Continuous
 62
     7
370
     9
100
AcDbMText
 10
1869.617602810697
 20
-1895.892998632472
 30
0.0
 40
68.57999999999998
 41
270.0
 46
0.0
 71
     7
 72
     1
  1
{\fＭＳ ゴシック|b0|i0|c128|p49;平面図}
 73
     1
 44
1.0
  0
MTEXT
  5
46B
330
1F
100
AcDbEntity
  8
0-A_文字
  6
Continuous
 62
     7
370
     9
100
AcDbMText
 10
3164.342072472682
 20
-537.69921573994
 30
0.0
 40
68.57999999999998
 41
270.0
 46
0.0
 71
     7
 72
     1
  1
{\fＭＳ ゴシック|b0|i0|c128|p49;中方立}
 73
     1
 44
1.0
  0
MTEXT
  5
46C
330
1F
100
AcDbEntity
  8
0-A_文字
  6
Continuous
 62
     7
370
     9
100
AcDbMText
 10
2323.889199628093
 20
-349.0136916134833
 30
0.0
 40
68.58
 41
180.0
 46
0.0
 71
     7
 72
     1
  1
{\fＭＳ ゴシック|b0|i0|c128|p49;小壁}
 73
     1
 44
1.0
  0
MTEXT
  5
46D
330
1F
100
AcDbEntity
  8
0-A_文字
  6
Continuous
 62
     7
370
     9
100
AcDbMText
 10
1795.235489997386
 20
43.26993153422561
 30
0.0
 40
68.58
 41
1260.0
 46
0.0
 71
     7
 72
     1
  1
{\fＭＳ ゴシック|b0|i0|c128|p49;下記のように床へ取り付けます}
 73
     1
 44
1.0
  0
MTEXT
  5
46E
330
1F
100
AcDbEntity
  8
0-A_文字
  6
Continuous
 62
     7
370
     9
100
AcDbMText
 10
1795.235489997386
 20
148.4867632357782
 30
0.0
 40
68.58
 41
1080.0
 46
0.0
 71
     7
 72
     1
  1
{\fＭＳ ゴシック|b0|i0|c128|p49;振れ止め金具(床付け用)を}
 73
     1
 44
1.0
  0
MTEXT
  5
46F
330
1F
100
AcDbEntity
  8
0-A_文字
  6
Continuous
 62
     7
370
     9
100
AcDbMText
 10
1899.918542843318
 20
351.6716453445417
 30
0.0
 40
91.43999999999996
 41
1800.0
 46
0.0
 71
     7
 72
     1
  1
{\fＭＳ ゴシック|b0|i0|c128|p49;振れ止め金具(床付け用)取り付け}
 73
     1
 44
1.0
  0
LINE
  5
470
330
1F
100
AcDbEntity
  8
0-6_扉
  6
Continuous
 62
     7
370
     9
100
AcDbLine
 10
2066.421017697703
 20
-441.4770394073426
 30
0.0
 11
2272.181932544132
 21
-560.2731589826317
 31
0.0
  0
LINE
  5
471
330
1F
100
AcDbEntity
  8
0-6_扉
  6
Continuous
 62
     7
370
     9
100
AcDbLine
 10
2494.41336579352
 20
-688.5785367915619
 30
0.0
 11
2584.505789326182
 21
-740.5934217700908
 31
0.0
  0
LINE
  5
472
330
1F
100
AcDbEntity
  8
0-6_扉
  6
Continuous
 62
    40
370
    15
100
AcDbLine
 10
3012.96382609213
 20
-69.67640375990698
 30
0.0
 11
3012.96382609213
 21
-1079.819649987729
 31
0.0
  0
LINE
  5
473
330
1F
100
AcDbEntity
  8
0-6_扉
  6
Continuous
 62
    40
370
    15
100
AcDbLine
 10
3585.720318853231
 20
-69.67640375990698
 30
0.0
 11
3585.720318853231
 21
-749.1385347120015
 31
0.0
  0
LINE
  5
474
330
1F
100
AcDbEntity
  8
0-6_扉
  6
Continuous
 62
    40
370
    15
100
AcDbLine
 10
2694.765774558184
 20
-69.67640375990698
 30
0.0
 11
2694.765774558184
 21
-896.107919278991
 31
0.0
  0
LINE
  5
475
330
1F
100
AcDbEntity
  8
0-6_扉
  6
Continuous
 62
     7
370
     9
100
AcDbLine
 10
2601.041337461527
 20
-750.1402249372306
 30
0.0
 11
2694.765774558184
 21
-804.2520539246302
 31
0.0
  0
LINE
  5
476
330
1F
100
AcDbEntity
  8
0-B_寸法
  6
JWW_CENTER1
 62
   120
370
     5
100
AcDbLine
 10
2927.19775147213
 20
-1129.336716256924
 30
0.0
 11
3103.578843345234
 21
-1231.17038712982
 31
0.0
  0
LINE
  5
477
330
1F
100
AcDbEntity
  8
0-B_寸法
  6
Continuous
 62
   120
370
     5
100
AcDbLine
 10
2356.251549765151
 20
-1275.260928796498
 30
0.0
 11
2456.113527223934
 21
-1217.605589228862
 31
0.0
  0
LWPOLYLINE
  5
478
330
1F
100
AcDbEntity
  8
0-B_寸法
  6
Continuous
 62
     7
370
     9
100
AcDbPolyline
 90
        4
 70
     1
 43
3.0
 10
2357.751549765151
 20
-1275.260928796498
 42
0.4142135623731
 10
2356.251549765151
 20
-1273.760928796499
 42
0.4142135623731
 10
2354.751549765151
 20
-1275.260928796498
 42
0.4142135623731
 10
2356.251549765151
 20
-1276.760928796498
 42
0.4142135623731
  0
LINE
  5
479
330
1F
100
AcDbEntity
  8
0-B_寸法
  6
Continuous
 62
   120
370
     5
100
AcDbLine
 10
2356.251549765151
 20
-1275.260928796498
 30
0.0
 11
2515.350644726733
 21
-1367.116834100393
 31
0.0
  0
ELLIPSE
  5
47A
330
1F
100
AcDbEntity
  8
0-7_金物
  6
Continuous
 62
     7
370
     9
100
AcDbEllipse
 10
2545.888906319104
 20
-843.171223268861
 30
0.0
 11
3.839167031409308
 21
6.442887280167158
 31
0.0
210
0.0
220
0.0
230
0.9999999999999998
 40
0.6634139481689362
 41
6.22960553505472
 42
7.015003698451609
  0
ELLIPSE
  5
47B
330
1F
100
AcDbEntity
  8
0-7_金物
  6
Continuous
 62
     7
370
     9
100
AcDbEllipse
 10
2551.634239642496
 20
-1055.102057169186
 30
0.0
 11
23.03500218845609
 21
38.65732368100281
 31
0.0
210
0.0
220
0.0
230
1.0
 40
0.6634139481689381
 41
2.302614718066926
 42
3.088012881464371
  0
LINE
  5
47C
330
1F
100
AcDbEntity
  8
0-7_金物
  6
Continuous
 62
     7
370
     9
100
AcDbLine
 10
2667.336009386074
 20
-1163.017200220193
 30
0.0
 11
2667.336009386074
 21
-909.7047696132455
 31
0.0
  0
LINE
  5
47D
330
1F
100
AcDbEntity
  8
0-7_金物
  6
Continuous
 62
     7
370
     9
100
AcDbLine
 10
2632.864009445721
 20
-924.1674908311921
 30
0.0
 11
2517.162239702142
 21
-855.2234909504847
 31
0.0
  0
LINE
  5
47E
330
1F
100
AcDbEntity
  8
0-7_金物
  6
Continuous
 62
     7
370
     9
100
AcDbLine
 10
2633.059776931409
 20
-922.4042776083583
 30
0.0
 11
2517.358007187831
 21
-853.46027772765
 31
0.0
  0
LINE
  5
47F
330
1F
100
AcDbEntity
  8
0-7_金物
  6
Continuous
 62
     7
370
     9
100
AcDbLine
 10
2633.633738157846
 20
-920.5969560277756
 30
0.0
 11
2517.931968414268
 21
-851.6529561470669
 31
0.0
  0
LINE
  5
480
330
1F
100
AcDbEntity
  8
0-7_金物
  6
Continuous
 62
     7
370
     9
100
AcDbLine
 10
2634.546778615964
 20
-918.868692068419
 30
0.0
 11
2518.845008872388
 21
-849.9246921877116
 31
0.0
  0
LINE
  5
481
330
1F
100
AcDbEntity
  8
0-7_金物
  6
Continuous
 62
     7
370
     9
100
AcDbLine
 10
2635.736676107417
 20
-917.3372640630298
 30
0.0
 11
2520.034906363839
 21
-848.393264182321
 31
0.0
  0
LINE
  5
482
330
1F
100
AcDbEntity
  8
0-7_金物
  6
Continuous
 62
     7
370
     9
100
AcDbLine
 10
2637.122341084556
 20
-916.1070362993694
 30
0.0
 11
2521.42057134098
 21
-847.1630364186619
 31
0.0
  0
LINE
  5
483
330
1F
100
AcDbEntity
  8
0-7_金物
  6
Continuous
 62
     7
370
     9
100
AcDbLine
 10
2638.609342769113
 20
-915.2618467664834
 30
0.0
 11
2522.907573025534
 21
-846.3178468857759
 31
0.0
  0
ELLIPSE
  5
484
330
1F
100
AcDbEntity
  8
0-7_金物
  6
Continuous
 62
     7
370
     9
100
AcDbEllipse
 10
2522.907573025534
 20
-852.8130374141599
 30
0.0
 11
3.839167031409303
 21
6.442887280167151
 31
0.0
210
0.0
220
0.0
230
0.9999999999999999
 40
0.6634139481689377
 41
0.7318183912720223
 42
2.302614718066919
  0
ELLIPSE
  5
485
330
1F
100
AcDbEntity
  8
0-7_金物
  6
Continuous
 62
     7
370
     9
100
AcDbEllipse
 10
2638.609342769113
 20
-921.7570372948674
 30
0.0
 11
3.839167031409386
 21
6.442887280167133
 31
0.0
210
0.0
220
0.0
230
1.0
 40
0.6634139481689393
 41
0.7318183912720424
 42
2.302614718066939
  0
LINE
  5
486
330
1F
100
AcDbEntity
  8
0-7_金物
  6
Continuous
 62
     7
370
     9
100
AcDbLine
 10
2632.864009445721
 20
-1138.508778267841
 30
0.0
 11
2517.162239702142
 21
-1069.564778387133
 31
0.0
  0
LINE
  5
487
330
1F
100
AcDbEntity
  8
0-7_金物
  6
Continuous
 62
     7
370
     9
100
AcDbLine
 10
2632.864009445721
 20
-924.1674908311921
 30
0.0
 11
2632.864009445721
 21
-1138.508778267841
 31
0.0
  0
LINE
  5
488
330
1F
100
AcDbEntity
  8
0-7_金物
  6
Continuous
 62
     7
370
     9
100
AcDbLine
 10
2517.162239702142
 20
-855.2234909504847
 30
0.0
 11
2517.162239702142
 21
-1069.564778387133
 31
0.0
  0
LINE
  5
489
330
1F
100
AcDbEntity
  8
0-7_金物
  6
Continuous
 62
     7
370
     9
100
AcDbLine
 10
2661.590676062682
 20
-905.6200326211858
 30
0.0
 11
2545.888906319104
 21
-836.6760327404784
 31
0.0
  0
LINE
  5
48A
330
1F
100
AcDbEntity
  8
0-7_金物
  6
Continuous
 62
     7
370
     9
100
AcDbLine
 10
2638.609342769113
 20
-915.2618467664834
 30
0.0
 11
2661.590676062682
 21
-905.6200326211858
 31
0.0
  0
LINE
  5
48B
330
1F
100
AcDbEntity
  8
0-7_金物
  6
Continuous
 62
     7
370
     9
100
AcDbLine
 10
2522.907573025534
 20
-846.3178468857759
 30
0.0
 11
2545.888906319104
 21
-836.6760327404784
 31
0.0
  0
LINE
  5
48C
330
1F
100
AcDbEntity
  8
0-7_金物
  6
Continuous
 62
     7
370
     9
100
AcDbLine
 10
2663.077677747238
 20
-905.2174795889996
 30
0.0
 11
2547.37590800366
 21
-836.2734797082921
 31
0.0
  0
LINE
  5
48D
330
1F
100
AcDbEntity
  8
0-7_金物
  6
Continuous
 62
     7
370
     9
100
AcDbLine
 10
2664.463342724378
 20
-905.2849963814074
 30
0.0
 11
2548.7615729808
 21
-836.3409965006991
 31
0.0
  0
LINE
  5
48E
330
1F
100
AcDbEntity
  8
0-7_金物
  6
Continuous
 62
     7
370
     9
100
AcDbLine
 10
2665.653240215829
 20
-905.8179818405804
 30
0.0
 11
2549.951470472252
 21
-836.8739819598729
 31
0.0
  0
ELLIPSE
  5
48F
330
1F
100
AcDbEntity
  8
0-7_金物
  6
Continuous
 62
     7
370
     9
100
AcDbEllipse
 10
2661.590676062682
 20
-912.1152231495685
 30
0.0
 11
3.839167031409386
 21
6.442887280167132
 31
0.0
210
0.0
220
0.0
230
1.0
 40
0.6634139481689387
 41
5.444207371656721
 42
7.015003698451618
  0
LINE
  5
490
330
1F
100
AcDbEntity
  8
0-7_金物
  6
Continuous
 62
     7
370
     9
100
AcDbLine
 10
2642.960624467188
 20
-1161.829504903825
 30
0.0
 11
2527.25885472361
 21
-1092.885505023117
 31
0.0
  0
LINE
  5
491
330
1F
100
AcDbEntity
  8
0-7_金物
  6
Continuous
 62
     7
370
     9
100
AcDbLine
 10
2637.482381718472
 20
-1156.056712617638
 30
0.0
 11
2521.780611974895
 21
-1087.11271273693
 31
0.0
  0
ELLIPSE
  5
492
330
1F
100
AcDbEntity
  8
0-7_金物
  6
Continuous
 62
     7
370
     9
100
AcDbEllipse
 10
2667.336009386074
 20
-1124.046057049894
 30
0.0
 11
23.03500218845613
 21
38.65732368100281
 31
0.0
210
0.0
220
0.0
230
0.9999999999999998
 40
0.6634139481689386
 41
2.302614718066926
 42
3.873411044861822
  0
LINE
  5
493
330
1F
100
AcDbEntity
  8
0-7_金物
  6
Continuous
 62
     7
370
     9
100
AcDbLine
 10
2634.038614359852
 20
-1148.102447054618
 30
0.0
 11
2518.336844616274
 21
-1079.15844717391
 31
0.0
  0
LINE
  5
494
330
1F
100
AcDbEntity
  8
0-7_金物
  6
Continuous
 62
     7
370
     9
100
AcDbLine
 10
2746.885522269561
 20
-1208.945132897377
 30
0.0
 11
2667.336009386074
 21
-1163.017200220193
 31
0.0
  0
ELLIPSE
  5
495
330
1F
100
AcDbEntity
  8
0-7_金物
  6
Continuous
 62
     7
370
     9
100
AcDbEllipse
 10
2768.098725705157
 20
-1147.707889327799
 30
0.0
 11
29.99999999999995
 21
6.661338147750928E-14
 31
0.0
210
0.0
220
0.0
230
1.0
 40
0.5773502691896261
 41
2.356194490192344
 42
2.780225529683081
  0
ELLIPSE
  5
496
330
1F
100
AcDbEntity
  8
0-7_金物
  6
Continuous
 62
     7
370
     9
100
AcDbEllipse
 10
2799.918530858552
 20
-1129.336716256924
 30
0.0
 11
30.00000000000003
 21
7.993605777301137E-14
 31
0.0
210
0.0
220
0.0
230
1.0
 40
0.5773502691896266
 41
0.2617993877991396
 42
2.356194490192344
  0
LINE
  5
497
330
1F
100
AcDbEntity
  8
0-7_金物
  6
Continuous
 62
     7
370
     9
100
AcDbLine
 10
2810.52513257635
 20
-1135.460440613882
 30
0.0
 11
2842.344937729744
 21
-1117.089267543009
 31
0.0
  0
LINE
  5
498
330
1F
100
AcDbEntity
  8
0-7_金物
  6
Continuous
 62
     7
370
     9
100
AcDbLine
 10
2725.672318833964
 20
-1086.470645758219
 30
0.0
 11
2757.492123987359
 21
-1068.099472687345
 31
0.0
  0
LINE
  5
499
330
1F
100
AcDbEntity
  8
0-7_金物
  6
Continuous
 62
     7
370
     9
100
AcDbLine
 10
2905.984548036533
 20
-1080.34692140126
 30
0.0
 11
2667.336009386074
 21
-942.5631233697075
 31
0.0
  0
LINE
  5
49A
330
1F
100
AcDbEntity
  8
0-7_金物
  6
Continuous
 62
     7
370
     9
100
AcDbLine
 10
2471.113877606806
 20
-988.4910560468921
 30
0.0
 11
2517.162239702142
 21
-961.9050217954083
 31
0.0
  0
ELLIPSE
  5
49B
330
1F
100
AcDbEntity
  8
0-7_金物
  6
Continuous
 62
     7
370
     9
100
AcDbEllipse
 10
2608.999699938185
 20
-1019.109677831681
 30
0.0
 11
60.00000000000006
 21
0.0
 31
0.0
210
0.0
220
0.0
230
1.0
 40
0.5773502691896251
 41
6.047146014440955
 42
6.519224599918218
  0
ELLIPSE
  5
49C
330
1F
100
AcDbEntity
  8
0-7_金物
  6
Continuous
 62
     7
370
     9
100
AcDbEllipse
 10
2608.999699938185
 20
-982.3673316899342
 30
0.0
 11
60.00000000000006
 21
0.0
 31
0.0
210
0.0
220
0.0
230
1.0
 40
0.5773502691896251
 41
6.047146014440955
 42
6.519224599918218
  0
LINE
  5
49D
330
1F
100
AcDbEntity
  8
0-7_金物
  6
Continuous
 62
     7
370
     9
100
AcDbLine
 10
2517.162239702142
 20
-1039.571987726207
 30
0.0
 11
2471.113877606806
 21
-1012.985953474723
 31
0.0
  0
LINE
  5
49E
330
1F
100
AcDbEntity
  8
0-7_金物
  6
Continuous
 62
     7
370
     9
100
AcDbLine
 10
2746.885522269561
 20
-1172.20278675563
 30
0.0
 11
2667.336009386074
 21
-1126.274854078446
 31
0.0
  0
LINE
  5
49F
330
1F
100
AcDbEntity
  8
0-7_金物
  6
Continuous
 62
     7
370
     9
100
AcDbLine
 10
2517.784216666791
 20
-1076.673432435925
 30
0.0
 11
2471.113877606806
 21
-1049.728299616472
 31
0.0
  0
ELLIPSE
  5
4A0
330
1F
100
AcDbEntity
  8
0-7_金物
  6
Continuous
 62
     7
370
     9
100
AcDbEllipse
 10
2884.771344600937
 20
-1129.336716256924
 30
0.0
 11
-30.00000000000001
 21
3.673819061467133E-15
 31
0.0
210
0.0
220
0.0
230
1.0
 40
0.5773502691896252
 41
2.356194490192344
 42
3.141592653589793
  0
ELLIPSE
  5
4A1
330
1F
100
AcDbEntity
  8
0-7_金物
  6
Continuous
 62
     7
370
     9
100
AcDbEllipse
 10
2492.327081042403
 20
-1037.480850902555
 30
0.0
 11
-30.00000000000001
 21
-1.699649535696902E-14
 31
0.0
210
0.0
220
0.0
230
1.0
 40
0.5773502691896268
 41
0.0
 42
0.7853981633974476
  0
LINE
  5
4A2
330
1F
100
AcDbEntity
  8
0-7_金物
  6
Continuous
 62
     7
370
     9
100
AcDbLine
 10
2778.705327422956
 20
-1117.089267543009
 30
0.0
 11
2746.885522269561
 21
-1135.460440613882
 31
0.0
  0
ELLIPSE
  5
4A3
330
1F
100
AcDbEntity
  8
0-7_金物
  6
Continuous
 62
     7
370
     9
100
AcDbEllipse
 10
2768.098725705157
 20
-1110.965543186051
 30
0.0
 11
59.99999999999998
 21
0.0
 31
0.0
210
0.0
220
0.0
230
1.0
 40
0.5773502691896258
 41
2.356194490192344
 42
5.497787143782136
  0
LINE
  5
4A4
330
1F
100
AcDbEntity
  8
0-7_金物
  6
Continuous
 62
     7
370
     9
100
AcDbLine
 10
2668.999699938185
 20
-982.3673316899342
 30
0.0
 11
2668.999699938185
 21
-1019.109677831681
 31
0.0
  0
ELLIPSE
  5
4A5
330
1F
100
AcDbEntity
  8
0-7_金物
  6
Continuous
 62
     7
370
     9
100
AcDbEllipse
 10
2799.918530858552
 20
-1092.594370115177
 30
0.0
 11
60.00000000000004
 21
0.0
 31
0.0
210
0.0
220
0.0
230
1.0
 40
0.5773502691896252
 41
5.497787143782138
 42
8.63937979737193
  0
LINE
  5
4A6
330
1F
100
AcDbEntity
  8
0-7_金物
  6
Continuous
 62
     7
370
     9
100
AcDbLine
 10
2789.311929140754
 20
-1172.20278675563
 30
0.0
 11
2789.311929140754
 21
-1208.945132897377
 31
0.0
  0
LINE
  5
4A7
330
1F
100
AcDbEntity
  8
0-7_金物
  6
Continuous
 62
     7
370
     9
100
AcDbLine
 10
2905.984548036533
 20
-1104.841818829092
 30
0.0
 11
2905.984548036533
 21
-1141.58416497084
 31
0.0
  0
LINE
  5
4A8
330
1F
100
AcDbEntity
  8
0-7_金物
  6
Continuous
 62
     7
370
     9
100
AcDbLine
 10
2905.984548036533
 20
-1104.841818829092
 30
0.0
 11
2789.311929140754
 21
-1172.20278675563
 31
0.0
  0
LINE
  5
4A9
330
1F
100
AcDbEntity
  8
0-7_金物
  6
Continuous
 62
     7
370
     9
100
AcDbLine
 10
2905.984548036533
 20
-1141.58416497084
 30
0.0
 11
2789.311929140754
 21
-1208.945132897377
 31
0.0
  0
LINE
  5
4AA
330
1F
100
AcDbEntity
  8
0-7_金物
  6
Continuous
 62
     7
370
     9
100
AcDbLine
 10
2914.771344600937
 20
-1092.594370115177
 30
0.0
 11
2914.771344600937
 21
-1129.336716256924
 31
0.0
  0
LINE
  5
4AB
330
1F
100
AcDbEntity
  8
0-7_金物
  6
Continuous
 62
     7
370
     9
100
AcDbLine
 10
2913.749119389609
 20
-1097.077247476017
 30
0.0
 11
2913.749119389609
 21
-1133.819593617765
 31
0.0
  0
LINE
  5
4AC
330
1F
100
AcDbEntity
  8
0-7_金物
  6
Continuous
 62
     7
370
     9
100
AcDbLine
 10
2910.752106714469
 20
-1101.254624153021
 30
0.0
 11
2910.752106714469
 21
-1137.996970294769
 31
0.0
  0
ELLIPSE
  5
4AD
330
1F
100
AcDbEntity
  8
0-7_金物
  6
Continuous
 62
     7
370
     9
100
AcDbEllipse
 10
2884.771344600937
 20
-1092.594370115177
 30
0.0
 11
-30.00000000000001
 21
3.673819061467133E-15
 31
0.0
210
0.0
220
0.0
230
1.0
 40
0.5773502691896252
 41
2.356194490192344
 42
3.92699081698724
  0
LINE
  5
4AE
330
1F
100
AcDbEntity
  8
0-7_金物
  6
Continuous
 62
     7
370
     9
100
AcDbLine
 10
2783.098725705157
 20
-1174.955338041714
 30
0.0
 11
2783.098725705157
 21
-1211.697684183462
 31
0.0
  0
LINE
  5
4AF
330
1F
100
AcDbEntity
  8
0-7_金物
  6
Continuous
 62
     7
370
     9
100
AcDbLine
 10
2775.863297058232
 20
-1176.685664116471
 30
0.0
 11
2775.863297058232
 21
-1213.428010258218
 31
0.0
  0
LINE
  5
4B0
330
1F
100
AcDbEntity
  8
0-7_金物
  6
Continuous
 62
     7
370
     9
100
AcDbLine
 10
2768.098725705157
 20
-1177.275846117403
 30
0.0
 11
2768.098725705157
 21
-1214.018192259151
 31
0.0
  0
LINE
  5
4B1
330
1F
100
AcDbEntity
  8
0-7_金物
  6
Continuous
 62
     7
370
     9
100
AcDbLine
 10
2760.334154352081
 20
-1176.685664116471
 30
0.0
 11
2760.334154352081
 21
-1213.428010258218
 31
0.0
  0
LINE
  5
4B2
330
1F
100
AcDbEntity
  8
0-7_金物
  6
Continuous
 62
     7
370
     9
100
AcDbLine
 10
2753.098725705157
 20
-1174.955338041714
 30
0.0
 11
2753.098725705157
 21
-1211.697684183462
 31
0.0
  0
LINE
  5
4B3
330
1F
100
AcDbEntity
  8
0-7_金物
  6
Continuous
 62
     7
370
     9
100
AcDbLine
 10
2746.885522269561
 20
-1172.20278675563
 30
0.0
 11
2746.885522269561
 21
-1208.945132897377
 31
0.0
  0
ELLIPSE
  5
4B4
330
1F
100
AcDbEntity
  8
0-7_金物
  6
Continuous
 62
     7
370
     9
100
AcDbEllipse
 10
2768.098725705157
 20
-1196.697684183462
 30
0.0
 11
-29.99999999999994
 21
-4.364184794797269E-14
 31
0.0
210
0.0
220
0.0
230
1.0
 40
0.5773502691896277
 41
0.7853981633974488
 42
2.356194490192345
  0
ELLIPSE
  5
4B5
330
1F
100
AcDbEntity
  8
0-7_金物
  6
Continuous
 62
     7
370
     9
100
AcDbEllipse
 10
2768.098725705157
 20
-1159.955338041714
 30
0.0
 11
-29.99999999999994
 21
-4.364184794797269E-14
 31
0.0
210
0.0
220
0.0
230
1.0
 40
0.5773502691896277
 41
0.7853981633974482
 42
2.356194490192345
  0
LINE
  5
4B6
330
1F
100
AcDbEntity
  8
0-7_金物
  6
Continuous
 62
     7
370
     9
100
AcDbLine
 10
2471.113877606806
 20
-1012.985953474723
 30
0.0
 11
2471.113877606806
 21
-1049.728299616472
 31
0.0
  0
LINE
  5
4B7
330
1F
100
AcDbEntity
  8
0-7_金物
  6
Continuous
 62
     7
370
     9
100
AcDbLine
 10
2466.34631892887
 20
-1009.398758798653
 30
0.0
 11
2466.34631892887
 21
-1046.141104940399
 31
0.0
  0
LINE
  5
4B8
330
1F
100
AcDbEntity
  8
0-7_金物
  6
Continuous
 62
     7
370
     9
100
AcDbLine
 10
2463.349306253732
 20
-1005.221382121648
 30
0.0
 11
2463.349306253732
 21
-1041.963728263395
 31
0.0
  0
LINE
  5
4B9
330
1F
100
AcDbEntity
  8
0-7_金物
  6
Continuous
 62
     7
370
     9
100
AcDbLine
 10
2462.327081042403
 20
-1000.738504760807
 30
0.0
 11
2462.327081042403
 21
-1037.480850902555
 31
0.0
  0
ELLIPSE
  5
4BA
330
1F
100
AcDbEntity
  8
0-7_金物
  6
Continuous
 62
     7
370
     9
100
AcDbEllipse
 10
2492.327081042403
 20
-1000.738504760807
 30
0.0
 11
-30.00000000000005
 21
3.673819061467138E-15
 31
0.0
210
0.0
220
0.0
230
1.0
 40
0.5773502691896267
 41
5.497787143782136
 42
7.068583470577034
  0
LINE
  5
4BB
330
1F
100
AcDbEntity
  8
0-7_金物
  6
Continuous
 62
     7
370
     9
100
AcDbLine
 10
2593.573267264885
 20
-862.8671984813902
 30
0.0
 11
2606.055572671665
 21
-674.4527253565008
 31
0.0
  0
LINE
  5
4BC
330
1F
100
AcDbEntity
  8
0-7_金物
  6
Continuous
 62
     7
370
     9
100
AcDbLine
 10
2592.566587409258
 20
-862.2673413141218
 30
0.0
 11
2580.124022051307
 21
-674.4527253565008
 31
0.0
  0
LINE
  5
4BD
330
1F
100
AcDbEntity
  8
0-7_金物
  6
Continuous
 62
     7
370
     9
100
AcDbLine
 10
2589.988123350487
 20
-644.8632665455002
 30
0.0
 11
2589.988123350487
 21
-635.7670110265001
 31
0.0
  0
LINE
  5
4BE
330
1F
100
AcDbEntity
  8
0-7_金物
  6
Continuous
 62
     7
370
     9
100
AcDbLine
 10
2589.988123350487
 20
-660.1628700864995
 30
0.0
 11
2589.988123350487
 21
-651.0666145675002
 31
0.0
  0
LINE
  5
4BF
330
1F
100
AcDbEntity
  8
0-7_金物
  6
Continuous
 62
     7
370
     9
100
AcDbLine
 10
2596.191471372487
 20
-644.8632665455002
 30
0.0
 11
2596.191471372487
 21
-635.7670110265001
 31
0.0
  0
LINE
  5
4C0
330
1F
100
AcDbEntity
  8
0-7_金物
  6
Continuous
 62
     7
370
     9
100
AcDbLine
 10
2596.191471372487
 20
-660.1628700864995
 30
0.0
 11
2596.191471372487
 21
-651.0666145675002
 31
0.0
  0
LINE
  5
4C1
330
1F
100
AcDbEntity
  8
0-7_金物
  6
Continuous
 62
     7
370
     9
100
AcDbLine
 10
2596.191471372487
 20
-651.0666145675002
 30
0.0
 11
2616.369394617487
 21
-651.0666145675002
 31
0.0
  0
LINE
  5
4C2
330
1F
100
AcDbEntity
  8
0-7_金物
  6
Continuous
 62
     7
370
     9
100
AcDbLine
 10
2569.810200104362
 20
-651.0666145675002
 30
0.0
 11
2589.988123350487
 21
-651.0666145675002
 31
0.0
  0
LINE
  5
4C3
330
1F
100
AcDbEntity
  8
0-7_金物
  6
Continuous
 62
     7
370
     9
100
AcDbLine
 10
2596.191471372487
 20
-644.8632665455002
 30
0.0
 11
2616.369394617487
 21
-644.8632665455002
 31
0.0
  0
LINE
  5
4C4
330
1F
100
AcDbEntity
  8
0-7_金物
  6
Continuous
 62
     7
370
     9
100
AcDbLine
 10
2569.810200104362
 20
-644.8632665455002
 30
0.0
 11
2589.988123350487
 21
-644.8632665455002
 31
0.0
  0
LINE
  5
4C5
330
1F
100
AcDbEntity
  8
0-7_金物
  6
Continuous
 62
     7
370
     9
100
AcDbLine
 10
2589.988123350487
 20
-635.7670110265001
 30
0.0
 11
2596.191471372487
 21
-635.7670110265001
 31
0.0
  0
LINE
  5
4C6
330
1F
100
AcDbEntity
  8
0-7_金物
  6
Continuous
 62
     7
370
     9
100
AcDbLine
 10
2589.988123350487
 20
-660.1628700864995
 30
0.0
 11
2596.191471372487
 21
-660.1628700864995
 31
0.0
  0
LINE
  5
4C7
330
1F
100
AcDbEntity
  8
0-7_金物
  6
Continuous
 62
     7
370
     9
100
AcDbLine
 10
2616.369394617487
 20
-651.0666145675002
 30
0.0
 11
2616.369394617487
 21
-644.8632665455002
 31
0.0
  0
LINE
  5
4C8
330
1F
100
AcDbEntity
  8
0-7_金物
  6
Continuous
 62
     7
370
     9
100
AcDbLine
 10
2569.810200104362
 20
-644.8632665455002
 30
0.0
 11
2569.810200104362
 21
-651.0666145675002
 31
0.0
  0
LINE
  5
4C9
330
1F
100
AcDbEntity
  8
0-7_金物
  6
Continuous
 62
     7
370
     9
100
AcDbLine
 10
2595.074915992307
 20
-840.2005239709017
 30
0.0
 11
2591.248203975948
 21
-842.366969398152
 31
0.0
  0
LINE
  5
4CA
330
1F
100
AcDbEntity
  8
0-7_金物
  6
Continuous
 62
     7
370
     9
100
AcDbLine
 10
2595.722090757521
 20
-830.431728188893
 30
0.0
 11
2590.647820327133
 21
-833.3044633002788
 31
0.0
  0
LINE
  5
4CB
330
1F
100
AcDbEntity
  8
0-7_金物
  6
Continuous
 62
     7
370
     9
100
AcDbLine
 10
2596.369265522735
 20
-820.6629324068856
 30
0.0
 11
2590.047436678315
 21
-824.241957202403
 31
0.0
  0
LINE
  5
4CC
330
1F
100
AcDbEntity
  8
0-7_金物
  6
Continuous
 62
     7
370
     9
100
AcDbLine
 10
2597.01644028795
 20
-810.8941366248774
 30
0.0
 11
2589.447053029499
 21
-815.1794511045285
 31
0.0
  0
LINE
  5
4CD
330
1F
100
AcDbEntity
  8
0-7_金物
  6
Continuous
 62
     7
370
     9
100
AcDbLine
 10
2597.663615053164
 20
-801.1253408428696
 30
0.0
 11
2588.846669380684
 21
-806.1169450066553
 31
0.0
  0
LINE
  5
4CE
330
1F
100
AcDbEntity
  8
0-7_金物
  6
Continuous
 62
     7
370
     9
100
AcDbLine
 10
2598.310789818377
 20
-791.3565450608627
 30
0.0
 11
2588.246285731868
 21
-797.05443890878
 31
0.0
  0
LINE
  5
4CF
330
1F
100
AcDbEntity
  8
0-7_金物
  6
Continuous
 62
     7
370
     9
100
AcDbLine
 10
2598.957964583591
 20
-781.5877492788549
 30
0.0
 11
2587.645902083051
 21
-787.991932810906
 31
0.0
  0
LINE
  5
4D0
330
1F
100
AcDbEntity
  8
0-7_金物
  6
Continuous
 62
     7
370
     9
100
AcDbLine
 10
2599.605139348805
 20
-771.8189534968467
 30
0.0
 11
2587.045518434235
 21
-778.9294267130315
 31
0.0
  0
LINE
  5
4D1
330
1F
100
AcDbEntity
  8
0-7_金物
  6
Continuous
 62
     7
370
     9
100
AcDbLine
 10
2600.252314114018
 20
-762.050157714838
 30
0.0
 11
2586.44513478542
 21
-769.8669206151557
 31
0.0
  0
LINE
  5
4D2
330
1F
100
AcDbEntity
  8
0-7_金物
  6
Continuous
 62
     7
370
     9
100
AcDbLine
 10
2600.899488879232
 20
-752.2813619328319
 30
0.0
 11
2585.844751136604
 21
-760.8044145172825
 31
0.0
  0
LINE
  5
4D3
330
1F
100
AcDbEntity
  8
0-7_金物
  6
Continuous
 62
     7
370
     9
100
AcDbLine
 10
2601.546663644445
 20
-742.5125661508224
 30
0.0
 11
2585.244367487787
 21
-751.7419084194071
 31
0.0
  0
LINE
  5
4D4
330
1F
100
AcDbEntity
  8
0-7_金物
  6
Continuous
 62
     7
370
     9
100
AcDbLine
 10
2602.193838409659
 20
-732.7437703688146
 30
0.0
 11
2584.643983838971
 21
-742.6794023215331
 31
0.0
  0
LINE
  5
4D5
330
1F
100
AcDbEntity
  8
0-7_金物
  6
Continuous
 62
     7
370
     9
100
AcDbLine
 10
2602.841013174875
 20
-722.9749745868077
 30
0.0
 11
2584.043600190155
 21
-733.6168962236586
 31
0.0
  0
LINE
  5
4D6
330
1F
100
AcDbEntity
  8
0-7_金物
  6
Continuous
 62
     7
370
     9
100
AcDbLine
 10
2603.488187940088
 20
-713.2061788047998
 30
0.0
 11
2583.44321654134
 21
-724.5543901257854
 31
0.0
  0
LINE
  5
4D7
330
1F
100
AcDbEntity
  8
0-7_金物
  6
Continuous
 62
     7
370
     9
100
AcDbLine
 10
2604.135362705302
 20
-703.4373830227929
 30
0.0
 11
2582.842832892522
 21
-715.4918840279096
 31
0.0
  0
LINE
  5
4D8
330
1F
100
AcDbEntity
  8
0-7_金物
  6
Continuous
 62
     7
370
     9
100
AcDbLine
 10
2604.782537470515
 20
-693.6685872407829
 30
0.0
 11
2582.242449243707
 21
-706.4293779300342
 31
0.0
  0
LINE
  5
4D9
330
1F
100
AcDbEntity
  8
0-7_金物
  6
Continuous
 62
     7
370
     9
100
AcDbLine
 10
2594.427741227094
 20
-849.9693197529099
 30
0.0
 11
2591.848587624764
 21
-851.429475496026
 31
0.0
  0
LINE
  5
4DA
330
1F
100
AcDbEntity
  8
0-7_金物
  6
Continuous
 62
     7
370
     9
100
AcDbLine
 10
2605.429712235729
 20
-683.8997914587769
 30
0.0
 11
2581.642065594891
 21
-697.366871832161
 31
0.0
  0
LINE
  5
4DB
330
1F
100
AcDbEntity
  8
0-7_金物
  6
Continuous
 62
     7
370
     9
100
AcDbLine
 10
2617.000840049305
 20
-655.4949661560005
 30
0.0
 11
2606.055572671665
 21
-674.4527253565008
 31
0.0
  0
LINE
  5
4DC
330
1F
100
AcDbEntity
  8
0-7_金物
  6
Continuous
 62
     7
370
     9
100
AcDbLine
 10
2569.178754673667
 20
-655.4949661560005
 30
0.0
 11
2580.124022051307
 21
-674.4527253565008
 31
0.0
  0
ELLIPSE
  5
4DD
330
1F
100
AcDbEntity
  8
0-7_金物
  6
Continuous
 62
     7
370
     9
100
AcDbEllipse
 10
2593.089797361486
 20
-647.9649405565
 30
0.0
 11
28.25850499469571
 21
0.0
 31
0.0
210
0.0
220
0.0
230
1.0
 40
0.5
 41
0.0
 42
6.283185307179586
  0
LINE
  5
4DE
330
1F
100
AcDbEntity
  8
0-7_金物
  6
Continuous
 62
     7
370
     9
100
AcDbLine
 10
2780.906954270854
 20
-755.0903049707432
 30
0.0
 11
2780.906954270854
 21
-745.9940494517425
 31
0.0
  0
LINE
  5
4DF
330
1F
100
AcDbEntity
  8
0-7_金物
  6
Continuous
 62
     7
370
     9
100
AcDbLine
 10
2780.906954270854
 20
-770.3899085117421
 30
0.0
 11
2780.906954270854
 21
-761.2936529927426
 31
0.0
  0
LINE
  5
4E0
330
1F
100
AcDbEntity
  8
0-7_金物
  6
Continuous
 62
     7
370
     9
100
AcDbLine
 10
2787.110302292855
 20
-755.0903049707432
 30
0.0
 11
2787.110302292855
 21
-745.9940494517425
 31
0.0
  0
LINE
  5
4E1
330
1F
100
AcDbEntity
  8
0-7_金物
  6
Continuous
 62
     7
370
     9
100
AcDbLine
 10
2787.110302292855
 20
-770.3899085117421
 30
0.0
 11
2787.110302292855
 21
-761.2936529927426
 31
0.0
  0
LINE
  5
4E2
330
1F
100
AcDbEntity
  8
0-7_金物
  6
Continuous
 62
     7
370
     9
100
AcDbLine
 10
2787.110302292855
 20
-761.2936529927426
 30
0.0
 11
2807.288225537854
 21
-761.2936529927426
 31
0.0
  0
LINE
  5
4E3
330
1F
100
AcDbEntity
  8
0-7_金物
  6
Continuous
 62
     7
370
     9
100
AcDbLine
 10
2760.729031024729
 20
-761.2936529927426
 30
0.0
 11
2780.906954270854
 21
-761.2936529927426
 31
0.0
  0
LINE
  5
4E4
330
1F
100
AcDbEntity
  8
0-7_金物
  6
Continuous
 62
     7
370
     9
100
AcDbLine
 10
2787.110302292855
 20
-755.0903049707432
 30
0.0
 11
2807.288225537854
 21
-755.0903049707432
 31
0.0
  0
LINE
  5
4E5
330
1F
100
AcDbEntity
  8
0-7_金物
  6
Continuous
 62
     7
370
     9
100
AcDbLine
 10
2760.729031024729
 20
-755.0903049707432
 30
0.0
 11
2780.906954270854
 21
-755.0903049707432
 31
0.0
  0
LINE
  5
4E6
330
1F
100
AcDbEntity
  8
0-7_金物
  6
Continuous
 62
     7
370
     9
100
AcDbLine
 10
2780.906954270854
 20
-745.9940494517425
 30
0.0
 11
2787.110302292855
 21
-745.9940494517425
 31
0.0
  0
LINE
  5
4E7
330
1F
100
AcDbEntity
  8
0-7_金物
  6
Continuous
 62
     7
370
     9
100
AcDbLine
 10
2780.906954270854
 20
-770.3899085117421
 30
0.0
 11
2787.110302292855
 21
-770.3899085117421
 31
0.0
  0
LINE
  5
4E8
330
1F
100
AcDbEntity
  8
0-7_金物
  6
Continuous
 62
     7
370
     9
100
AcDbLine
 10
2807.288225537854
 20
-761.2936529927426
 30
0.0
 11
2807.288225537854
 21
-755.0903049707432
 31
0.0
  0
LINE
  5
4E9
330
1F
100
AcDbEntity
  8
0-7_金物
  6
Continuous
 62
     7
370
     9
100
AcDbLine
 10
2760.729031024729
 20
-755.0903049707432
 30
0.0
 11
2760.729031024729
 21
-761.2936529927426
 31
0.0
  0
LINE
  5
4EA
330
1F
100
AcDbEntity
  8
0-7_金物
  6
Continuous
 62
     7
370
     9
100
AcDbLine
 10
2785.993746912675
 20
-950.4275623961441
 30
0.0
 11
2782.167034896316
 21
-952.5940078233946
 31
0.0
  0
LINE
  5
4EB
330
1F
100
AcDbEntity
  8
0-7_金物
  6
Continuous
 62
     7
370
     9
100
AcDbLine
 10
2786.640921677888
 20
-940.6587666141368
 30
0.0
 11
2781.5666512475
 21
-943.5315017255214
 31
0.0
  0
LINE
  5
4EC
330
1F
100
AcDbEntity
  8
0-7_金物
  6
Continuous
 62
     7
370
     9
100
AcDbLine
 10
2787.288096443102
 20
-930.8899708321281
 30
0.0
 11
2780.966267598683
 21
-934.4689956276455
 31
0.0
  0
LINE
  5
4ED
330
1F
100
AcDbEntity
  8
0-7_金物
  6
Continuous
 62
     7
370
     9
100
AcDbLine
 10
2787.935271208317
 20
-921.12117505012
 30
0.0
 11
2780.365883949867
 21
-925.4064895297715
 31
0.0
  0
LINE
  5
4EE
330
1F
100
AcDbEntity
  8
0-7_金物
  6
Continuous
 62
     7
370
     9
100
AcDbLine
 10
2788.582445973531
 20
-911.3523792681126
 30
0.0
 11
2779.765500301051
 21
-916.3439834318983
 31
0.0
  0
LINE
  5
4EF
330
1F
100
AcDbEntity
  8
0-7_金物
  6
Continuous
 62
     7
370
     9
100
AcDbLine
 10
2789.229620738745
 20
-901.5835834861052
 30
0.0
 11
2779.165116652236
 21
-907.281477334023
 31
0.0
  0
LINE
  5
4F0
330
1F
100
AcDbEntity
  8
0-7_金物
  6
Continuous
 62
     7
370
     9
100
AcDbLine
 10
2789.876795503958
 20
-891.8147877040979
 30
0.0
 11
2778.564733003418
 21
-898.2189712361485
 31
0.0
  0
LINE
  5
4F1
330
1F
100
AcDbEntity
  8
0-7_金物
  6
Continuous
 62
     7
370
     9
100
AcDbLine
 10
2790.523970269172
 20
-882.0459919220891
 30
0.0
 11
2777.964349354603
 21
-889.1564651382739
 31
0.0
  0
LINE
  5
4F2
330
1F
100
AcDbEntity
  8
0-7_金物
  6
Continuous
 62
     7
370
     9
100
AcDbLine
 10
2791.171145034386
 20
-872.2771961400817
 30
0.0
 11
2777.363965705787
 21
-880.0939590403987
 31
0.0
  0
LINE
  5
4F3
330
1F
100
AcDbEntity
  8
0-7_金物
  6
Continuous
 62
     7
370
     9
100
AcDbLine
 10
2791.8183197996
 20
-862.5084003580744
 30
0.0
 11
2776.763582056972
 21
-871.0314529425254
 31
0.0
  0
LINE
  5
4F4
330
1F
100
AcDbEntity
  8
0-7_金物
  6
Continuous
 62
     7
370
     9
100
AcDbLine
 10
2792.465494564813
 20
-852.739604576065
 30
0.0
 11
2776.163198408154
 21
-861.9689468446509
 31
0.0
  0
LINE
  5
4F5
330
1F
100
AcDbEntity
  8
0-7_金物
  6
Continuous
 62
     7
370
     9
100
AcDbLine
 10
2793.112669330027
 20
-842.9708087940576
 30
0.0
 11
2775.562814759339
 21
-852.9064407467756
 31
0.0
  0
LINE
  5
4F6
330
1F
100
AcDbEntity
  8
0-7_金物
  6
Continuous
 62
     7
370
     9
100
AcDbLine
 10
2793.759844095242
 20
-833.2020130120502
 30
0.0
 11
2774.962431110523
 21
-843.843934648901
 31
0.0
  0
LINE
  5
4F7
330
1F
100
AcDbEntity
  8
0-7_金物
  6
Continuous
 62
     7
370
     9
100
AcDbLine
 10
2794.407018860456
 20
-823.4332172300428
 30
0.0
 11
2774.362047461707
 21
-834.7814285510278
 31
0.0
  0
LINE
  5
4F8
330
1F
100
AcDbEntity
  8
0-7_金物
  6
Continuous
 62
     7
370
     9
100
AcDbLine
 10
2795.05419362567
 20
-813.6644214480355
 30
0.0
 11
2773.76166381289
 21
-825.7189224531526
 31
0.0
  0
LINE
  5
4F9
330
1F
100
AcDbEntity
  8
0-7_金物
  6
Continuous
 62
     7
370
     9
100
AcDbLine
 10
2795.701368390883
 20
-803.8956256660267
 30
0.0
 11
2773.161280164074
 21
-816.656416355278
 31
0.0
  0
LINE
  5
4FA
330
1F
100
AcDbEntity
  8
0-7_金物
  6
Continuous
 62
     7
370
     9
100
AcDbLine
 10
2785.346572147461
 20
-960.1963581781529
 30
0.0
 11
2782.767418545131
 21
-961.6565139212698
 31
0.0
  0
LINE
  5
4FB
330
1F
100
AcDbEntity
  8
0-7_金物
  6
Continuous
 62
     7
370
     9
100
AcDbLine
 10
2796.348543156097
 20
-794.1268298840193
 30
0.0
 11
2772.560896515259
 21
-807.593910257404
 31
0.0
  0
LINE
  5
4FC
330
1F
100
AcDbEntity
  8
0-7_金物
  6
Continuous
 62
     7
370
     9
100
AcDbLine
 10
2784.008628281854
 20
-980.3919855317431
 30
0.0
 11
2796.974403592033
 21
-784.6797637817433
 31
0.0
  0
LINE
  5
4FD
330
1F
100
AcDbEntity
  8
0-7_金物
  6
Continuous
 62
     7
370
     9
100
AcDbLine
 10
2807.919670969673
 20
-765.722004581243
 30
0.0
 11
2796.974403592033
 21
-784.6797637817433
 31
0.0
  0
LINE
  5
4FE
330
1F
100
AcDbEntity
  8
0-7_金物
  6
Continuous
 62
     7
370
     9
100
AcDbLine
 10
2784.008628281854
 20
-980.3919855317431
 30
0.0
 11
2771.042852971675
 21
-784.6797637817433
 31
0.0
  0
LINE
  5
4FF
330
1F
100
AcDbEntity
  8
0-7_金物
  6
Continuous
 62
     7
370
     9
100
AcDbLine
 10
2760.097585594035
 20
-765.722004581243
 30
0.0
 11
2771.042852971675
 21
-784.6797637817433
 31
0.0
  0
ELLIPSE
  5
500
330
1F
100
AcDbEntity
  8
0-7_金物
  6
Continuous
 62
     7
370
     9
100
AcDbEllipse
 10
2784.008628281854
 20
-758.191978981743
 30
0.0
 11
28.25850499469571
 21
0.0
 31
0.0
210
0.0
220
0.0
230
1.0
 40
0.5
 41
0.0
 42
6.283185307179586
  0
LINE
  5
501
330
1F
100
AcDbEntity
  8
0-0_補助線
  6
JWW_HOJO
 62
   120
370
     5
100
AcDbLine
 10
2842.344937729744
 20
-1104.841818829092
 30
0.0
 11
2725.672318833964
 21
-1172.20278675563
 31
0.0
  0
LINE
  5
502
330
1F
100
AcDbEntity
  8
0-0_補助線
  6
JWW_HOJO
 62
   120
370
     5
100
AcDbLine
 10
2741.582221410661
 20
-1114.02740536453
 30
0.0
 11
2826.435035153047
 21
-1163.017200220193
 31
0.0
  0
LINE
  5
503
330
1F
100
AcDbEntity
  8
0-0_補助線
  6
JWW_HOJO
 62
   120
370
     5
100
AcDbLine
 10
2837.754647107463
 20
-1119.739473069441
 30
0.0
 11
2859.918530858554
 21
-1092.594370115177
 31
0.0
  0
LINE
  5
504
330
1F
100
AcDbEntity
  8
0-0_補助線
  6
JWW_HOJO
 62
   120
370
     5
100
AcDbLine
 10
2857.874080435896
 20
-1101.560124836857
 30
0.0
 11
2846.719518636541
 21
-1114.271297503566
 31
0.0
  0
LINE
  5
505
330
1F
100
AcDbEntity
  8
0-0_補助線
  6
JWW_HOJO
 62
   120
370
     5
100
AcDbLine
 10
2732.744931031655
 20
-1138.954286174283
 30
0.0
 11
2710.143176127813
 21
-1101.999788464371
 31
0.0
  0
LINE
  5
506
330
1F
100
AcDbEntity
  8
0-0_補助線
  6
JWW_HOJO
 62
   120
370
     5
100
AcDbLine
 10
2708.098725705157
 20
-1110.965543186051
 30
0.0
 11
2727.152783060703
 21
-1136.286350051533
 31
0.0
  0
LINE
  5
507
330
1F
100
AcDbEntity
  8
0-0_補助線
  6
JWW_HOJO
 62
   120
370
     5
100
AcDbLine
 10
2668.999699938185
 20
-982.3673316899342
 30
0.0
 11
2667.336009386074
 21
-984.4049281612117
 31
0.0
  0
LINE
  5
508
330
1F
100
AcDbEntity
  8
0-0_補助線
  6
JWW_HOJO
 62
   120
370
     5
100
AcDbLine
 10
2725.672318833964
 20
-1086.470645758219
 30
0.0
 11
2746.885522269561
 21
-1135.460440613882
 31
0.0
  0
LINE
  5
509
330
1F
100
AcDbEntity
  8
0-0_補助線
  6
JWW_HOJO
 62
   120
370
     5
100
AcDbLine
 10
2857.874080435896
 20
-1083.628615393495
 30
0.0
 11
2828.896305647223
 21
-1124.853838896084
 31
0.0
  0
LINE
  5
50A
330
1F
100
AcDbEntity
  8
0-0_補助線
  6
JWW_HOJO
 62
   120
370
     5
100
AcDbLine
 10
2825.899292972085
 20
-1120.676462219081
 30
0.0
 11
2851.880055085619
 21
-1075.273862039488
 31
0.0
  0
LINE
  5
50B
330
1F
100
AcDbEntity
  8
0-0_補助線
  6
JWW_HOJO
 62
   120
370
     5
100
AcDbLine
 10
2842.344937729744
 20
-1068.099472687345
 30
0.0
 11
2821.131734294147
 21
-1117.089267543009
 31
0.0
  0
LINE
  5
50C
330
1F
100
AcDbEntity
  8
0-0_補助線
  6
JWW_HOJO
 62
   120
370
     5
100
AcDbLine
 10
2814.918530858552
 20
-1114.336716256924
 30
0.0
 11
2829.918530858552
 21
-1062.594370115177
 31
0.0
  0
LINE
  5
50D
330
1F
100
AcDbEntity
  8
0-0_補助線
  6
JWW_HOJO
 62
   120
370
     5
100
AcDbLine
 10
2815.447673564703
 20
-1059.133717965664
 30
0.0
 11
2807.683102211627
 21
-1112.606390182168
 31
0.0
  0
LINE
  5
50E
330
1F
100
AcDbEntity
  8
0-0_補助線
  6
JWW_HOJO
 62
   120
370
     5
100
AcDbLine
 10
2799.918530858552
 20
-1112.016208181235
 30
0.0
 11
2799.918530858552
 21
-1057.953353963799
 31
0.0
  0
LINE
  5
50F
330
1F
100
AcDbEntity
  8
0-0_補助線
  6
JWW_HOJO
 62
   120
370
     5
100
AcDbLine
 10
2784.3893881524
 20
-1059.133717965664
 30
0.0
 11
2792.153959505476
 21
-1112.606390182168
 31
0.0
  0
LINE
  5
510
330
1F
100
AcDbEntity
  8
0-0_補助線
  6
JWW_HOJO
 62
   120
370
     5
100
AcDbLine
 10
2784.918530858552
 20
-1114.336716256924
 30
0.0
 11
2769.918530858552
 21
-1062.594370115177
 31
0.0
  0
LINE
  5
511
330
1F
100
AcDbEntity
  8
0-0_補助線
  6
JWW_HOJO
 62
   120
370
     5
100
AcDbLine
 10
2757.492123987359
 20
-1068.099472687345
 30
0.0
 11
2778.705327422956
 21
-1117.089267543009
 31
0.0
  0
LINE
  5
512
330
1F
100
AcDbEntity
  8
0-B_寸法
  6
Continuous
 62
   120
370
     5
100
AcDbLine
 10
2578.095204020173
 20
-1330.891245902142
 30
0.0
 11
2515.350644726733
 21
-1367.116834100394
 31
0.0
  0
LINE
  5
513
330
1F
100
AcDbEntity
  8
0-B_寸法
  6
JWW_CENTER1
 62
   120
370
     5
100
AcDbLine
 10
3012.96382609213
 20
-1079.819649987729
 30
0.0
 11
2596.175954973762
 21
-1320.452239572892
 31
0.0
  0
LWPOLYLINE
  5
514
330
1F
100
AcDbEntity
  8
0-B_寸法
  6
Continuous
 62
     7
370
     9
100
AcDbPolyline
 90
        4
 70
     1
 43
3.0
 10
2516.850644726733
 20
-1367.116834100394
 42
0.4142135623731
 10
2515.350644726733
 20
-1365.616834100394
 42
0.4142135623731
 10
2513.850644726733
 20
-1367.116834100394
 42
0.4142135623731
 10
2515.350644726733
 20
-1368.616834100394
 42
0.4142135623731
  0
LINE
  5
515
330
1F
100
AcDbEntity
  8
0-B_寸法
  6
Continuous
 62
   120
370
     5
100
AcDbLine
 10
3103.578843345234
 20
-1231.17038712982
 30
0.0
 11
3155.422284132133
 21
-1261.102211623853
 31
0.0
  0
LINE
  5
516
330
1F
100
AcDbEntity
  8
0-B_寸法
  6
Continuous
 62
   120
370
     5
100
AcDbLine
 10
3241.188358741893
 20
-1211.58514536057
 30
0.0
 11
3155.422284132133
 21
-1261.102211623852
 31
0.0
  0
LWPOLYLINE
  5
517
330
1F
100
AcDbEntity
  8
0-B_寸法
  6
Continuous
 62
     7
370
     9
100
AcDbPolyline
 90
        4
 70
     1
 43
3.0
 10
3156.922284132133
 20
-1261.102211623853
 42
0.4142135623731
 10
3155.422284132133
 20
-1259.602211623853
 42
0.4142135623731
 10
3153.922284132133
 20
-1261.102211623853
 42
0.4142135623731
 10
3155.422284132133
 20
-1262.602211623853
 42
0.4142135623731
  0
LINE
  5
518
330
1F
100
AcDbEntity
  8
0-B_寸法
  6
Continuous
 62
   120
370
     5
100
AcDbLine
 10
3241.188358731655
 20
-1211.585145342834
 30
0.0
 11
3187.362118406661
 21
-1180.508551001734
 31
0.0
  0
LWPOLYLINE
  5
519
330
1F
100
AcDbEntity
  8
0-B_寸法
  6
Continuous
 62
     7
370
     9
100
AcDbPolyline
 90
        4
 70
     1
 43
3.0
 10
3242.688358731655
 20
-1211.585145342834
 42
0.4142135623731
 10
3241.188358731655
 20
-1210.085145342835
 42
0.4142135623731
 10
3239.688358731655
 20
-1211.585145342834
 42
0.4142135623731
 10
3241.188358731655
 20
-1213.085145342834
 42
0.4142135623731
  0
LINE
  5
51A
330
1F
100
AcDbEntity
  8
0-B_寸法
  6
JWW_CENTER1
 62
   120
370
     5
100
AcDbLine
 10
3012.96382609213
 20
-1079.819649987729
 30
0.0
 11
3175.599920183703
 21
-1173.717642691447
 31
0.0
  0
LINE
  5
51B
330
1F
100
AcDbEntity
  8
0-6_扉
  6
Continuous
 62
    40
370
    15
100
AcDbLine
 10
3012.96382609213
 20
-1079.819649987729
 30
0.0
 11
3585.720318853231
 21
-749.1385347120015
 31
0.0
  0
LINE
  5
51C
330
1F
100
AcDbEntity
  8
0-7_金物
  6
Continuous
 62
     7
370
     9
100
AcDbLine
 10
1794.967020447968
 20
-1756.32276568738
 30
0.0
 11
3804.118434757453
 21
-1756.32276568738
 31
0.0
  0
LINE
  5
51D
330
1F
100
AcDbEntity
  8
0-7_金物
  6
Continuous
 62
     7
370
     9
100
AcDbLine
 10
3804.118434757453
 20
-1756.32276568738
 30
0.0
 11
3804.118434757453
 21
-3017.032865353744
 31
0.0
  0
LINE
  5
51E
330
1F
100
AcDbEntity
  8
0-7_金物
  6
Continuous
 62
     7
370
     9
100
AcDbLine
 10
1794.967020447968
 20
-3017.032865353744
 30
0.0
 11
1794.967020447968
 21
-1756.32276568738
 31
0.0
  0
LINE
  5
51F
330
1F
100
AcDbEntity
  8
0-7_金物
  6
Continuous
 62
     7
370
     9
100
AcDbLine
 10
3804.118434757453
 20
-3017.032865353744
 30
0.0
 11
1794.967020447968
 21
-3017.032865353744
 31
0.0
  0
LINE
  5
520
330
1F
100
AcDbEntity
  8
0-A_文字
  6
Continuous
 62
    92
370
    13
100
AcDbLine
 10
3918.054982111204
 20
-3258.848507009291
 30
0.0
 11
3918.054982111204
 21
515.9516453445417
 31
0.0
  0
LINE
  5
521
330
1F
100
AcDbEntity
  8
0-A_文字
  6
Continuous
 62
    92
370
    13
100
AcDbLine
 10
1681.782103575429
 20
-3258.848507009291
 30
0.0
 11
1681.782103575429
 21
515.9516453445417
 31
0.0
  0
LINE
  5
522
330
1F
100
AcDbEntity
  8
0-A_文字
  6
Continuous
 62
    92
370
    13
100
AcDbLine
 10
1681.782103575429
 20
515.9516453445417
 30
0.0
 11
3918.054982111204
 21
515.9516453445417
 31
0.0
  0
LINE
  5
523
330
1F
100
AcDbEntity
  8
0-A_文字
  6
Continuous
 62
    92
370
    13
100
AcDbLine
 10
1681.782103575429
 20
-3258.848507009291
 30
0.0
 11
3918.054982111204
 21
-3258.848507009291
 31
0.0
  0
LINE
  5
524
330
1F
100
AcDbEntity
  8
0-A_文字
  6
Continuous
 62
    92
370
    13
100
AcDbLine
 10
1681.782103575429
 20
335.9516453445417
 30
0.0
 11
3918.054982111204
 21
335.9516453445417
 31
0.0
  0
MTEXT
  5
525
330
1F
100
AcDbEntity
  8
1-B_寸法
  6
Continuous
 62
     7
370
   211
100
AcDbMText
 10
2257.368626037995
 20
-2598.00358040474
 30
0.0
 40
91.44
 41
120.0
 46
0.0
 71
     7
 72
     1
  1
{\fＭＳ ゴシック|b0|i0|c128|p49;30}
 11
6.123031769111886E-17
 21
1.0
 31
0.0
 73
     1
 44
1.0
  0
MTEXT
  5
526
330
1F
100
AcDbEntity
  8
1-B_寸法
  6
Continuous
 62
     7
370
   211
100
AcDbMText
 10
2533.41582333066
 20
-2253.00358040474
 30
0.0
 40
91.44
 41
120.0
 46
0.0
 71
     7
 72
     1
  1
{\fＭＳ ゴシック|b0|i0|c128|p49;15}
 73
     1
 44
1.0
  0
MTEXT
  5
527
330
1F
100
AcDbEntity
  8
1-B_寸法
  6
Continuous
 62
     7
370
   211
100
AcDbMText
 10
2355.275887645077
 20
-2253.00358040474
 30
0.0
 40
91.44
 41
60.0
 46
0.0
 71
     7
 72
     1
  1
{\fＭＳ ゴシック|b0|i0|c128|p49;3}
 73
     1
 44
1.0
  0
MTEXT
  5
528
330
1F
100
AcDbEntity
  8
1-B_寸法
  6
Continuous
 62
     7
370
   211
100
AcDbMText
 10
2499.66582333066
 20
-2000.356338874727
 30
0.0
 40
91.44
 41
120.0
 46
0.0
 71
     7
 72
     1
  1
{\fＭＳ ゴシック|b0|i0|c128|p49;18}
 73
     1
 44
1.0
  0
MTEXT
  5
529
330
1F
100
AcDbEntity
  8
1-A_文字
  6
Continuous
 62
     7
370
     9
100
AcDbMText
 10
2745.878383022593
 20
-2215.807596348866
 30
0.0
 40
68.58
 41
810.0
 46
0.0
 71
     7
 72
     1
  1
{\fＭＳ ゴシック|b0|i0|c128|p49;振れ止め金具(床用)}
 73
     1
 44
1.0
  0
LINE
  5
52A
330
1F
100
AcDbEntity
  8
0-A_文字
  6
Continuous
 62
   120
370
     5
100
AcDbLine
 10
2622.109135047682
 20
-2402.295089279588
 30
0.0
 11
2749.452451742079
 21
-2214.092079904315
 31
0.0
  0
LINE
  5
52B
330
1F
100
AcDbEntity
  8
1-B_寸法
  6
Continuous
 62
   120
370
     5
100
AcDbLine
 10
2694.66582333066
 20
-2823.72358040474
 30
0.0
 11
2694.66582333066
 21
-2943.819716474254
 31
0.0
  0
LWPOLYLINE
  5
52C
330
1F
100
AcDbEntity
  8
1-B_寸法
  6
Continuous
 62
     7
370
     9
100
AcDbPolyline
 90
        4
 70
     1
 43
3.0
 10
2696.165823330659
 20
-2943.819716474254
 42
0.4142135623731
 10
2694.66582333066
 20
-2942.319716474254
 42
0.4142135623731
 10
2693.16582333066
 20
-2943.819716474254
 42
0.4142135623731
 10
2694.66582333066
 20
-2945.319716474254
 42
0.4142135623731
  0
LWPOLYLINE
  5
52D
330
1F
100
AcDbEntity
  8
1-B_寸法
  6
Continuous
 62
     7
370
     9
100
AcDbPolyline
 90
        4
 70
     1
 43
3.0
 10
2273.868626037995
 20
-2748.72358040474
 42
0.4142135623731
 10
2272.368626037995
 20
-2747.22358040474
 42
0.4142135623731
 10
2270.868626037995
 20
-2748.72358040474
 42
0.4142135623731
 10
2272.368626037995
 20
-2750.22358040474
 42
0.4142135623731
  0
LINE
  5
52E
330
1F
100
AcDbEntity
  8
1-B_寸法
  6
Continuous
 62
   120
370
     5
100
AcDbLine
 10
2272.368626037995
 20
-2748.72358040474
 30
0.0
 11
2369.441507414139
 21
-2748.72358040474
 31
0.0
  0
ARC
  5
52F
330
1F
100
AcDbEntity
  8
1-7_金物
  6
Continuous
 62
     7
370
     9
100
AcDbCircle
 10
2432.16582333066
 20
-2441.22358040474
 30
0.0
 40
7.5
100
AcDbArc
 50
90.0
 51
180.0
  0
LINE
  5
530
330
1F
100
AcDbEntity
  8
1-7_金物
  6
Continuous
 62
     7
370
     9
100
AcDbLine
 10
2424.66582333066
 20
-2606.22358040474
 30
0.0
 11
2424.66582333066
 21
-2441.22358040474
 31
0.0
  0
ARC
  5
531
330
1F
100
AcDbEntity
  8
1-7_金物
  6
Continuous
 62
     7
370
     9
100
AcDbCircle
 10
2432.16582333066
 20
-2606.22358040474
 30
0.0
 40
7.5
100
AcDbArc
 50
180.0
 51
270.0
  0
LINE
  5
532
330
1F
100
AcDbEntity
  8
1-7_金物
  6
Continuous
 62
     7
370
     9
100
AcDbLine
 10
2462.16582333066
 20
-2613.72358040474
 30
0.0
 11
2432.16582333066
 21
-2613.72358040474
 31
0.0
  0
ARC
  5
533
330
1F
100
AcDbEntity
  8
1-7_金物
  6
Continuous
 62
     7
370
     9
100
AcDbCircle
 10
2462.16582333066
 20
-2606.22358040474
 30
0.0
 40
7.5
100
AcDbArc
 50
270.0
 51
0.0
  0
LINE
  5
534
330
1F
100
AcDbEntity
  8
1-7_金物
  6
Continuous
 62
     7
370
     9
100
AcDbLine
 10
2462.16582333066
 20
-2433.72358040474
 30
0.0
 11
2432.16582333066
 21
-2433.72358040474
 31
0.0
  0
ARC
  5
535
330
1F
100
AcDbEntity
  8
1-7_金物
  6
Continuous
 62
     7
370
     9
100
AcDbCircle
 10
2462.16582333066
 20
-2441.22358040474
 30
0.0
 40
7.5
100
AcDbArc
 50
0.0
 51
90.0
  0
ARC
  5
536
330
1F
100
AcDbEntity
  8
1-7_金物
  6
Continuous
 62
     7
370
     9
100
AcDbCircle
 10
2499.66582333066
 20
-2328.72358040474
 30
0.0
 40
30.0
100
AcDbArc
 50
90.0
 51
180.0
  0
LINE
  5
537
330
1F
100
AcDbEntity
  8
1-7_金物
  6
Continuous
 62
     7
370
     9
100
AcDbLine
 10
2469.66582333066
 20
-2718.72358040474
 30
0.0
 11
2469.66582333066
 21
-2328.72358040474
 31
0.0
  0
ARC
  5
538
330
1F
100
AcDbEntity
  8
1-7_金物
  6
Continuous
 62
     7
370
     9
100
AcDbCircle
 10
2499.66582333066
 20
-2718.72358040474
 30
0.0
 40
30.0
100
AcDbArc
 50
180.0
 51
270.0
  0
ARC
  5
539
330
1F
100
AcDbEntity
  8
1-7_金物
  6
Continuous
 62
     7
370
     9
100
AcDbCircle
 10
2664.66582333066
 20
-2328.72358040474
 30
0.0
 40
30.0
100
AcDbArc
 50
0.0
 51
90.0
  0
LINE
  5
53A
330
1F
100
AcDbEntity
  8
1-7_金物
  6
Continuous
 62
     7
370
     9
100
AcDbLine
 10
2694.66582333066
 20
-2718.72358040474
 30
0.0
 11
2694.66582333066
 21
-2328.72358040474
 31
0.0
  0
ARC
  5
53B
330
1F
100
AcDbEntity
  8
1-7_金物
  6
Continuous
 62
     7
370
     9
100
AcDbCircle
 10
2664.66582333066
 20
-2718.72358040474
 30
0.0
 40
30.0
100
AcDbArc
 50
270.0
 51
0.0
  0
LINE
  5
53C
330
1F
100
AcDbEntity
  8
1-7_金物
  6
Continuous
 62
     7
370
     9
100
AcDbLine
 10
2664.66582333066
 20
-2748.72358040474
 30
0.0
 11
2499.66582333066
 21
-2748.72358040474
 31
0.0
  0
LINE
  5
53D
330
1F
100
AcDbEntity
  8
1-7_金物
  6
Continuous
 62
     7
370
     9
100
AcDbLine
 10
2499.66582333066
 20
-2298.72358040474
 30
0.0
 11
2664.66582333066
 21
-2298.72358040474
 31
0.0
  0
ARC
  5
53E
330
1F
100
AcDbEntity
  8
1-7_金物
  6
Continuous
 62
     7
370
     9
100
AcDbCircle
 10
2604.66582333066
 20
-2658.72358040474
 30
0.0
 40
60.0
100
AcDbArc
 50
270.0
 51
90.0
  0
ARC
  5
53F
330
1F
100
AcDbEntity
  8
1-7_金物
  6
Continuous
 62
     7
370
     9
100
AcDbCircle
 10
2604.66582333066
 20
-2388.72358040474
 30
0.0
 40
60.0
100
AcDbArc
 50
270.0
 51
90.0
  0
ARC
  5
540
330
1F
100
AcDbEntity
  8
1-7_金物
  6
Continuous
 62
     7
370
     9
100
AcDbCircle
 10
2604.66582333066
 20
-2388.72358040474
 30
0.0
 40
30.0
100
AcDbArc
 50
270.0
 51
90.0
  0
ARC
  5
541
330
1F
100
AcDbEntity
  8
1-7_金物
  6
Continuous
 62
     7
370
     9
100
AcDbCircle
 10
2604.66582333066
 20
-2658.72358040474
 30
0.0
 40
30.0
100
AcDbArc
 50
270.0
 51
90.0
  0
ARC
  5
542
330
1F
100
AcDbEntity
  8
1-7_金物
  6
Continuous
 62
     7
370
     9
100
AcDbCircle
 10
2559.66582333066
 20
-2388.72358040474
 30
0.0
 40
60.0
100
AcDbArc
 50
90.0
 51
270.0
  0
ARC
  5
543
330
1F
100
AcDbEntity
  8
1-7_金物
  6
Continuous
 62
     7
370
     9
100
AcDbCircle
 10
2559.66582333066
 20
-2388.72358040474
 30
0.0
 40
30.0
100
AcDbArc
 50
90.0
 51
270.0
  0
ARC
  5
544
330
1F
100
AcDbEntity
  8
1-7_金物
  6
Continuous
 62
     7
370
     9
100
AcDbCircle
 10
2559.66582333066
 20
-2658.72358040474
 30
0.0
 40
60.0
100
AcDbArc
 50
90.0
 51
270.0
  0
ARC
  5
545
330
1F
100
AcDbEntity
  8
1-7_金物
  6
Continuous
 62
     7
370
     9
100
AcDbCircle
 10
2559.66582333066
 20
-2658.72358040474
 30
0.0
 40
30.0
100
AcDbArc
 50
90.0
 51
270.0
  0
LINE
  5
546
330
1F
100
AcDbEntity
  8
1-7_金物
  6
Continuous
 62
     7
370
     9
100
AcDbLine
 10
2559.66582333066
 20
-2418.72358040474
 30
0.0
 11
2604.66582333066
 21
-2418.72358040474
 31
0.0
  0
LINE
  5
547
330
1F
100
AcDbEntity
  8
1-7_金物
  6
Continuous
 62
     7
370
     9
100
AcDbLine
 10
2604.66582333066
 20
-2358.72358040474
 30
0.0
 11
2559.66582333066
 21
-2358.72358040474
 31
0.0
  0
LINE
  5
548
330
1F
100
AcDbEntity
  8
1-7_金物
  6
Continuous
 62
     7
370
     9
100
AcDbLine
 10
2604.66582333066
 20
-2328.72358040474
 30
0.0
 11
2559.66582333066
 21
-2328.72358040474
 31
0.0
  0
LINE
  5
549
330
1F
100
AcDbEntity
  8
1-7_金物
  6
Continuous
 62
     7
370
     9
100
AcDbLine
 10
2604.66582333066
 20
-2448.72358040474
 30
0.0
 11
2559.66582333066
 21
-2448.72358040474
 31
0.0
  0
LINE
  5
54A
330
1F
100
AcDbEntity
  8
1-7_金物
  6
Continuous
 62
     7
370
     9
100
AcDbLine
 10
2559.66582333066
 20
-2718.72358040474
 30
0.0
 11
2604.66582333066
 21
-2718.72358040474
 31
0.0
  0
LINE
  5
54B
330
1F
100
AcDbEntity
  8
1-7_金物
  6
Continuous
 62
     7
370
     9
100
AcDbLine
 10
2559.66582333066
 20
-2688.72358040474
 30
0.0
 11
2604.66582333066
 21
-2688.72358040474
 31
0.0
  0
LINE
  5
54C
330
1F
100
AcDbEntity
  8
1-7_金物
  6
Continuous
 62
     7
370
     9
100
AcDbLine
 10
2604.66582333066
 20
-2628.72358040474
 30
0.0
 11
2559.66582333066
 21
-2628.72358040474
 31
0.0
  0
LINE
  5
54D
330
1F
100
AcDbEntity
  8
1-7_金物
  6
Continuous
 62
     7
370
     9
100
AcDbLine
 10
2559.66582333066
 20
-2598.72358040474
 30
0.0
 11
2604.66582333066
 21
-2598.72358040474
 31
0.0
  0
LWPOLYLINE
  5
54E
330
1F
100
AcDbEntity
  8
1-B_寸法
  6
Continuous
 62
     7
370
     9
100
AcDbPolyline
 90
        4
 70
     1
 43
3.0
 10
2273.868626037995
 20
-2298.72358040474
 42
0.4142135623731
 10
2272.368626037995
 20
-2297.22358040474
 42
0.4142135623731
 10
2270.868626037995
 20
-2298.72358040474
 42
0.4142135623731
 10
2272.368626037995
 20
-2300.22358040474
 42
0.4142135623731
  0
LINE
  5
54F
330
1F
100
AcDbEntity
  8
1-B_寸法
  6
Continuous
 62
   120
370
     5
100
AcDbLine
 10
2272.368626037995
 20
-2298.72358040474
 30
0.0
 11
2369.441507414139
 21
-2298.72358040474
 31
0.0
  0
LINE
  5
550
330
1F
100
AcDbEntity
  8
1-B_寸法
  6
Continuous
 62
   120
370
     5
100
AcDbLine
 10
2272.368626037995
 20
-2748.72358040474
 30
0.0
 11
2272.368626037995
 21
-2298.72358040474
 31
0.0
  0
LWPOLYLINE
  5
551
330
1F
100
AcDbEntity
  8
1-B_寸法
  6
Continuous
 62
     7
370
     9
100
AcDbPolyline
 90
        4
 70
     1
 43
3.0
 10
2696.165823330659
 20
-2001.076338874727
 42
0.4142135623731
 10
2694.66582333066
 20
-1999.576338874727
 42
0.4142135623731
 10
2693.16582333066
 20
-2001.076338874727
 42
0.4142135623731
 10
2694.66582333066
 20
-2002.576338874727
 42
0.4142135623731
  0
LINE
  5
552
330
1F
100
AcDbEntity
  8
1-B_寸法
  6
Continuous
 62
   120
370
     5
100
AcDbLine
 10
2694.66582333066
 20
-2001.076338874727
 30
0.0
 11
2694.66582333066
 21
-2103.72358040474
 31
0.0
  0
LINE
  5
553
330
1F
100
AcDbEntity
  8
1-B_寸法
  6
Continuous
 62
   120
370
     5
100
AcDbLine
 10
2424.66582333066
 20
-2001.076338874727
 30
0.0
 11
2694.66582333066
 21
-2001.076338874727
 31
0.0
  0
LWPOLYLINE
  5
554
330
1F
100
AcDbEntity
  8
1-B_寸法
  6
Continuous
 62
     7
370
     9
100
AcDbPolyline
 90
        4
 70
     1
 43
3.0
 10
2426.165823330659
 20
-2001.076338874727
 42
0.4142135623731
 10
2424.66582333066
 20
-1999.576338874727
 42
0.4142135623731
 10
2423.16582333066
 20
-2001.076338874727
 42
0.4142135623731
 10
2424.66582333066
 20
-2002.576338874727
 42
0.4142135623731
  0
LINE
  5
555
330
1F
100
AcDbEntity
  8
1-B_寸法
  6
Continuous
 62
   120
370
     5
100
AcDbLine
 10
2424.66582333066
 20
-2001.076338874727
 30
0.0
 11
2424.66582333066
 21
-2103.72358040474
 31
0.0
  0
LWPOLYLINE
  5
556
330
1F
100
AcDbEntity
  8
1-B_寸法
  6
Continuous
 62
     7
370
     9
100
AcDbPolyline
 90
        4
 70
     1
 43
3.0
 10
2426.165823330659
 20
-2103.72358040474
 42
0.4142135623731
 10
2424.66582333066
 20
-2102.22358040474
 42
0.4142135623731
 10
2423.16582333066
 20
-2103.72358040474
 42
0.4142135623731
 10
2424.66582333066
 20
-2105.22358040474
 42
0.4142135623731
  0
LWPOLYLINE
  5
557
330
1F
100
AcDbEntity
  8
1-B_寸法
  6
Continuous
 62
     7
370
     9
100
AcDbPolyline
 90
        4
 70
     1
 43
3.0
 10
2471.165823330659
 20
-2103.72358040474
 42
0.4142135623731
 10
2469.66582333066
 20
-2102.22358040474
 42
0.4142135623731
 10
2468.16582333066
 20
-2103.72358040474
 42
0.4142135623731
 10
2469.66582333066
 20
-2105.22358040474
 42
0.4142135623731
  0
LINE
  5
558
330
1F
100
AcDbEntity
  8
1-B_寸法
  6
Continuous
 62
   120
370
     5
100
AcDbLine
 10
2424.66582333066
 20
-2103.72358040474
 30
0.0
 11
2424.66582333066
 21
-2223.72358040474
 31
0.0
  0
LINE
  5
559
330
1F
100
AcDbEntity
  8
1-B_寸法
  6
Continuous
 62
   120
370
     5
100
AcDbLine
 10
2469.66582333066
 20
-2103.72358040474
 30
0.0
 11
2469.66582333066
 21
-2223.72358040474
 31
0.0
  0
LINE
  5
55A
330
1F
100
AcDbEntity
  8
1-B_寸法
  6
Continuous
 62
   120
370
     5
100
AcDbLine
 10
2469.66582333066
 20
-2103.72358040474
 30
0.0
 11
2694.66582333066
 21
-2103.72358040474
 31
0.0
  0
LWPOLYLINE
  5
55B
330
1F
100
AcDbEntity
  8
1-B_寸法
  6
Continuous
 62
     7
370
     9
100
AcDbPolyline
 90
        4
 70
     1
 43
3.0
 10
2696.165823330659
 20
-2103.72358040474
 42
0.4142135623731
 10
2694.66582333066
 20
-2102.22358040474
 42
0.4142135623731
 10
2693.16582333066
 20
-2103.72358040474
 42
0.4142135623731
 10
2694.66582333066
 20
-2105.22358040474
 42
0.4142135623731
  0
LINE
  5
55C
330
1F
100
AcDbEntity
  8
1-B_寸法
  6
Continuous
 62
   120
370
     5
100
AcDbLine
 10
2694.66582333066
 20
-2103.72358040474
 30
0.0
 11
2694.66582333066
 21
-2223.72358040474
 31
0.0
  0
LINE
  5
55D
330
1F
100
AcDbEntity
  8
1-B_寸法
  6
Continuous
 62
   120
370
     5
100
AcDbLine
 10
2355.275887645077
 20
-2103.72358040474
 30
0.0
 11
2469.66582333066
 21
-2103.72358040474
 31
0.0
  0
LINE
  5
55E
330
1F
100
AcDbEntity
  8
1-4_枠
  6
JWW_CENTER1
 62
   120
370
     5
100
AcDbLine
 10
2582.16582333066
 20
-2298.72358040474
 30
0.0
 11
2582.16582333066
 21
-2748.72358040474
 31
0.0
  0
MTEXT
  5
55F
330
1F
100
AcDbEntity
  8
0-B_寸法
  6
Continuous
 62
     7
370
     0
100
AcDbMText
 10
-1473.686266479557
 20
2526.68216897379
 30
0.0
 40
91.43999999999997
 41
660.0
 46
0.0
 71
     7
 72
     1
  1
{\fＭＳ ゴシック|b0|i0|c128|p49;ＤＷ＝1,158}
 73
     1
 44
1.0
  0
MTEXT
  5
560
330
1F
100
AcDbEntity
  8
0-B_寸法
  6
Continuous
 62
     7
370
   211
100
AcDbMText
 10
-1988.186266479554
 20
1473.096379332496
 30
0.0
 40
102.2684210526316
 41
1275.0
 46
0.0
 71
     7
 72
     1
  1
{\fＭＳ ゴシック|b0|i0|c128|p49;有効開口寸法＝1,000}
 73
     1
 44
1.0
  0
MTEXT
  5
561
330
1F
100
AcDbEntity
  8
0-B_寸法
  6
Continuous
 62
     7
370
   211
100
AcDbMText
 10
1205.523352166184
 20
1472.25416880618
 30
0.0
 40
100.584
 41
330.0
 46
0.0
 71
     7
 72
     1
  1
{\fＭＳ ゴシック|b0|i0|c128|p49;1,000}
 73
     1
 44
1.0
  0
MTEXT
  5
562
330
1F
100
AcDbEntity
  8
0-B_寸法
  6
Continuous
 62
     7
370
   211
100
AcDbMText
 10
-217.2671013008991
 20
1262.877623351635
 30
0.0
 40
101.8309090909091
 41
735.0
 46
0.0
 71
     7
 72
     1
  1
{\fＭＳ ゴシック|b0|i0|c128|p49;枠内＝2,155}
 73
     1
 44
1.0
  0
MTEXT
  5
563
330
1F
100
AcDbEntity
  8
0-B_寸法
  6
Continuous
 62
     7
370
   211
100
AcDbMText
 10
-217.2671013008991
 20
1052.877623351635
 30
0.0
 40
101.8309090909091
 41
735.0
 46
0.0
 71
     7
 72
     1
  1
{\fＭＳ ゴシック|b0|i0|c128|p49;枠外＝2,215}
 73
     1
 44
1.0
  0
LINE
  5
564
330
1F
100
AcDbEntity
  8
0-A_文字
  6
Continuous
 62
    92
370
    13
100
AcDbLine
 10
-5618.990315918843
 20
4000.00018145587
 30
0.0
 11
-5618.990315918843
 21
3730.00018145587
 31
0.0
  0
MTEXT
  5
565
330
1F
100
AcDbEntity
  8
0-A_文字
  6
Continuous
 62
    92
370
    13
100
AcDbMText
 10
-5547.740315918843
 20
3759.002104532794
 30
0.0
 40
148.0038461538462
 41
3787.500000000002
 46
0.0
 71
     7
 72
     1
  1
{\fＭＳ ゴシック|b0|i0|c128|p49;幅広片引き戸　上吊りタイプ　固定枠113巾}
 73
     1
 44
1.0
  0
LINE
  5
566
330
1F
100
AcDbEntity
  8
0-A_文字
  6
Continuous
 62
    92
370
    13
100
AcDbLine
 10
-5618.990315918843
 20
4000.00018145587
 30
0.0
 11
-1692.857142857142
 21
4000.00018145587
 31
0.0
  0
LINE
  5
567
330
1F
100
AcDbEntity
  8
0-A_文字
  6
Continuous
 62
    92
370
    13
100
AcDbLine
 10
-5618.990315918843
 20
3730.00018145587
 30
0.0
 11
-1692.857142857142
 21
3730.00018145587
 31
0.0
  0
LINE
  5
568
330
1F
100
AcDbEntity
  8
0-A_文字
  6
Continuous
 62
    92
370
    13
100
AcDbLine
 10
-1692.857142857142
 20
4000.00018145587
 30
0.0
 11
-1692.857142857142
 21
3730.00018145587
 31
0.0
  0
MTEXT
  5
569
330
1F
100
AcDbEntity
  8
F-1_枠
  6
Continuous
 62
     7
370
     0
100
AcDbMText
 10
-5080.08132364228
 20
-4045.073223749623
 30
0.0
 40
79.85342465753419
 41
3825.0
 46
0.0
 71
     7
 72
     1
  1
{\fＭＳ ゴシック|b0|i0|c128|p49;ドレタス　幅広片引き戸　上吊りタイプ　固定枠113巾　枠外H2,035　枠外W2,215}
 73
     1
 44
1.0
  0
MTEXT
  5
56A
330
1F
100
AcDbEntity
  8
F-1_枠
  6
Continuous
 62
     7
370
     9
100
AcDbMText
 10
5096.167700144058
 20
-4147.857012699985
 30
0.0
 40
74.295
 41
97.5
 46
0.0
 71
     7
 72
     1
  1
{\fＭＳ ゴシック|b0|i0|c128|p49;03}
 73
     1
 44
1.0
  0
MTEXT
  5
56B
330
1F
100
AcDbEntity
  8
F-1_枠
  6
Continuous
 62
     7
370
     0
100
AcDbMText
 10
4938.667793092893
 20
-3938.071010139966
 30
0.0
 40
78.86699999999999
 41
517.5
 46
0.0
 71
     7
 72
     1
  1
{\fＭＳ ゴシック|b0|i0|c128|p49;2022.04.01}
 73
     1
 44
1.0
  0
MTEXT
  5
56C
330
1F
100
AcDbEntity
  8
0-B_寸法
  6
Continuous
 62
     7
370
   211
100
AcDbMText
 10
-3154.217895871216
 20
-1513.953503350413
 30
0.0
 40
91.44
 41
120.0
 46
0.0
 71
     7
 72
     1
  1
{\fＭＳ ゴシック|b0|i0|c128|p49;30}
 73
     1
 44
1.0
  0
LINE
  5
56D
330
1F
100
AcDbEntity
  8
0-B_寸法
  6
Continuous
 62
   120
370
     5
100
AcDbLine
 10
-3184.217895871216
 20
-1514.673503350413
 30
0.0
 11
-3004.217895871216
 21
-1514.673503350413
 31
0.0
  0
LWPOLYLINE
  5
56E
330
1F
100
AcDbEntity
  8
0-B_寸法
  6
Continuous
 62
     7
370
     9
100
AcDbPolyline
 90
        4
 70
     1
 43
3.0
 10
-3182.717895871216
 20
-1514.673503350413
 42
0.4142135623731
 10
-3184.217895871216
 20
-1513.173503350413
 42
0.4142135623731
 10
-3185.717895871216
 20
-1514.673503350413
 42
0.4142135623731
 10
-3184.217895871216
 20
-1516.173503350413
 42
0.4142135623731
  0
LWPOLYLINE
  5
56F
330
1F
100
AcDbEntity
  8
0-B_寸法
  6
Continuous
 62
     7
370
     9
100
AcDbPolyline
 90
        4
 70
     1
 43
3.0
 10
-3002.717895871216
 20
-1514.673503350413
 42
0.4142135623731
 10
-3004.217895871216
 20
-1513.173503350413
 42
0.4142135623731
 10
-3005.717895871216
 20
-1514.673503350413
 42
0.4142135623731
 10
-3004.217895871216
 20
-1516.173503350413
 42
0.4142135623731
  0
LINE
  5
570
330
1F
100
AcDbEntity
  8
0-B_寸法
  6
Continuous
 62
   120
370
     5
100
AcDbLine
 10
-3208.217896424571
 20
-1754.673503350413
 30
0.0
 11
-3094.21789642457
 21
-1754.673503350413
 31
0.0
  0
LWPOLYLINE
  5
571
330
1F
100
AcDbEntity
  8
0-B_寸法
  6
Continuous
 62
     7
370
     9
100
AcDbPolyline
 90
        4
 70
     1
 43
3.0
 10
-3206.717896424571
 20
-1754.673503350413
 42
0.4142135623731
 10
-3208.217896424571
 20
-1753.173503350413
 42
0.4142135623731
 10
-3209.717896424571
 20
-1754.673503350413
 42
0.4142135623731
 10
-3208.217896424571
 20
-1756.173503350413
 42
0.4142135623731
  0
LWPOLYLINE
  5
572
330
1F
100
AcDbEntity
  8
0-B_寸法
  6
Continuous
 62
     7
370
     9
100
AcDbPolyline
 90
        4
 70
     1
 43
3.0
 10
-3092.71789642457
 20
-1754.673503350413
 42
0.4142135623731
 10
-3094.21789642457
 20
-1753.173503350413
 42
0.4142135623731
 10
-3095.717896424569
 20
-1754.673503350413
 42
0.4142135623731
 10
-3094.21789642457
 20
-1756.173503350413
 42
0.4142135623731
  0
MTEXT
  5
573
330
1F
100
AcDbEntity
  8
0-B_寸法
  6
Continuous
 62
     7
370
   211
100
AcDbMText
 10
-3214.96789642457
 20
-1766.096003350413
 30
0.0
 40
97.15499999999999
 41
127.5
 46
0.0
 71
     7
 72
     1
  1
{\fＭＳ ゴシック|b0|i0|c128|p49;19}
 73
     1
 44
1.0
  0
LINE
  5
574
330
1F
100
AcDbEntity
  8
0-1_通り芯
  6
JWW_CENTER1
 62
   120
370
     5
100
AcDbLine
 10
-3208.217896424571
 20
-3422.650402180416
 30
0.0
 11
-3208.217896424571
 21
-210.8485070092919
 31
0.0
  0
LINE
  5
575
330
1F
100
AcDbEntity
  8
0-1_通り芯
  6
JWW_CENTER1
 62
   120
370
     5
100
AcDbLine
 10
-3094.21789642457
 20
-3186.848713271374
 30
0.0
 11
-3094.21789642457
 21
-642.8485070093155
 31
0.0
  0
LINE
  5
576
330
1F
100
AcDbEntity
  8
0-B_寸法
  6
JWW_CENTER1
 62
   120
370
     5
100
AcDbLine
 10
2332.128754819329
 20
2600.96216897379
 30
0.0
 11
-2312.290927021405
 21
2600.96216897379
 31
0.0
  0
LINE
  5
577
330
1F
100
AcDbEntity
  8
0-B_寸法
  6
Continuous
 62
   120
370
     5
100
AcDbLine
 10
-1584.806330695543
 20
2600.96216897379
 30
0.0
 11
-1584.806330695543
 21
2486.962168973789
 31
0.0
  0
LWPOLYLINE
  5
578
330
1F
100
AcDbEntity
  8
0-B_寸法
  6
Continuous
 62
     7
370
     9
100
AcDbPolyline
 90
        4
 70
     1
 43
3.0
 10
-1583.306330695543
 20
2600.96216897379
 42
0.4142135623731
 10
-1584.806330695543
 20
2602.46216897379
 42
0.4142135623731
 10
-1586.306330695543
 20
2600.96216897379
 42
0.4142135623731
 10
-1584.806330695543
 20
2599.46216897379
 42
0.4142135623731
  0
LWPOLYLINE
  5
579
330
1F
100
AcDbEntity
  8
0-B_寸法
  6
Continuous
 62
     7
370
     9
100
AcDbPolyline
 90
        4
 70
     1
 43
3.0
 10
-1583.306330695543
 20
2486.962168973789
 42
0.4142135623731
 10
-1584.806330695543
 20
2488.462168973789
 42
0.4142135623731
 10
-1586.306330695543
 20
2486.962168973789
 42
0.4142135623731
 10
-1584.806330695543
 20
2485.462168973789
 42
0.4142135623731
  0
MTEXT
  5
57A
330
1F
100
AcDbEntity
  8
0-B_寸法
  6
Continuous
 62
     7
370
   211
100
AcDbMText
 10
-1584.806330695543
 20
2468.789668973789
 30
0.0
 40
97.15499999999999
 41
127.5
 46
0.0
 71
     7
 72
     1
  1
{\fＭＳ ゴシック|b0|i0|c128|p49;19}
 11
6.123031769111886E-17
 21
1.0
 31
0.0
 73
     1
 44
1.0
  0
LINE
  5
57B
330
1F
100
AcDbEntity
  8
0-B_寸法
  6
Continuous
 62
   120
370
     5
100
AcDbLine
 10
110.6908107777511
 20
2510.96216897379
 30
0.0
 11
110.6908107777511
 21
2147.96216897379
 31
0.0
  0
ENDSEC
  0
SECTION
  2
OBJECTS
  0
DICTIONARY
  5
C
330
0
100
AcDbDictionary
281
     1
  3
ACAD_GROUP
350
D
  3
ACAD_LAYOUT
350
1A
  3
ACAD_MATERIAL
350
3B
  3
ACAD_MLEADERSTYLE
350
57D
  3
ACAD_MLINESTYLE
350
17
  3
ACAD_PLOTSETTINGS
350
19
  3
ACAD_PLOTSTYLENAME
350
E
  3
ACAD_TABLESTYLE
350
57C
  3
ACAD_VISUALSTYLE
350
2A
  0
DICTIONARY
  5
D
102
{ACAD_REACTORS
330
C
102
}
330
C
100
AcDbDictionary
281
     1
  0
DICTIONARY
  5
1A
102
{ACAD_REACTORS
330
C
102
}
330
C
100
AcDbDictionary
281
     1
  3
Layout1
350
1E
  3
Layout2
350
26
  3
Model
350
22
  0
DICTIONARY
  5
3B
102
{ACAD_REACTORS
330
C
102
}
330
C
100
AcDbDictionary
281
     1
  3
ByBlock
350
3D
  3
ByLayer
350
3C
  3
Global
350
3E
  0
DICTIONARY
  5
57D
102
{ACAD_REACTORS
330
C
102
}
330
C
100
AcDbDictionary
281
     1
  0
DICTIONARY
  5
17
102
{ACAD_REACTORS
330
C
102
}
330
C
100
AcDbDictionary
281
     1
  3
Standard
350
18
  0
DICTIONARY
  5
19
102
{ACAD_REACTORS
330
C
102
}
330
C
100
AcDbDictionary
281
     1
  0
ACDBDICTIONARYWDFLT
  5
E
102
{ACAD_REACTORS
330
C
102
}
330
C
100
AcDbDictionary
281
     1
  3
Normal
350
F
100
AcDbDictionaryWithDefault
340
F
  0
DICTIONARY
  5
57C
102
{ACAD_REACTORS
330
C
102
}
330
C
100
AcDbDictionary
281
     1
  0
DICTIONARY
  5
2A
102
{ACAD_REACTORS
330
C
102
}
330
C
100
AcDbDictionary
281
     1
  3
2dWireframe
350
2F
  3
3D Hidden
350
31
  3
3dWireframe
350
30
  3
Basic
350
32
  3
Brighten
350
36
  3
ColorChange
350
3A
  3
Conceptual
350
34
  3
Dim
350
35
  3
Facepattern
350
39
  3
Flat
350
2B
  3
FlatWithEdges
350
2C
  3
Gouraud
350
2D
  3
GouraudWithEdges
350
2E
  3
Linepattern
350
38
  3
Realistic
350
33
  3
Thicken
350
37
  0
LAYOUT
  5
1E
102
{ACAD_REACTORS
330
1A
102
}
330
1A
100
AcDbPlotSettings
  1

  2
none_device
  4

  6

 40
0.0
 41
0.0
 42
0.0
 43
0.0
 44
0.0
 45
0.0
 46
0.0
 47
0.0
 48
0.0
 49
0.0
140
0.0
141
0.0
142
1.0
143
1.0
 70
   688
 72
     0
 73
     0
 74
     5
  7

 75
    16
 76
     0
 77
     5
 78
   300
147
1.0
148
0.0
149
0.0
100
AcDbLayout
  1
Layout1
 70
     1
 71
     1
 10
0.0
 20
0.0
 11
420.0
 21
297.0
 12
0.0
 22
0.0
 32
0.0
 14
1.000000000000000E+20
 24
1.000000000000000E+20
 34
1.000000000000000E+20
 15
-1.000000000000000E+20
 25
-1.000000000000000E+20
 35
-1.000000000000000E+20
146
0.0
 13
0.0
 23
0.0
 33
0.0
 16
1.0
 26
0.0
 36
0.0
 17
0.0
 27
1.0
 37
0.0
 76
     0
330
1B
  0
LAYOUT
  5
26
102
{ACAD_REACTORS
330
1A
102
}
330
1A
100
AcDbPlotSettings
  1

  2
none_device
  4

  6

 40
0.0
 41
0.0
 42
0.0
 43
0.0
 44
0.0
 45
0.0
 46
0.0
 47
0.0
 48
0.0
 49
0.0
140
0.0
141
0.0
142
1.0
143
1.0
 70
   688
 72
     0
 73
     0
 74
     5
  7

 75
    16
 76
     0
 77
     5
 78
   300
147
1.0
148
0.0
149
0.0
100
AcDbLayout
  1
Layout2
 70
     1
 71
     2
 10
0.0
 20
0.0
 11
0.0
 21
0.0
 12
0.0
 22
0.0
 32
0.0
 14
0.0
 24
0.0
 34
0.0
 15
0.0
 25
0.0
 35
0.0
146
0.0
 13
0.0
 23
0.0
 33
0.0
 16
1.0
 26
0.0
 36
0.0
 17
0.0
 27
1.0
 37
0.0
 76
     0
330
23
  0
LAYOUT
  5
22
102
{ACAD_REACTORS
330
1A
102
}
330
1A
100
AcDbPlotSettings
  1

  2
none_device
  4

  6

 40
0.0
 41
0.0
 42
0.0
 43
0.0
 44
0.0
 45
0.0
 46
0.0
 47
0.0
 48
0.0
 49
0.0
140
0.0
141
0.0
142
1.0
143
1.0
 70
  1712
 72
     0
 73
     0
 74
     0
  7

 75
     0
 76
     0
 77
     5
 78
   300
147
1.0
148
0.0
149
0.0
100
AcDbLayout
  1
Model
 70
     1
 71
     0
 10
-8910.0
 20
-6300.0
 11
8910.0
 21
6300.0
 12
0.0
 22
0.0
 32
0.0
 14
-8910.0
 24
-6300.0
 34
0.0
 15
8910.0
 25
6300.0
 35
0.0
146
0.0
 13
0.0
 23
0.0
 33
0.0
 16
1.0
 26
0.0
 36
0.0
 17
0.0
 27
1.0
 37
0.0
 76
     0
330
1F
331
29
  0
MATERIAL
  5
3D
102
{ACAD_REACTORS
330
3B
102
}
330
3B
100
AcDbMaterial
  1
ByBlock
 72
     1
 94
      127
  0
MATERIAL
  5
3C
102
{ACAD_REACTORS
330
3B
102
}
330
3B
100
AcDbMaterial
  1
ByLayer
 72
     1
 94
      127
  0
MATERIAL
  5
3E
102
{ACAD_REACTORS
330
3B
102
}
330
3B
100
AcDbMaterial
  1
Global
 72
     1
 94
      127
  0
MLINESTYLE
  5
18
102
{ACAD_REACTORS
330
17
102
}
330
17
100
AcDbMlineStyle
  2
Standard
 70
     0
  3

 62
   256
 51
90.0
 52
90.0
 71
     2
 49
0.5
 62
   256
  6
BYLAYER
 49
-0.5
 62
   256
  6
BYLAYER
  0
ACDBPLACEHOLDER
  5
F
102
{ACAD_REACTORS
330
E
102
}
330
E
  0
VISUALSTYLE
  5
2F
102
{ACAD_REACTORS
330
2A
102
}
330
2A
100
AcDbVisualStyle
  2
2dWireframe
 70
     4
177
     2
291
     0
 71
     0
176
     1
 72
     2
176
     1
 73
     0
176
     1
 90
        0
176
     1
 40
-0.6
176
     1
 41
-30.0
176
     1
 62
     5
 63
     7
421
 16777215
176
     1
 74
     1
176
     1
 91
        4
176
     1
 64
     7
176
     1
 65
   257
176
     1
 75
     1
176
     1
175
     1
176
     1
 42
1.0
176
     1
 92
        0
176
     1
 66
   257
176
     1
 43
1.0
176
     1
 76
     1
176
     1
 77
     6
176
     1
 78
     2
176
     1
 67
     7
176
     1
 79
     5
176
     1
170
     0
176
     1
171
     0
176
     1
290
     0
176
     1
 93
        1
176
     1
 44
0.0
176
     1
173
     0
176
     1
  0
VISUALSTYLE
  5
31
102
{ACAD_REACTORS
330
2A
102
}
330
2A
100
AcDbVisualStyle
  2
3D Hidden
 70
     6
177
     2
291
     0
 71
     1
176
     1
 72
     2
176
     1
 73
     2
176
     1
 90
        0
176
     1
 40
-0.6
176
     1
 41
-30.0
176
     1
 62
     5
 63
     7
421
 16777215
176
     1
 74
     2
176
     1
 91
        2
176
     1
 64
     7
176
     1
 65
   257
176
     1
 75
     2
176
     1
175
     1
176
     1
 42
40.0
176
     1
 92
        0
176
     1
 66
   257
176
     1
 43
1.0
176
     1
 76
     1
176
     1
 77
     6
176
     1
 78
     2
176
     1
 67
     7
176
     1
 79
     3
176
     1
170
     0
176
     1
171
     0
176
     1
290
     0
176
     1
 93
        1
176
     1
 44
0.0
176
     1
173
     0
176
     1
  0
VISUALSTYLE
  5
30
102
{ACAD_REACTORS
330
2A
102
}
330
2A
100
AcDbVisualStyle
  2
3dWireframe
 70
     5
177
     2
291
     0
 71
     0
176
     1
 72
     2
176
     1
 73
     0
176
     1
 90
        0
176
     1
 40
-0.6
176
     1
 41
-30.0
176
     1
 62
     5
 63
     7
421
 16777215
176
     1
 74
     1
176
     1
 91
        4
176
     1
 64
     7
176
     1
 65
   257
176
     1
 75
     1
176
     1
175
     1
176
     1
 42
1.0
176
     1
 92
        0
176
     1
 66
   257
176
     1
 43
1.0
176
     1
 76
     1
176
     1
 77
     6
176
     1
 78
     2
176
     1
 67
     7
176
     1
 79
     5
176
     1
170
     0
176
     1
171
     0
176
     1
290
     0
176
     1
 93
        1
176
     1
 44
0.0
176
     1
173
     0
176
     1
  0
VISUALSTYLE
  5
32
102
{ACAD_REACTORS
330
2A
102
}
330
2A
100
AcDbVisualStyle
  2
Basic
 70
     7
177
     2
291
     1
 71
     1
176
     1
 72
     0
176
     1
 73
     1
176
     1
 90
        0
176
     1
 40
-0.6
176
     1
 41
-30.0
176
     1
 62
     5
 63
     7
421
 16777215
176
     1
 74
     0
176
     1
 91
        4
176
     1
 64
     7
176
     1
 65
   257
176
     1
 75
     1
176
     1
175
     1
176
     1
 42
1.0
176
     1
 92
        8
176
     1
 66
     7
176
     1
 43
1.0
176
     1
 76
     1
176
     1
 77
     6
176
     1
 78
     2
176
     1
 67
     7
176
     1
 79
     5
176
     1
170
     0
176
     1
171
     0
176
     1
290
     0
176
     1
 93
        1
176
     1
 44
0.0
176
     1
173
     0
176
     1
  0
VISUALSTYLE
  5
36
102
{ACAD_REACTORS
330
2A
102
}
330
2A
100
AcDbVisualStyle
  2
Brighten
 70
    12
177
     2
291
     1
 71
     2
176
     1
 72
     2
176
     1
 73
     0
176
     1
 90
        0
176
     1
 40
-0.6
176
     1
 41
-30.0
176
     1
 62
     5
 63
     7
421
 16777215
176
     1
 74
     1
176
     1
 91
        4
176
     1
 64
     7
176
     1
 65
   257
176
     1
 75
     1
176
     1
175
     1
176
     1
 42
1.0
176
     1
 92
        8
176
     1
 66
     7
176
     1
 43
1.0
176
     1
 76
     1
176
     1
 77
     6
176
     1
 78
     2
176
     1
 67
     7
176
     1
 79
     5
176
     1
170
     0
176
     1
171
     0
176
     1
290
     0
176
     1
 93
        1
176
     1
 44
50.0
176
     1
173
     0
176
     1
  0
VISUALSTYLE
  5
3A
102
{ACAD_REACTORS
330
2A
102
}
330
2A
100
AcDbVisualStyle
  2
ColorChange
 70
    16
177
     2
291
     1
 71
     2
176
     1
 72
     2
176
     1
 73
     3
176
     1
 90
        0
176
     1
 40
-0.6
176
     1
 41
-30.0
176
     1
 62
     5
 63
     8
421
  8421504
176
     1
 74
     1
176
     1
 91
        4
176
     1
 64
     7
176
     1
 65
   257
176
     1
 75
     1
176
     1
175
     1
176
     1
 42
1.0
176
     1
 92
        8
176
     1
 66
     8
424
  8421504
176
     1
 43
1.0
176
     1
 76
     1
176
     1
 77
     6
176
     1
 78
     2
176
     1
 67
     7
176
     1
 79
     5
176
     1
170
     0
176
     1
171
     0
176
     1
290
     0
176
     1
 93
        1
176
     1
 44
0.0
176
     1
173
     0
176
     1
  0
VISUALSTYLE
  5
34
102
{ACAD_REACTORS
330
2A
102
}
330
2A
100
AcDbVisualStyle
  2
Conceptual
 70
     9
177
     2
291
     0
 71
     3
176
     1
 72
     2
176
     1
 73
     0
176
     1
 90
        0
176
     1
 40
-0.6
176
     1
 41
-30.0
176
     1
 62
     5
 63
     7
421
 16777215
176
     1
 74
     2
176
     1
 91
        2
176
     1
 64
     7
176
     1
 65
   257
176
     1
 75
     1
176
     1
175
     1
176
     1
 42
40.0
176
     1
 92
        8
176
     1
 66
     7
176
     1
 43
1.0
176
     1
 76
     1
176
     1
 77
     6
176
     1
 78
     2
176
     1
 67
     7
176
     1
 79
     3
176
     1
170
     0
176
     1
171
     0
176
     1
290
     0
176
     1
 93
        1
176
     1
 44
0.0
176
     1
173
     0
176
     1
  0
VISUALSTYLE
  5
35
102
{ACAD_REACTORS
330
2A
102
}
330
2A
100
AcDbVisualStyle
  2
Dim
 70
    11
177
     2
291
     1
 71
     2
176
     1
 72
     2
176
     1
 73
     0
176
     1
 90
        0
176
     1
 40
-0.6
176
     1
 41
-30.0
176
     1
 62
     5
 63
     7
421
 16777215
176
     1
 74
     1
176
     1
 91
        4
176
     1
 64
     7
176
     1
 65
   257
176
     1
 75
     1
176
     1
175
     1
176
     1
 42
1.0
176
     1
 92
        8
176
     1
 66
     7
176
     1
 43
1.0
176
     1
 76
     1
176
     1
 77
     6
176
     1
 78
     2
176
     1
 67
     7
176
     1
 79
     5
176
     1
170
     0
176
     1
171
     0
176
     1
290
     0
176
     1
 93
        1
176
     1
 44
-50.0
176
     1
173
     0
176
     1
  0
VISUALSTYLE
  5
39
102
{ACAD_REACTORS
330
2A
102
}
330
2A
100
AcDbVisualStyle
  2
Facepattern
 70
    15
177
     2
291
     1
 71
     2
176
     1
 72
     2
176
     1
 73
     0
176
     1
 90
        0
176
     1
 40
-0.6
176
     1
 41
-30.0
176
     1
 62
     5
 63
     7
421
 16777215
176
     1
 74
     1
176
     1
 91
        4
176
     1
 64
     7
176
     1
 65
   257
176
     1
 75
     1
176
     1
175
     1
176
     1
 42
1.0
176
     1
 92
        8
176
     1
 66
     7
176
     1
 43
1.0
176
     1
 76
     1
176
     1
 77
     6
176
     1
 78
     2
176
     1
 67
     7
176
     1
 79
     5
176
     1
170
     0
176
     1
171
     0
176
     1
290
     0
176
     1
 93
        1
176
     1
 44
0.0
176
     1
173
     0
176
     1
  0
VISUALSTYLE
  5
2B
102
{ACAD_REACTORS
330
2A
102
}
330
2A
100
AcDbVisualStyle
  2
Flat
 70
     0
177
     2
291
     1
 71
     2
176
     1
 72
     1
176
     1
 73
     1
176
     1
 90
        2
176
     1
 40
-0.6
176
     1
 41
30.0
176
     1
 62
     5
 63
     7
421
 16777215
176
     1
 74
     0
176
     1
 91
        4
176
     1
 64
     7
176
     1
 65
   257
176
     1
 75
     1
176
     1
175
     1
176
     1
 42
1.0
176
     1
 92
        8
176
     1
 66
     7
176
     1
 43
1.0
176
     1
 76
     1
176
     1
 77
     6
176
     1
 78
     2
176
     1
 67
     7
176
     1
 79
     5
176
     1
170
     0
176
     1
171
     0
176
     1
290
     0
176
     1
 93
       13
176
     1
 44
0.0
176
     1
173
     0
176
     1
  0
VISUALSTYLE
  5
2C
102
{ACAD_REACTORS
330
2A
102
}
330
2A
100
AcDbVisualStyle
  2
FlatWithEdges
 70
     1
177
     2
291
     1
 71
     2
176
     1
 72
     1
176
     1
 73
     1
176
     1
 90
        2
176
     1
 40
-0.6
176
     1
 41
30.0
176
     1
 62
     5
 63
     7
421
 16777215
176
     1
 74
     1
176
     1
 91
        4
176
     1
 64
     7
176
     1
 65
   257
176
     1
 75
     1
176
     1
175
     1
176
     1
 42
1.0
176
     1
 92
        0
176
     1
 66
   257
176
     1
 43
1.0
176
     1
 76
     1
176
     1
 77
     6
176
     1
 78
     2
176
     1
 67
     7
176
     1
 79
     5
176
     1
170
     0
176
     1
171
     0
176
     1
290
     0
176
     1
 93
       13
176
     1
 44
0.0
176
     1
173
     0
176
     1
  0
VISUALSTYLE
  5
2D
102
{ACAD_REACTORS
330
2A
102
}
330
2A
100
AcDbVisualStyle
  2
Gouraud
 70
     2
177
     2
291
     1
 71
     2
176
     1
 72
     2
176
     1
 73
     1
176
     1
 90
        2
176
     1
 40
-0.6
176
     1
 41
30.0
176
     1
 62
     5
 63
     7
421
 16777215
176
     1
 74
     0
176
     1
 91
        4
176
     1
 64
     7
176
     1
 65
   257
176
     1
 75
     1
176
     1
175
     1
176
     1
 42
1.0
176
     1
 92
        0
176
     1
 66
     7
176
     1
 43
1.0
176
     1
 76
     1
176
     1
 77
     6
176
     1
 78
     2
176
     1
 67
     7
176
     1
 79
     5
176
     1
170
     0
176
     1
171
     0
176
     1
290
     0
176
     1
 93
       13
176
     1
 44
0.0
176
     1
173
     0
176
     1
  0
VISUALSTYLE
  5
2E
102
{ACAD_REACTORS
330
2A
102
}
330
2A
100
AcDbVisualStyle
  2
GouraudWithEdges
 70
     3
177
     2
291
     1
 71
     2
176
     1
 72
     2
176
     1
 73
     1
176
     1
 90
        2
176
     1
 40
-0.6
176
     1
 41
30.0
176
     1
 62
     5
 63
     7
421
 16777215
176
     1
 74
     1
176
     1
 91
        4
176
     1
 64
     7
176
     1
 65
   257
176
     1
 75
     1
176
     1
175
     1
176
     1
 42
1.0
176
     1
 92
        0
176
     1
 66
   257
176
     1
 43
1.0
176
     1
 76
     1
176
     1
 77
     6
176
     1
 78
     2
176
     1
 67
     7
176
     1
 79
     5
176
     1
170
     0
176
     1
171
     0
176
     1
290
     0
176
     1
 93
       13
176
     1
 44
0.0
176
     1
173
     0
176
     1
  0
VISUALSTYLE
  5
38
102
{ACAD_REACTORS
330
2A
102
}
330
2A
100
AcDbVisualStyle
  2
Linepattern
 70
    14
177
     2
291
     1
 71
     2
176
     1
 72
     2
176
     1
 73
     0
176
     1
 90
        0
176
     1
 40
-0.6
176
     1
 41
-30.0
176
     1
 62
     5
 63
     7
421
 16777215
176
     1
 74
     1
176
     1
 91
        4
176
     1
 64
     7
176
     1
 65
   257
176
     1
 75
     7
176
     1
175
     7
176
     1
 42
1.0
176
     1
 92
        8
176
     1
 66
     7
176
     1
 43
1.0
176
     1
 76
     1
176
     1
 77
     6
176
     1
 78
     2
176
     1
 67
     7
176
     1
 79
     5
176
     1
170
     0
176
     1
171
     0
176
     1
290
     0
176
     1
 93
        1
176
     1
 44
0.0
176
     1
173
     0
176
     1
  0
VISUALSTYLE
  5
33
102
{ACAD_REACTORS
330
2A
102
}
330
2A
100
AcDbVisualStyle
  2
Realistic
 70
     8
177
     2
291
     0
 71
     2
176
     1
 72
     2
176
     1
 73
     0
176
     1
 90
        0
176
     1
 40
-0.6
176
     1
 41
-30.0
176
     1
 62
     5
 63
     7
421
 16777215
176
     1
 74
     1
176
     1
 91
        0
176
     1
 64
     7
176
     1
 65
   257
176
     1
 75
     1
176
     1
175
     1
176
     1
 42
1.0
176
     1
 92
        8
176
     1
 66
     8
424
  7895160
176
     1
 43
1.0
176
     1
 76
     1
176
     1
 77
     6
176
     1
 78
     2
176
     1
 67
     7
176
     1
 79
     5
176
     1
170
     0
176
     1
171
     0
176
     1
290
     0
176
     1
 93
       13
176
     1
 44
0.0
176
     1
173
     0
176
     1
  0
VISUALSTYLE
  5
37
102
{ACAD_REACTORS
330
2A
102
}
330
2A
100
AcDbVisualStyle
  2
Thicken
 70
    13
177
     2
291
     1
 71
     2
176
     1
 72
     2
176
     1
 73
     0
176
     1
 90
        0
176
     1
 40
-0.6
176
     1
 41
-30.0
176
     1
 62
     5
 63
     7
421
 16777215
176
     1
 74
     1
176
     1
 91
        4
176
     1
 64
     7
176
     1
 65
   257
176
     1
 75
     1
176
     1
175
     1
176
     1
 42
1.0
176
     1
 92
       12
176
     1
 66
     7
176
     1
 43
1.0
176
     1
 76
     1
176
     1
 77
     6
176
     1
 78
     2
176
     1
 67
     7
176
     1
 79
     5
176
     1
170
     0
176
     1
171
     0
176
     1
290
     0
176
     1
 93
        1
176
     1
 44
0.0
176
     1
173
     0
176
     1
  0
ENDSEC
  0
EOF
