  0
SECTION
  2
HEADER
  9
$ACADVER
  1
AC1024
  9
$ACADMAINTVER
 70
     6
  9
$DWGCODEPAGE
  3
ANSI_932
  9
$INSBASE
 10
0.0
 20
0.0
 30
0.0
  9
$EXTMIN
 10
-21000.0
 20
-14850.0
 30
0.0
  9
$EXTMAX
 10
21000.0
 20
14850.0
 30
0.0
  9
$LIMMIN
 10
-21000.0
 20
-14850.0
  9
$LIMMAX
 10
21000.0
 20
14850.0
  9
$ORTHOMODE
 70
     0
  9
$REGENMODE
 70
     1
  9
$FILLMODE
 70
     1
  9
$QTEXTMODE
 70
     0
  9
$MIRRTEXT
 70
     1
  9
$LTSCALE
 40
100.0
  9
$ATTMODE
 70
     1
  9
$TEXTSIZE
 40
2.5
  9
$TRACEWID
 40
1.0
  9
$TEXTSTYLE
  7
Standard
  9
$CLAYER
  8
0
  9
$CELTYPE
  6
ByLayer
  9
$CECOLOR
 62
   256
  9
$CELTSCALE
 40
1.0
  9
$DISPSILH
 70
     0
  9
$DIMSCALE
 40
1.0
  9
$DIMASZ
 40
2.5
  9
$DIMEXO
 40
0.625
  9
$DIMDLI
 40
3.75
  9
$DIMRND
 40
0.0
  9
$DIMDLE
 40
0.0
  9
$DIMEXE
 40
1.25
  9
$DIMTP
 40
0.0
  9
$DIMTM
 40
0.0
  9
$DIMTXT
 40
2.5
  9
$DIMCEN
 40
2.5
  9
$DIMTSZ
 40
0.0
  9
$DIMTOL
 70
     0
  9
$DIMLIM
 70
     0
  9
$DIMTIH
 70
     0
  9
$DIMTOH
 70
     0
  9
$DIMSE1
 70
     0
  9
$DIMSE2
 70
     0
  9
$DIMTAD
 70
     1
  9
$DIMZIN
 70
     8
  9
$DIMBLK
  1

  9
$DIMASO
 70
     1
  9
$DIMSHO
 70
     1
  9
$DIMPOST
  1

  9
$DIMAPOST
  1

  9
$DIMALT
 70
     0
  9
$DIMALTD
 70
     3
  9
$DIMALTF
 40
0.03937007874016
  9
$DIMLFAC
 40
1.0
  9
$DIMTOFL
 70
     1
  9
$DIMTVP
 40
0.0
  9
$DIMTIX
 70
     0
  9
$DIMSOXD
 70
     0
  9
$DIMSAH
 70
     0
  9
$DIMBLK1
  1

  9
$DIMBLK2
  1

  9
$DIMSTYLE
  2
ISO-25
  9
$DIMCLRD
 70
     0
  9
$DIMCLRE
 70
     0
  9
$DIMCLRT
 70
     0
  9
$DIMTFAC
 40
1.0
  9
$DIMGAP
 40
0.625
  9
$DIMJUST
 70
     0
  9
$DIMSD1
 70
     0
  9
$DIMSD2
 70
     0
  9
$DIMTOLJ
 70
     0
  9
$DIMTZIN
 70
     8
  9
$DIMALTZ
 70
     0
  9
$DIMALTTZ
 70
     0
  9
$DIMUPT
 70
     0
  9
$DIMDEC
 70
     2
  9
$DIMTDEC
 70
     2
  9
$DIMALTU
 70
     2
  9
$DIMALTTD
 70
     3
  9
$DIMTXSTY
  7
Standard
  9
$DIMAUNIT
 70
     0
  9
$DIMADEC
 70
     0
  9
$DIMALTRND
 40
0.0
  9
$DIMAZIN
 70
     0
  9
$DIMDSEP
 70
    44
  9
$DIMATFIT
 70
     3
  9
$DIMFRAC
 70
     0
  9
$DIMLDRBLK
  1

  9
$DIMLUNIT
 70
     2
  9
$DIMLWD
 70
    -2
  9
$DIMLWE
 70
    -2
  9
$DIMTMOVE
 70
     0
  9
$DIMFXL
 40
1.0
  9
$DIMFXLON
 70
     0
  9
$DIMJOGANG
 40
0.7853981633974483
  9
$DIMTFILL
 70
     0
  9
$DIMTFILLCLR
 70
     0
  9
$DIMARCSYM
 70
     0
  9
$DIMLTYPE
  6

  9
$DIMLTEX1
  6

  9
$DIMLTEX2
  6

  9
$DIMTXTDIRECTION
 70
     0
  9
$LUNITS
 70
     2
  9
$LUPREC
 70
     4
  9
$SKETCHINC
 40
1.0
  9
$FILLETRAD
 40
10.0
  9
$AUNITS
 70
     0
  9
$AUPREC
 70
     0
  9
$MENU
  1
.
  9
$ELEVATION
 40
0.0
  9
$PELEVATION
 40
0.0
  9
$THICKNESS
 40
0.0
  9
$LIMCHECK
 70
     0
  9
$CHAMFERA
 40
0.0
  9
$CHAMFERB
 40
0.0
  9
$CHAMFERC
 40
0.0
  9
$CHAMFERD
 40
0.0
  9
$SKPOLY
 70
     0
  9
$TDCREATE
 40
2458155.655317396
  9
$TDUCREATE
 40
2458155.280317396
  9
$TDUPDATE
 40
2458155.655317754
  9
$TDUUPDATE
 40
2458155.280317754
  9
$TDINDWG
 40
0.0000000116
  9
$TDUSRTIMER
 40
0.0000000116
  9
$USRTIMER
 70
     1
  9
$ANGBASE
 50
0.0
  9
$ANGDIR
 70
     0
  9
$PDMODE
 70
     0
  9
$PDSIZE
 40
0.0
  9
$PLINEWID
 40
0.0
  9
$SPLFRAME
 70
     0
  9
$SPLINETYPE
 70
     6
  9
$SPLINESEGS
 70
     8
  9
$HANDSEED
  5
35A
  9
$SURFTAB1
 70
     6
  9
$SURFTAB2
 70
     6
  9
$SURFTYPE
 70
     6
  9
$SURFU
 70
     6
  9
$SURFV
 70
     6
  9
$UCSBASE
  2

  9
$UCSNAME
  2

  9
$UCSORG
 10
0.0
 20
0.0
 30
0.0
  9
$UCSXDIR
 10
1.0
 20
0.0
 30
0.0
  9
$UCSYDIR
 10
0.0
 20
1.0
 30
0.0
  9
$UCSORTHOREF
  2

  9
$UCSORTHOVIEW
 70
     0
  9
$UCSORGTOP
 10
0.0
 20
0.0
 30
0.0
  9
$UCSORGBOTTOM
 10
0.0
 20
0.0
 30
0.0
  9
$UCSORGLEFT
 10
0.0
 20
0.0
 30
0.0
  9
$UCSORGRIGHT
 10
0.0
 20
0.0
 30
0.0
  9
$UCSORGFRONT
 10
0.0
 20
0.0
 30
0.0
  9
$UCSORGBACK
 10
0.0
 20
0.0
 30
0.0
  9
$PUCSBASE
  2

  9
$PUCSNAME
  2

  9
$PUCSORG
 10
0.0
 20
0.0
 30
0.0
  9
$PUCSXDIR
 10
1.0
 20
0.0
 30
0.0
  9
$PUCSYDIR
 10
0.0
 20
1.0
 30
0.0
  9
$PUCSORTHOREF
  2

  9
$PUCSORTHOVIEW
 70
     0
  9
$PUCSORGTOP
 10
0.0
 20
0.0
 30
0.0
  9
$PUCSORGBOTTOM
 10
0.0
 20
0.0
 30
0.0
  9
$PUCSORGLEFT
 10
0.0
 20
0.0
 30
0.0
  9
$PUCSORGRIGHT
 10
0.0
 20
0.0
 30
0.0
  9
$PUCSORGFRONT
 10
0.0
 20
0.0
 30
0.0
  9
$PUCSORGBACK
 10
0.0
 20
0.0
 30
0.0
  9
$USERI1
 70
     0
  9
$USERI2
 70
     0
  9
$USERI3
 70
     0
  9
$USERI4
 70
     0
  9
$USERI5
 70
     0
  9
$USERR1
 40
0.0
  9
$USERR2
 40
0.0
  9
$USERR3
 40
0.0
  9
$USERR4
 40
0.0
  9
$USERR5
 40
0.0
  9
$WORLDVIEW
 70
     1
  9
$SHADEDGE
 70
     3
  9
$SHADEDIF
 70
    70
  9
$TILEMODE
 70
     1
  9
$MAXACTVP
 70
    64
  9
$PINSBASE
 10
0.0
 20
0.0
 30
0.0
  9
$PLIMCHECK
 70
     0
  9
$PEXTMIN
 10
1.000000000000000E+20
 20
1.000000000000000E+20
 30
1.000000000000000E+20
  9
$PEXTMAX
 10
-1.000000000000000E+20
 20
-1.000000000000000E+20
 30
-1.000000000000000E+20
  9
$PLIMMIN
 10
0.0
 20
0.0
  9
$PLIMMAX
 10
420.0
 20
297.0
  9
$UNITMODE
 70
     0
  9
$VISRETAIN
 70
     1
  9
$PLINEGEN
 70
     0
  9
$PSLTSCALE
 70
     1
  9
$TREEDEPTH
 70
  3020
  9
$CMLSTYLE
  2
Standard
  9
$CMLJUST
 70
     0
  9
$CMLSCALE
 40
20.0
  9
$PROXYGRAPHICS
 70
     1
  9
$MEASUREMENT
 70
     1
  9
$CELWEIGHT
370
    -1
  9
$ENDCAPS
280
     0
  9
$JOINSTYLE
280
     0
  9
$LWDISPLAY
290
     0
  9
$INSUNITS
 70
     4
  9
$HYPERLINKBASE
  1

  9
$STYLESHEET
  1

  9
$XEDIT
290
     1
  9
$CEPSNTYPE
380
     0
  9
$PSTYLEMODE
290
     1
  9
$FINGERPRINTGUID
  2
{FA1FFC80-32B4-4B31-80E1-5ABD474FFB0B}
  9
$VERSIONGUID
  2
{FAEB1C32-E019-11D5-929B-00C0DF256EC4}
  9
$EXTNAMES
290
     1
  9
$PSVPSCALE
 40
0.0
  9
$OLESTARTUP
290
     0
  9
$SORTENTS
280
   127
  9
$INDEXCTL
280
     0
  9
$HIDETEXT
280
     1
  9
$XCLIPFRAME
280
     2
  9
$HALOGAP
280
     0
  9
$OBSCOLOR
 70
   257
  9
$OBSLTYPE
280
     0
  9
$INTERSECTIONDISPLAY
280
     0
  9
$INTERSECTIONCOLOR
 70
   257
  9
$DIMASSOC
280
     2
  9
$PROJECTNAME
  1

  9
$CAMERADISPLAY
290
     0
  9
$LENSLENGTH
 40
50.0
  9
$CAMERAHEIGHT
 40
0.0
  9
$STEPSPERSEC
 40
2.0
  9
$STEPSIZE
 40
6.0
  9
$3DDWFPREC
 40
2.0
  9
$PSOLWIDTH
 40
5.0
  9
$PSOLHEIGHT
 40
80.0
  9
$LOFTANG1
 40
1.570796326794897
  9
$LOFTANG2
 40
1.570796326794897
  9
$LOFTMAG1
 40
0.0
  9
$LOFTMAG2
 40
0.0
  9
$LOFTPARAM
 70
     7
  9
$LOFTNORMALS
280
     1
  9
$LATITUDE
 40
37.795
  9
$LONGITUDE
 40
-122.394
  9
$NORTHDIRECTION
 40
0.0
  9
$TIMEZONE
 70
 -8000
  9
$LIGHTGLYPHDISPLAY
280
     1
  9
$TILEMODELIGHTSYNCH
280
     1
  9
$CMATERIAL
347
44
  9
$SOLIDHIST
280
     0
  9
$SHOWHIST
280
     1
  9
$DWFFRAME
280
     2
  9
$DGNFRAME
280
     2
  9
$REALWORLDSCALE
290
     1
  9
$INTERFERECOLOR
 62
   256
  9
$CSHADOW
280
     0
  9
$SHADOWPLANELOCATION
 40
0.0
  0
ENDSEC
  0
SECTION
  2
CLASSES
  0
CLASS
  1
ACDBDICTIONARYWDFLT
  2
AcDbDictionaryWithDefault
  3
ObjectDBX Classes
 90
        0
 91
        4
280
     0
281
     0
  0
CLASS
  1
VISUALSTYLE
  2
AcDbVisualStyle
  3
ObjectDBX Classes
 90
     4095
 91
        4
280
     0
281
     0
  0
CLASS
  1
MATERIAL
  2
AcDbMaterial
  3
ObjectDBX Classes
 90
     1153
 91
        4
280
     0
281
     0
  0
CLASS
  1
SCALE
  2
AcDbScale
  3
ObjectDBX Classes
 90
     1153
 91
        4
280
     0
281
     0
  0
CLASS
  1
TABLESTYLE
  2
AcDbTableStyle
  3
ObjectDBX Classes
 90
     4095
 91
        4
280
     0
281
     0
  0
CLASS
  1
MLEADERSTYLE
  2
AcDbMLeaderStyle
  3
ACDB_MLEADERSTYLE_CLASS
 90
     4095
 91
        4
280
     0
281
     0
  0
CLASS
  1
SUN
  2
AcDbSun
  3
SCENEOE
 90
     1153
 91
        4
280
     0
281
     0
  0
CLASS
  1
DICTIONARYVAR
  2
AcDbDictionaryVar
  3
ObjectDBX Classes
 90
        0
 91
        4
280
     0
281
     0
  0
CLASS
  1
CELLSTYLEMAP
  2
AcDbCellStyleMap
  3
ObjectDBX Classes
 90
     1152
 91
        4
280
     0
281
     0
  0
ENDSEC
  0
SECTION
  2
TABLES
  0
TABLE
  2
VPORT
  5
8
330
0
100
AcDbSymbolTable
 70
     1
  0
VPORT
  5
29
330
8
100
AcDbSymbolTableRecord
100
AcDbViewportTableRecord
  2
*Active
 70
     0
 10
0.0
 20
0.0
 11
1.0
 21
1.0
 12
0.0
 22
0.0
 13
0.0
 23
0.0
 14
10.0
 24
10.0
 15
10.0
 25
10.0
 16
0.0
 26
0.0
 36
1.0
 17
0.0
 27
0.0
 37
0.0
 40
32670.0
 41
1.414141414141414
 42
50.0
 43
0.0
 44
0.0
 50
0.0
 51
0.0
 71
     0
 72
 10000
 73
     1
 74
     3
 75
     0
 76
     0
 77
     0
 78
     0
281
     0
 65
     1
110
0.0
120
0.0
130
0.0
111
1.0
121
0.0
131
0.0
112
0.0
122
1.0
132
0.0
 79
     0
146
0.0
348
2F
 60
     3
 61
     5
292
     1
282
     1
141
0.0
142
0.0
 63
   250
361
6D
  0
ENDTAB
  0
TABLE
  2
LTYPE
  5
5
330
0
100
AcDbSymbolTable
 70
     4
  0
LTYPE
  5
14
330
5
100
AcDbSymbolTableRecord
100
AcDbLinetypeTableRecord
  2
ByBlock
 70
     0
  3

 72
    65
 73
     0
 40
0.0
  0
LTYPE
  5
15
330
5
100
AcDbSymbolTableRecord
100
AcDbLinetypeTableRecord
  2
ByLayer
 70
     0
  3

 72
    65
 73
     0
 40
0.0
  0
LTYPE
  5
16
330
5
100
AcDbSymbolTableRecord
100
AcDbLinetypeTableRecord
  2
Continuous
 70
     0
  3
Solid line
 72
    65
 73
     0
 40
0.0
  0
LTYPE
  5
6F
330
5
100
AcDbSymbolTableRecord
100
AcDbLinetypeTableRecord
  2
JWW_HOJO
 70
     0
  3
  -   -   -   -   -   -   -   - 
 72
    65
 73
     2
 40
1.693333333333333
 49
-1.27
 74
     0
 49
0.4233333333333333
 74
     0
  0
LTYPE
  5
70
330
5
100
AcDbSymbolTableRecord
100
AcDbLinetypeTableRecord
  2
JWW_CENTER1
 70
     0
  3
-----  --  ----------  --  -----
 72
    65
 73
     4
 40
6.773333333333333
 49
4.233333333333333
 74
     0
 49
-0.8466666666666667
 74
     0
 49
0.8466666666666667
 74
     0
 49
-0.8466666666666667
 74
     0
  0
LTYPE
  5
71
330
5
100
AcDbSymbolTableRecord
100
AcDbLinetypeTableRecord
  2
JWW_DASHED2
 70
     0
  3
--    ----    ----    ----    --
 72
    65
 73
     2
 40
3.386666666666667
 49
1.693333333333333
 74
     0
 49
-1.693333333333333
 74
     0
  0
ENDTAB
  0
TABLE
  2
LAYER
  5
2
330
0
100
AcDbSymbolTable
 70
    14
  0
LAYER
  5
10
330
2
100
AcDbSymbolTableRecord
100
AcDbLayerTableRecord
  2
0
 70
     0
 62
     7
  6
Continuous
370
    -3
390
F
347
46
  0
LAYER
  5
72
330
2
100
AcDbSymbolTableRecord
100
AcDbLayerTableRecord
  2
固定棚
 70
     0
 62
     7
  6
Continuous
370
    -3
390
F
347
46
  0
LAYER
  5
73
330
2
100
AcDbSymbolTableRecord
100
AcDbLayerTableRecord
  2
F-0_補助線
 70
     0
 62
     7
  6
Continuous
370
    -3
390
F
347
46
  0
LAYER
  5
74
330
2
100
AcDbSymbolTableRecord
100
AcDbLayerTableRecord
  2
枠
 70
     0
 62
     7
  6
Continuous
370
    -3
390
F
347
46
  0
LAYER
  5
75
330
2
100
AcDbSymbolTableRecord
100
AcDbLayerTableRecord
  2
0-A_文字
 70
     0
 62
     7
  6
Continuous
370
    -3
390
F
347
46
  0
LAYER
  5
76
330
2
100
AcDbSymbolTableRecord
100
AcDbLayerTableRecord
  2
F-A_文字
 70
     0
 62
     7
  6
Continuous
370
    -3
390
F
347
46
  0
LAYER
  5
77
330
2
100
AcDbSymbolTableRecord
100
AcDbLayerTableRecord
  2
0-2
 70
     0
 62
     7
  6
Continuous
370
    -3
390
F
347
46
  0
LAYER
  5
78
330
2
100
AcDbSymbolTableRecord
100
AcDbLayerTableRecord
  2
0-0_補助線
 70
     0
 62
    -7
  6
Continuous
370
    -3
390
F
347
46
  0
LAYER
  5
79
330
2
100
AcDbSymbolTableRecord
100
AcDbLayerTableRecord
  2
0-B_寸法
 70
     0
 62
     7
  6
Continuous
370
    -3
390
F
347
46
  0
LAYER
  5
7A
330
2
100
AcDbSymbolTableRecord
100
AcDbLayerTableRecord
  2
可動棚
 70
     0
 62
     7
  6
Continuous
370
    -3
390
F
347
46
  0
LAYER
  5
7B
330
2
100
AcDbSymbolTableRecord
100
AcDbLayerTableRecord
  2
桟木・巾木
 70
     0
 62
     7
  6
Continuous
370
    -3
390
F
347
46
  0
LAYER
  5
7C
330
2
100
AcDbSymbolTableRecord
100
AcDbLayerTableRecord
  2
0-E
 70
     0
 62
     7
  6
Continuous
370
    -3
390
F
347
46
  0
LAYER
  5
7D
330
2
100
AcDbSymbolTableRecord
100
AcDbLayerTableRecord
  2
側板
 70
     0
 62
     7
  6
Continuous
370
    -3
390
F
347
46
  0
LAYER
  5
7E
330
2
100
AcDbSymbolTableRecord
100
AcDbLayerTableRecord
  2
引き出し
 70
     0
 62
     7
  6
Continuous
370
    -3
390
F
347
46
  0
ENDTAB
  0
TABLE
  2
STYLE
  5
3
330
0
100
AcDbSymbolTable
 70
     2
  0
STYLE
  5
11
330
3
100
AcDbSymbolTableRecord
100
AcDbTextStyleTableRecord
  2
Standard
 70
     0
 40
0.0
 41
1.0
 50
0.0
 71
     0
 42
2.5
  3
txt
  4

  0
STYLE
  5
6E
330
3
100
AcDbSymbolTableRecord
100
AcDbTextStyleTableRecord
  2
ＭＳ ゴシック
 70
     0
 40
1.0
 41
1.0
 50
0.0
 71
     0
 42
2.5
  3
msgothic.ttc
  4

1001
ACAD
1000
MS Gothic
1071
    32817
  0
ENDTAB
  0
TABLE
  2
VIEW
  5
6
330
0
100
AcDbSymbolTable
 70
     0
  0
ENDTAB
  0
TABLE
  2
UCS
  5
7
330
0
100
AcDbSymbolTable
 70
     0
  0
ENDTAB
  0
TABLE
  2
APPID
  5
9
330
0
100
AcDbSymbolTable
 70
     1
  0
APPID
  5
12
330
9
100
AcDbSymbolTableRecord
100
AcDbRegAppTableRecord
  2
ACAD
 70
     0
  0
ENDTAB
  0
TABLE
  2
DIMSTYLE
  5
A
330
0
100
AcDbSymbolTable
 70
     1
100
AcDbDimStyleTable
  0
DIMSTYLE
105
27
330
A
100
AcDbSymbolTableRecord
100
AcDbDimStyleTableRecord
  2
ISO-25
 70
     0
 41
2.5
 42
0.625
 43
3.75
 44
1.25
 73
     0
 74
     0
 77
     1
 78
     8
140
2.5
141
2.5
143
0.03937007874016
147
0.625
171
     3
172
     1
178
     0
271
     2
272
     2
274
     3
278
    44
283
     0
284
     8
340
11
  0
ENDTAB
  0
TABLE
  2
BLOCK_RECORD
  5
1
330
0
100
AcDbSymbolTable
 70
     1
  0
BLOCK_RECORD
  5
1F
330
1
100
AcDbSymbolTableRecord
100
AcDbBlockTableRecord
  2
*Model_Space
340
22
 70
     0
280
     1
281
     0
  0
BLOCK_RECORD
  5
1B
330
1
100
AcDbSymbolTableRecord
100
AcDbBlockTableRecord
  2
*Paper_Space
340
1E
 70
     0
280
     1
281
     0
  0
BLOCK_RECORD
  5
23
330
1
100
AcDbSymbolTableRecord
100
AcDbBlockTableRecord
  2
*Paper_Space0
340
26
 70
     0
280
     1
281
     0
  0
ENDTAB
  0
ENDSEC
  0
SECTION
  2
BLOCKS
  0
BLOCK
  5
20
330
1F
100
AcDbEntity
  8
0
100
AcDbBlockBegin
  2
*Model_Space
 70
     0
 10
0.0
 20
0.0
 30
0.0
  3
*Model_Space
  1

  0
ENDBLK
  5
21
330
1F
100
AcDbEntity
  8
0
100
AcDbBlockEnd
  0
BLOCK
  5
1C
330
1B
100
AcDbEntity
 67
     1
  8
0
100
AcDbBlockBegin
  2
*Paper_Space
 70
     0
 10
0.0
 20
0.0
 30
0.0
  3
*Paper_Space
  1

  0
ENDBLK
  5
1D
330
1B
100
AcDbEntity
 67
     1
  8
0
100
AcDbBlockEnd
  0
BLOCK
  5
24
330
23
100
AcDbEntity
  8
0
100
AcDbBlockBegin
  2
*Paper_Space0
 70
     0
 10
0.0
 20
0.0
 30
0.0
  3
*Paper_Space0
  1

  0
ENDBLK
  5
25
330
23
100
AcDbEntity
  8
0
100
AcDbBlockEnd
  0
ENDSEC
  0
SECTION
  2
ENTITIES
  0
LINE
  5
7F
330
1F
100
AcDbEntity
  8
固定棚
  6
Continuous
 62
    92
370
    13
100
AcDbLine
 10
-7630.155055530031
 20
8363.663137429148
 30
0.0
 11
-2935.155055530032
 21
8363.663137429148
 31
0.0
  0
LINE
  5
80
330
1F
100
AcDbEntity
  8
固定棚
  6
Continuous
 62
    92
370
    13
100
AcDbLine
 10
-2935.155055530032
 20
6113.663137429148
 30
0.0
 11
-7630.155055530031
 21
6113.663137429148
 31
0.0
  0
LINE
  5
81
330
1F
100
AcDbEntity
  8
F-0_補助線
  6
JWW_HOJO
 62
   120
370
     5
100
AcDbLine
 10
-20610.15464313034
 20
-15155.19783912201
 30
0.0
 11
-20610.15464313034
 21
14444.80084119894
 31
0.0
  0
LINE
  5
82
330
1F
100
AcDbEntity
  8
F-0_補助線
  6
JWW_HOJO
 62
   120
370
     5
100
AcDbLine
 10
-20610.15464313034
 20
14444.80084119894
 30
0.0
 11
20389.84205767203
 21
14444.80084119894
 31
0.0
  0
LINE
  5
83
330
1F
100
AcDbEntity
  8
F-0_補助線
  6
JWW_HOJO
 62
   120
370
     5
100
AcDbLine
 10
20389.84205767203
 20
14444.80084119894
 30
0.0
 11
20389.84205767203
 21
-15155.19783912201
 31
0.0
  0
LINE
  5
84
330
1F
100
AcDbEntity
  8
F-0_補助線
  6
JWW_HOJO
 62
   120
370
     5
100
AcDbLine
 10
20389.84205767203
 20
-15155.19783912201
 30
0.0
 11
-20610.15464313034
 21
-15155.19783912201
 31
0.0
  0
LINE
  5
85
330
1F
100
AcDbEntity
  8
枠
  6
Continuous
 62
   200
370
    20
100
AcDbLine
 10
19389.84123287263
 20
13611.46805773188
 30
0.0
 11
19389.84123287263
 21
-14321.86505565495
 31
0.0
  0
LINE
  5
86
330
1F
100
AcDbEntity
  8
枠
  6
Continuous
 62
   200
370
    20
100
AcDbLine
 10
-19610.15459158037
 20
13611.46805773188
 30
0.0
 11
-19610.15459158037
 21
-14321.86505565495
 31
0.0
  0
LINE
  5
87
330
1F
100
AcDbEntity
  8
枠
  6
Continuous
 62
   200
370
    20
100
AcDbLine
 10
-19576.82127714868
 20
13611.46805773188
 30
0.0
 11
-19576.82127714868
 21
-14321.86505565495
 31
0.0
  0
LINE
  5
88
330
1F
100
AcDbEntity
  8
枠
  6
Continuous
 62
   200
370
    20
100
AcDbLine
 10
-19593.48789570206
 20
13611.46805773188
 30
0.0
 11
-19593.48789570206
 21
-14321.86505565495
 31
0.0
  0
LINE
  5
89
330
1F
100
AcDbEntity
  8
枠
  6
Continuous
 62
   200
370
    20
100
AcDbLine
 10
19373.17368641992
 20
13611.46805773188
 30
0.0
 11
19373.17368641992
 21
-14321.86505565495
 31
0.0
  0
LINE
  5
8A
330
1F
100
AcDbEntity
  8
枠
  6
Continuous
 62
   200
370
    20
100
AcDbLine
 10
19356.50861436545
 20
13611.46805773188
 30
0.0
 11
19356.50861436545
 21
-14321.86505565495
 31
0.0
  0
LINE
  5
8B
330
1F
100
AcDbEntity
  8
枠
  6
Continuous
 62
   200
370
    20
100
AcDbLine
 10
-19610.15381833092
 20
13611.46805773188
 30
0.0
 11
19389.84123287263
 21
13611.46805773188
 31
0.0
  0
LINE
  5
8C
330
1F
100
AcDbEntity
  8
枠
  6
Continuous
 62
   200
370
    20
100
AcDbLine
 10
-19610.15381833092
 20
13578.1354392247
 30
0.0
 11
19389.84123287263
 21
13578.1354392247
 31
0.0
  0
LINE
  5
8D
330
1F
100
AcDbEntity
  8
枠
  6
Continuous
 62
   200
370
    20
100
AcDbLine
 10
-19610.15381833092
 20
13594.80051127917
 30
0.0
 11
19389.84123287263
 21
13594.80051127917
 31
0.0
  0
LINE
  5
8E
330
1F
100
AcDbEntity
  8
0-A_文字
  6
Continuous
 62
     7
370
     9
100
AcDbLine
 10
-19076.82127714868
 20
12328.1354392247
 30
0.0
 11
-10076.82127714868
 21
12328.1354392247
 31
0.0
  0
LINE
  5
8F
330
1F
100
AcDbEntity
  8
0-A_文字
  6
Continuous
 62
     7
370
     9
100
AcDbLine
 10
-10076.82127714868
 20
12328.1354392247
 30
0.0
 11
-10076.82127714868
 21
13078.1354392247
 31
0.0
  0
LINE
  5
90
330
1F
100
AcDbEntity
  8
0-A_文字
  6
Continuous
 62
     7
370
     9
100
AcDbLine
 10
-10076.82127714868
 20
13078.1354392247
 30
0.0
 11
-19076.82127714868
 21
13078.1354392247
 31
0.0
  0
LINE
  5
91
330
1F
100
AcDbEntity
  8
0-A_文字
  6
Continuous
 62
     7
370
     9
100
AcDbLine
 10
-19076.82127714868
 20
13078.1354392247
 30
0.0
 11
-19076.82127714868
 21
12328.1354392247
 31
0.0
  0
TEXT
  5
92
330
1F
100
AcDbEntity
  8
0-A_文字
  6
Continuous
 62
     7
370
     9
100
AcDbText
 10
-17476.82127714868
 20
12559.5354392247
 30
0.0
 40
304.8
  1
モデルプラン　ＣＬ－３２７
 41
1.115384615384615
  7
ＭＳ ゴシック
100
AcDbText
  0
TEXT
  5
93
330
1F
100
AcDbEntity
  8
F-A_文字
  6
Continuous
 62
     7
370
     0
100
AcDbText
 10
17690.49852634324
 20
-14614.64877741358
 30
0.0
 40
228.6
  1
,
 41
0.9999999999999998
  7
ＭＳ ゴシック
100
AcDbText
  0
TEXT
  5
94
330
1F
100
AcDbEntity
  8
F-A_文字
  6
Continuous
 62
     7
370
     0
100
AcDbText
 10
16802.96956325425
 20
-14619.29552214167
 30
0.0
 40
228.6
  1
$y
 41
1.083333333333333
  7
ＭＳ ゴシック
100
AcDbText
  0
TEXT
  5
95
330
1F
100
AcDbEntity
  8
F-A_文字
  6
Continuous
 62
     7
370
     0
100
AcDbText
 10
17318.75863338365
 20
-14619.29552214167
 30
0.0
 40
228.6
  1
$m
 41
1.083333333333333
  7
ＭＳ ゴシック
100
AcDbText
  0
TEXT
  5
96
330
1F
100
AcDbEntity
  8
F-A_文字
  6
Continuous
 62
     7
370
     0
100
AcDbText
 10
17834.54774166001
 20
-14619.29552214167
 30
0.0
 40
228.6
  1
$d
 41
1.083333333333333
  7
ＭＳ ゴシック
100
AcDbText
  0
TEXT
  5
97
330
1F
100
AcDbEntity
  8
F-A_文字
  6
Continuous
 62
     7
370
     0
100
AcDbText
 10
18350.33684993638
 20
-14619.29552214167
 30
0.0
 40
228.6
  1
印刷
 41
1.083333333333333
  7
ＭＳ ゴシック
100
AcDbText
  0
TEXT
  5
98
330
1F
100
AcDbEntity
  8
F-A_文字
  6
Continuous
 62
     7
370
     0
100
AcDbText
 10
17160.76916957748
 20
-14623.9422764065
 30
0.0
 40
228.6
  1
,
 41
0.9999999999999998
  7
ＭＳ ゴシック
100
AcDbText
  0
TEXT
  5
99
330
1F
100
AcDbEntity
  8
F-A_文字
  6
Continuous
 62
     7
370
     0
100
AcDbText
 10
19084.52306056871
 20
-14610.00202791713
 30
0.0
 40
228.6
  1
）
 41
0.9999999999999998
  7
ＭＳ ゴシック
100
AcDbText
  0
TEXT
  5
9A
330
1F
100
AcDbEntity
  8
F-A_文字
  6
Continuous
 62
     7
370
     0
100
AcDbText
 10
16336.62327104633
 20
-14623.9422764065
 30
0.0
 40
228.6
  1
（
 41
0.9999999999999998
  7
ＭＳ ゴシック
100
AcDbText
  0
LINE
  5
9B
330
1F
100
AcDbEntity
  8
F-0_補助線
  6
JWW_HOJO
 62
     7
370
     9
100
AcDbLine
 10
3223.177315537322
 20
-12955.197849432
 30
0.0
 11
3223.177315537322
 21
-14288.53119994866
 31
0.0
  0
LINE
  5
9C
330
1F
100
AcDbEntity
  8
F-0_補助線
  6
JWW_HOJO
 62
     7
370
     9
100
AcDbLine
 10
1556.5117486032
 20
-12955.197849432
 30
0.0
 11
1556.5117486032
 21
-14288.53119994866
 31
0.0
  0
LINE
  5
9D
330
1F
100
AcDbEntity
  8
枠
  6
Continuous
 62
   200
370
    20
100
AcDbLine
 10
19389.84123287263
 20
-14321.86451438034
 30
0.0
 11
-19610.15381833093
 21
-14321.86451438034
 31
0.0
  0
LINE
  5
9E
330
1F
100
AcDbEntity
  8
枠
  6
Continuous
 62
   200
370
    20
100
AcDbLine
 10
19389.84123287263
 20
-14305.19781850203
 30
0.0
 11
-19610.15381833093
 21
-14305.19781850203
 31
0.0
  0
LINE
  5
9F
330
1F
100
AcDbEntity
  8
枠
  6
Continuous
 62
   200
370
    20
100
AcDbLine
 10
19389.84123287263
 20
-14288.53119994866
 30
0.0
 11
-19610.15381833093
 21
-14288.53119994866
 31
0.0
  0
LINE
  5
A0
330
1F
100
AcDbEntity
  8
枠
  6
Continuous
 62
   200
370
    20
100
AcDbLine
 10
14356.50943916486
 20
-12955.197849432
 30
0.0
 11
14356.50943916486
 21
-14288.53119994866
 31
0.0
  0
LINE
  5
A1
330
1F
100
AcDbEntity
  8
枠
  6
Continuous
 62
   200
370
    20
100
AcDbLine
 10
9356.50778956604
 20
-12955.197849432
 30
0.0
 11
9356.50778956604
 21
-14288.53119994866
 31
0.0
  0
LINE
  5
A2
330
1F
100
AcDbEntity
  8
枠
  6
Continuous
 62
   200
370
    20
100
AcDbLine
 10
-110.1550555300349
 20
-12955.197849432
 30
0.0
 11
-110.1550555300349
 21
-14288.53119994866
 31
0.0
  0
LINE
  5
A3
330
1F
100
AcDbEntity
  8
枠
  6
Continuous
 62
   200
370
    20
100
AcDbLine
 10
-110.1550555300349
 20
-13621.8642927155
 30
0.0
 11
19356.50861436545
 21
-13621.88238675253
 31
0.0
  0
LINE
  5
A4
330
1F
100
AcDbEntity
  8
F-0_補助線
  6
JWW_HOJO
 62
     7
370
     9
100
AcDbLine
 10
-19576.82127714869
 20
-13621.86429271665
 30
0.0
 11
-110.1550555300349
 21
-13621.86429271665
 31
0.0
  0
LINE
  5
A5
330
1F
100
AcDbEntity
  8
F-0_補助線
  6
JWW_HOJO
 62
     7
370
     9
100
AcDbLine
 10
-19576.82127714869
 20
-13321.86429271665
 30
0.0
 11
-110.1550555300349
 21
-13321.86429271665
 31
0.0
  0
LINE
  5
A6
330
1F
100
AcDbEntity
  8
F-0_補助線
  6
JWW_HOJO
 62
     7
370
     9
100
AcDbLine
 10
-19576.82127714869
 20
-13921.86429271665
 30
0.0
 11
-110.1550555300349
 21
-13921.86429271665
 31
0.0
  0
LINE
  5
A7
330
1F
100
AcDbEntity
  8
F-0_補助線
  6
JWW_HOJO
 62
     7
370
     9
100
AcDbLine
 10
-110.1555047821279
 20
-14105.19697171529
 30
0.0
 11
19356.50816511335
 21
-14105.21506575232
 31
0.0
  0
LINE
  5
A8
330
1F
100
AcDbEntity
  8
F-0_補助線
  6
JWW_HOJO
 62
     7
370
     9
100
AcDbLine
 10
-110.1552259356225
 20
-13805.19697171542
 30
0.0
 11
19356.50844395986
 21
-13805.21506575245
 31
0.0
  0
LINE
  5
A9
330
1F
100
AcDbEntity
  8
F-0_補助線
  6
JWW_HOJO
 62
     7
370
     9
100
AcDbLine
 10
-110.1548851232224
 20
-13438.53029651558
 30
0.0
 11
19356.50878477226
 21
-13438.54839055261
 31
0.0
  0
LINE
  5
AA
330
1F
100
AcDbEntity
  8
F-0_補助線
  6
JWW_HOJO
 62
     7
370
     9
100
AcDbLine
 10
-110.154606276717
 20
-13138.53029651571
 30
0.0
 11
19356.50906361876
 21
-13138.54839055274
 31
0.0
  0
LINE
  5
AB
330
1F
100
AcDbEntity
  8
F-0_補助線
  6
JWW_HOJO
 62
     7
370
     9
100
AcDbLine
 10
9656.50778956604
 20
-12955.197849432
 30
0.0
 11
9656.50778956604
 21
-14288.53119994866
 31
0.0
  0
LINE
  5
AC
330
1F
100
AcDbEntity
  8
F-0_補助線
  6
JWW_HOJO
 62
     7
370
     9
100
AcDbLine
 10
189.8449444699651
 20
-12955.197849432
 30
0.0
 11
189.8449444699651
 21
-14288.53119994866
 31
0.0
  0
LINE
  5
AD
330
1F
100
AcDbEntity
  8
F-0_補助線
  6
JWW_HOJO
 62
     7
370
     9
100
AcDbLine
 10
14656.50943916486
 20
-12955.197849432
 30
0.0
 11
14656.50943916486
 21
-14288.53119994866
 31
0.0
  0
TEXT
  5
AE
330
1F
100
AcDbEntity
  8
F-A_文字
  6
Continuous
 62
     7
370
     0
100
AcDbText
 10
14656.50943916486
 20
-13210.34402195786
 30
0.0
 40
152.4
  1
ＤＡＴＥ
  7
ＭＳ ゴシック
100
AcDbText
  0
TEXT
  5
AF
330
1F
100
AcDbEntity
  8
F-A_文字
  6
Continuous
 62
     7
370
     0
100
AcDbText
 10
14656.50943916486
 20
-13877.01069715814
 30
0.0
 40
152.4
  1
ＮＯ．
  7
ＭＳ ゴシック
100
AcDbText
  0
TEXT
  5
B0
330
1F
100
AcDbEntity
  8
F-A_文字
  6
Continuous
 62
     7
370
     0
100
AcDbText
 10
9656.50778956604
 20
-13210.33937451459
 30
0.0
 40
152.4
  1
ＳＣＡＬＥ
 41
0.9999999999999999
  7
ＭＳ ゴシック
100
AcDbText
  0
TEXT
  5
B1
330
1F
100
AcDbEntity
  8
F-A_文字
  6
Continuous
 62
     7
370
     0
100
AcDbText
 10
9656.50778956604
 20
-13877.00604971488
 30
0.0
 40
152.4
  1
ＦＩＬＥ
  7
ＭＳ ゴシック
100
AcDbText
  0
TEXT
  5
B2
330
1F
100
AcDbEntity
  8
F-A_文字
  6
Continuous
 62
     7
370
     0
100
AcDbText
 10
189.8449444699651
 20
-13210.3305753618
 30
0.0
 40
152.4
  1
図面名
  7
ＭＳ ゴシック
100
AcDbText
  0
TEXT
  5
B3
330
1F
100
AcDbEntity
  8
F-A_文字
  6
Continuous
 62
     7
370
     0
100
AcDbText
 10
5206.507789566038
 20
-14098.80577086844
 30
0.0
 40
304.8
  1
ウッドワン・・・
 41
1.109375
  7
ＭＳ ゴシック
100
AcDbText
  0
TEXT
  5
B4
330
1F
100
AcDbEntity
  8
F-A_文字
  6
Continuous
 62
     7
370
     0
100
AcDbText
 10
4506.507789566038
 20
-13907.00007000917
 30
0.0
 40
152.4
  1
株式
  7
ＭＳ ゴシック
100
AcDbText
  0
TEXT
  5
B5
330
1F
100
AcDbEntity
  8
F-A_文字
  6
Continuous
 62
     7
370
     0
100
AcDbText
 10
4506.507789566038
 20
-14147.0000700093
 30
0.0
 40
152.4
  1
会社
  7
ＭＳ ゴシック
100
AcDbText
  0
LINE
  5
B6
330
1F
100
AcDbEntity
  8
枠
  6
Continuous
 62
   200
370
    20
100
AcDbLine
 10
19389.84123287263
 20
-12955.197849432
 30
0.0
 11
-19610.15381833093
 21
-12955.197849432
 31
0.0
  0
LINE
  5
B7
330
1F
100
AcDbEntity
  8
枠
  6
Continuous
 62
   200
370
    20
100
AcDbLine
 10
19389.84123287263
 20
-12938.53123087864
 30
0.0
 11
-19610.15381833093
 21
-12938.53123087864
 31
0.0
  0
LINE
  5
B8
330
1F
100
AcDbEntity
  8
F-0_補助線
  6
JWW_HOJO
 62
     7
370
     9
100
AcDbLine
 10
-17101.97923230646
 20
-12955.197849432
 30
0.0
 11
-17101.97923230646
 21
-14321.86505565495
 31
0.0
  0
LINE
  5
B9
330
1F
100
AcDbEntity
  8
F-0_補助線
  6
JWW_HOJO
 62
     7
370
     9
100
AcDbLine
 10
-310.1550555300349
 20
-12955.197849432
 30
0.0
 11
-310.1550555300349
 21
-14288.53119994866
 31
0.0
  0
TEXT
  5
BA
330
1F
100
AcDbEntity
  8
F-A_文字
  6
Continuous
 62
     7
370
     9
100
AcDbText
 10
16844.0088021391
 20
-14062.91288145529
 30
0.0
 40
228.6
  1
01
 41
1.083333333333333
  7
ＭＳ ゴシック
100
AcDbText
  0
TEXT
  5
BB
330
1F
100
AcDbEntity
  8
0-A_文字
  6
Continuous
 62
     7
370
     9
100
AcDbText
 10
1556.5117486032
 20
-13412.8985879355
 30
0.0
 40
228.6
  1
e・ra・bo
 41
1.148148148148148
  7
ＭＳ ゴシック
100
AcDbText
  0
TEXT
  5
BC
330
1F
100
AcDbEntity
  8
F-A_文字
  6
Continuous
 62
     7
370
     0
100
AcDbText
 10
-17076.82127714869
 20
-13729.56429271665
 30
0.0
 40
228.6
  1
収納内部パーツ　e・ra・bo　モデルプランＣＬ－３２７（奥行き450）
 41
1.161458333333333
  7
ＭＳ ゴシック
100
AcDbText
  0
TEXT
  5
BD
330
1F
100
AcDbEntity
  8
0-A_文字
  6
Continuous
 62
     7
370
     9
100
AcDbText
 10
-5932.655055530033
 20
4095.063137429154
 30
0.0
 40
304.8
  1
平面図
 41
1.083333333333333
  7
ＭＳ ゴシック
100
AcDbText
  0
LINE
  5
BE
330
1F
100
AcDbEntity
  8
0-2
  6
Continuous
 62
    40
370
    15
100
AcDbLine
 10
-7705.155055530031
 20
6113.663137429148
 30
0.0
 11
-7705.155055530031
 21
8363.663137429148
 31
0.0
  0
LINE
  5
BF
330
1F
100
AcDbEntity
  8
0-2
  6
Continuous
 62
    40
370
    15
100
AcDbLine
 10
-7630.155055530031
 20
6113.663137429148
 30
0.0
 11
-7630.155055530031
 21
8363.663137429148
 31
0.0
  0
LINE
  5
C0
330
1F
100
AcDbEntity
  8
0-2
  6
Continuous
 62
    40
370
    15
100
AcDbLine
 10
-2935.155055530032
 20
6113.663137429148
 30
0.0
 11
-2935.155055530032
 21
8363.663137429148
 31
0.0
  0
LINE
  5
C1
330
1F
100
AcDbEntity
  8
0-2
  6
Continuous
 62
    40
370
    15
100
AcDbLine
 10
-2860.155055530032
 20
6113.663137429148
 30
0.0
 11
-2860.155055530032
 21
8363.663137429148
 31
0.0
  0
LINE
  5
C2
330
1F
100
AcDbEntity
  8
0-2
  6
Continuous
 62
    40
370
    15
100
AcDbLine
 10
-7705.155055530031
 20
8363.663137429148
 30
0.0
 11
-7630.155055530031
 21
8363.663137429148
 31
0.0
  0
LINE
  5
C3
330
1F
100
AcDbEntity
  8
0-2
  6
Continuous
 62
    40
370
    15
100
AcDbLine
 10
-2935.155055530032
 20
8363.663137429148
 30
0.0
 11
-2860.155055530032
 21
8363.663137429148
 31
0.0
  0
LINE
  5
C4
330
1F
100
AcDbEntity
  8
0-2
  6
Continuous
 62
    40
370
    15
100
AcDbLine
 10
-7705.155055530031
 20
6113.663137429148
 30
0.0
 11
-7630.155055530031
 21
6113.663137429148
 31
0.0
  0
LINE
  5
C5
330
1F
100
AcDbEntity
  8
0-2
  6
Continuous
 62
    40
370
    15
100
AcDbLine
 10
-2935.155055530032
 20
6113.663137429148
 30
0.0
 11
-2860.155055530032
 21
6113.663137429148
 31
0.0
  0
LINE
  5
C6
330
1F
100
AcDbEntity
  8
0-0_補助線
  6
JWW_HOJO
 62
   120
370
     5
100
AcDbLine
 10
-7955.155055530031
 20
8613.663137429148
 30
0.0
 11
-7955.155055530031
 21
5863.663137429148
 31
0.0
  0
LINE
  5
C7
330
1F
100
AcDbEntity
  8
0-0_補助線
  6
JWW_HOJO
 62
   120
370
     5
100
AcDbLine
 10
-7955.155055530031
 20
5863.663137429148
 30
0.0
 11
-2610.155055530032
 21
5863.663137429148
 31
0.0
  0
LINE
  5
C8
330
1F
100
AcDbEntity
  8
0-0_補助線
  6
JWW_HOJO
 62
   120
370
     5
100
AcDbLine
 10
-2610.155055530032
 20
8613.663137429148
 30
0.0
 11
-2610.155055530032
 21
5863.663137429148
 31
0.0
  0
LINE
  5
C9
330
1F
100
AcDbEntity
  8
0-0_補助線
  6
JWW_HOJO
 62
   120
370
     5
100
AcDbLine
 10
-7955.155055530031
 20
8613.663137429148
 30
0.0
 11
-2610.155055530032
 21
8613.663137429148
 31
0.0
  0
LINE
  5
CA
330
1F
100
AcDbEntity
  8
0-0_補助線
  6
JWW_HOJO
 62
   120
370
     5
100
AcDbLine
 10
-8705.155055530031
 20
9363.663137429148
 30
0.0
 11
-8705.155055530031
 21
5113.663137429148
 31
0.0
  0
LINE
  5
CB
330
1F
100
AcDbEntity
  8
0-0_補助線
  6
JWW_HOJO
 62
   120
370
     5
100
AcDbLine
 10
-8705.155055530031
 20
5113.663137429148
 30
0.0
 11
-1860.155055530032
 21
5113.663137429148
 31
0.0
  0
LINE
  5
CC
330
1F
100
AcDbEntity
  8
0-0_補助線
  6
JWW_HOJO
 62
   120
370
     5
100
AcDbLine
 10
-1860.155055530032
 20
9363.663137429148
 30
0.0
 11
-1860.155055530032
 21
5113.663137429148
 31
0.0
  0
LINE
  5
CD
330
1F
100
AcDbEntity
  8
0-0_補助線
  6
JWW_HOJO
 62
   120
370
     5
100
AcDbLine
 10
-8705.155055530031
 20
9363.663137429148
 30
0.0
 11
-1860.155055530032
 21
9363.663137429148
 31
0.0
  0
LINE
  5
CE
330
1F
100
AcDbEntity
  8
0-0_補助線
  6
JWW_HOJO
 62
   120
370
     5
100
AcDbLine
 10
-9205.155055530033
 20
9863.663137429148
 30
0.0
 11
-9205.155055530033
 21
4613.663137429148
 31
0.0
  0
LINE
  5
CF
330
1F
100
AcDbEntity
  8
0-0_補助線
  6
JWW_HOJO
 62
   120
370
     5
100
AcDbLine
 10
-9205.155055530033
 20
4613.663137429148
 30
0.0
 11
-1360.155055530032
 21
4613.663137429148
 31
0.0
  0
LINE
  5
D0
330
1F
100
AcDbEntity
  8
0-0_補助線
  6
JWW_HOJO
 62
   120
370
     5
100
AcDbLine
 10
-1360.155055530032
 20
9863.663137429148
 30
0.0
 11
-1360.155055530032
 21
4613.663137429148
 31
0.0
  0
LINE
  5
D1
330
1F
100
AcDbEntity
  8
0-0_補助線
  6
JWW_HOJO
 62
   120
370
     5
100
AcDbLine
 10
-9205.155055530033
 20
9863.663137429148
 30
0.0
 11
-1360.155055530032
 21
9863.663137429148
 31
0.0
  0
LINE
  5
D2
330
1F
100
AcDbEntity
  8
0-0_補助線
  6
JWW_HOJO
 62
     7
370
     9
100
AcDbLine
 10
-9205.155055530033
 20
8363.663137429148
 30
0.0
 11
-1360.155055530032
 21
8363.663137429148
 31
0.0
  0
LINE
  5
D3
330
1F
100
AcDbEntity
  8
0-0_補助線
  6
JWW_HOJO
 62
     7
370
     9
100
AcDbLine
 10
-9205.155055530033
 20
6113.663137429148
 30
0.0
 11
-1360.155055530032
 21
6113.663137429148
 31
0.0
  0
LINE
  5
D4
330
1F
100
AcDbEntity
  8
0-A_文字
  6
Continuous
 62
     7
370
     9
100
AcDbLine
 10
-7032.655055530035
 20
3863.663137429154
 30
0.0
 11
-3532.655055530031
 21
3863.663137429154
 31
0.0
  0
LINE
  5
D5
330
1F
100
AcDbEntity
  8
0-A_文字
  6
Continuous
 62
     7
370
     9
100
AcDbLine
 10
-3532.655055530031
 20
4613.663137429148
 30
0.0
 11
-7032.655055530035
 21
4613.663137429148
 31
0.0
  0
LINE
  5
D6
330
1F
100
AcDbEntity
  8
0-A_文字
  6
Continuous
 62
     7
370
     9
100
AcDbLine
 10
-7032.655055530035
 20
4613.663137429148
 30
0.0
 11
-7032.655055530035
 21
3863.663137429154
 31
0.0
  0
LINE
  5
D7
330
1F
100
AcDbEntity
  8
0-A_文字
  6
Continuous
 62
     7
370
     9
100
AcDbLine
 10
-3532.655055530031
 20
4613.663137429148
 30
0.0
 11
-3532.655055530031
 21
3863.663137429154
 31
0.0
  0
LINE
  5
D8
330
1F
100
AcDbEntity
  8
0-A_文字
  6
Continuous
 62
     7
370
     9
100
AcDbLine
 10
-6282.655055530033
 20
8613.663137429148
 30
0.0
 11
-6022.847434394703
 21
8463.663137429148
 31
0.0
  0
LINE
  5
D9
330
1F
100
AcDbEntity
  8
0-A_文字
  6
Continuous
 62
     7
370
     9
100
AcDbLine
 10
-6282.655055530033
 20
8613.663137429148
 30
0.0
 11
-6022.847434394703
 21
8763.663137429148
 31
0.0
  0
LINE
  5
DA
330
1F
100
AcDbEntity
  8
0-A_文字
  6
JWW_CENTER1
 62
     7
370
     9
100
AcDbLine
 10
-5282.655055530033
 20
8613.663137429148
 30
0.0
 11
-6282.655055530033
 21
8613.663137429148
 31
0.0
  0
LINE
  5
DB
330
1F
100
AcDbEntity
  8
0-A_文字
  6
Continuous
 62
     7
370
     9
100
AcDbLine
 10
-6282.655055530033
 20
5863.663137429148
 30
0.0
 11
-6022.847434394703
 21
6013.663137429148
 31
0.0
  0
LINE
  5
DC
330
1F
100
AcDbEntity
  8
0-A_文字
  6
Continuous
 62
     7
370
     9
100
AcDbLine
 10
-6282.655055530033
 20
5863.663137429148
 30
0.0
 11
-6022.847434394703
 21
5713.663137429148
 31
0.0
  0
LINE
  5
DD
330
1F
100
AcDbEntity
  8
0-A_文字
  6
JWW_CENTER1
 62
     7
370
     9
100
AcDbLine
 10
-5282.655055530033
 20
5863.663137429148
 30
0.0
 11
-6282.655055530033
 21
5863.663137429148
 31
0.0
  0
LINE
  5
DE
330
1F
100
AcDbEntity
  8
0-A_文字
  6
JWW_CENTER1
 62
     7
370
     9
100
AcDbLine
 10
-5282.655055530033
 20
8613.663137429148
 30
0.0
 11
-5282.655055530033
 21
5863.663137429148
 31
0.0
  0
TEXT
  5
DF
330
1F
100
AcDbEntity
  8
0-A_文字
  6
Continuous
 62
     7
370
     9
100
AcDbText
 10
-5282.655055530032
 20
8670.063137429148
 30
0.0
 40
304.8
  1
ａ’
 41
1.0625
  7
ＭＳ ゴシック
100
AcDbText
  0
TEXT
  5
E0
330
1F
100
AcDbEntity
  8
0-A_文字
  6
Continuous
 62
     7
370
     9
100
AcDbText
 10
-5282.655055530033
 20
5520.063137429148
 30
0.0
 40
304.8
  1
ａ
  7
ＭＳ ゴシック
100
AcDbText
  0
TEXT
  5
E1
330
1F
100
AcDbEntity
  8
0-B_寸法
  6
Continuous
 62
     7
370
   211
100
AcDbText
 10
-5832.655055530032
 20
9420.063137429148
 30
0.0
 40
304.8
  1
～969
 41
1.1
  7
ＭＳ ゴシック
100
AcDbText
  0
TEXT
  5
E2
330
1F
100
AcDbEntity
  8
0-B_寸法
  6
Continuous
 62
     7
370
   211
100
AcDbText
 10
-1916.555055530032
 20
6913.663137429148
 30
0.0
 40
304.8
  1
450
 50
90.0
 41
1.083333333333333
  7
ＭＳ ゴシック
100
AcDbText
  0
TEXT
  5
E3
330
1F
100
AcDbEntity
  8
0-B_寸法
  6
Continuous
 62
     7
370
   211
100
AcDbText
 10
-2882.281876977993
 20
5170.063137429148
 30
0.0
 40
304.8
  1
15
 41
1.0625
  7
ＭＳ ゴシック
100
AcDbText
  0
LINE
  5
E4
330
1F
100
AcDbEntity
  8
0-B_寸法
  6
Continuous
 62
   120
370
     5
100
AcDbLine
 10
-7705.155055530031
 20
5113.663137429148
 30
0.0
 11
-7630.155055530031
 21
5113.663137429148
 31
0.0
  0
LWPOLYLINE
  5
E5
330
1F
100
AcDbEntity
  8
0-B_寸法
  6
Continuous
 62
     7
370
     9
100
AcDbPolyline
 90
        4
 70
     1
 43
20.0
 10
-7695.155055530032
 20
5113.663137429148
 42
0.4142135623731
 10
-7705.155055530031
 20
5123.663137429148
 42
0.4142135623731
 10
-7715.15505553003
 20
5113.663137429148
 42
0.4142135623731
 10
-7705.155055530031
 20
5103.663137429148
 42
0.4142135623731
  0
LWPOLYLINE
  5
E6
330
1F
100
AcDbEntity
  8
0-B_寸法
  6
Continuous
 62
     7
370
     9
100
AcDbPolyline
 90
        4
 70
     1
 43
20.0
 10
-7620.155055530032
 20
5113.663137429148
 42
0.4142135623731
 10
-7630.155055530031
 20
5123.663137429148
 42
0.4142135623731
 10
-7640.15505553003
 20
5113.663137429148
 42
0.4142135623731
 10
-7630.155055530031
 20
5103.663137429148
 42
0.4142135623731
  0
LINE
  5
E7
330
1F
100
AcDbEntity
  8
0-B_寸法
  6
Continuous
 62
   120
370
     5
100
AcDbLine
 10
-7705.155055530031
 20
5113.663137429148
 30
0.0
 11
-7705.155055530031
 21
5863.663137429148
 31
0.0
  0
LINE
  5
E8
330
1F
100
AcDbEntity
  8
0-B_寸法
  6
Continuous
 62
   120
370
     5
100
AcDbLine
 10
-7630.155055530031
 20
5113.663137429148
 30
0.0
 11
-7630.155055530031
 21
5863.663137429148
 31
0.0
  0
LWPOLYLINE
  5
E9
330
1F
100
AcDbEntity
  8
0-B_寸法
  6
Continuous
 62
     7
370
     9
100
AcDbPolyline
 90
        4
 70
     1
 43
20.0
 10
-2925.155055530032
 20
5113.663137429148
 42
0.4142135623731
 10
-2935.155055530032
 20
5123.663137429148
 42
0.4142135623731
 10
-2945.155055530032
 20
5113.663137429148
 42
0.4142135623731
 10
-2935.155055530032
 20
5103.663137429148
 42
0.4142135623731
  0
LINE
  5
EA
330
1F
100
AcDbEntity
  8
0-B_寸法
  6
Continuous
 62
   120
370
     5
100
AcDbLine
 10
-2935.155055530032
 20
5113.663137429148
 30
0.0
 11
-2935.155055530032
 21
5863.663137429148
 31
0.0
  0
LINE
  5
EB
330
1F
100
AcDbEntity
  8
0-B_寸法
  6
Continuous
 62
   120
370
     5
100
AcDbLine
 10
-2935.155055530032
 20
5113.663137429148
 30
0.0
 11
-2860.155055530032
 21
5113.663137429148
 31
0.0
  0
LWPOLYLINE
  5
EC
330
1F
100
AcDbEntity
  8
0-B_寸法
  6
Continuous
 62
     7
370
     9
100
AcDbPolyline
 90
        4
 70
     1
 43
20.0
 10
-2850.155055530032
 20
5113.663137429148
 42
0.4142135623731
 10
-2860.155055530032
 20
5123.663137429148
 42
0.4142135623731
 10
-2870.155055530032
 20
5113.663137429148
 42
0.4142135623731
 10
-2860.155055530032
 20
5103.663137429148
 42
0.4142135623731
  0
LINE
  5
ED
330
1F
100
AcDbEntity
  8
0-B_寸法
  6
Continuous
 62
   120
370
     5
100
AcDbLine
 10
-2860.155055530032
 20
5113.663137429148
 30
0.0
 11
-2860.155055530032
 21
5863.663137429148
 31
0.0
  0
LINE
  5
EE
330
1F
100
AcDbEntity
  8
0-B_寸法
  6
Continuous
 62
   120
370
     5
100
AcDbLine
 10
-1860.155055530032
 20
8363.663137429148
 30
0.0
 11
-1860.155055530032
 21
6113.663137429148
 31
0.0
  0
LWPOLYLINE
  5
EF
330
1F
100
AcDbEntity
  8
0-B_寸法
  6
Continuous
 62
     7
370
     9
100
AcDbPolyline
 90
        4
 70
     1
 43
20.0
 10
-1850.155055530032
 20
8363.663137429148
 42
0.4142135623731
 10
-1860.155055530032
 20
8373.663137429148
 42
0.4142135623731
 10
-1870.155055530032
 20
8363.663137429148
 42
0.4142135623731
 10
-1860.155055530032
 20
8353.663137429148
 42
0.4142135623731
  0
LWPOLYLINE
  5
F0
330
1F
100
AcDbEntity
  8
0-B_寸法
  6
Continuous
 62
     7
370
     9
100
AcDbPolyline
 90
        4
 70
     1
 43
20.0
 10
-1850.155055530032
 20
6113.663137429148
 42
0.4142135623731
 10
-1860.155055530032
 20
6123.663137429148
 42
0.4142135623731
 10
-1870.155055530032
 20
6113.663137429148
 42
0.4142135623731
 10
-1860.155055530032
 20
6103.663137429148
 42
0.4142135623731
  0
LINE
  5
F1
330
1F
100
AcDbEntity
  8
0-B_寸法
  6
Continuous
 62
   120
370
     5
100
AcDbLine
 10
-1860.155055530032
 20
8363.663137429148
 30
0.0
 11
-2610.155055530032
 21
8363.663137429148
 31
0.0
  0
LINE
  5
F2
330
1F
100
AcDbEntity
  8
0-B_寸法
  6
Continuous
 62
   120
370
     5
100
AcDbLine
 10
-1860.155055530032
 20
6113.663137429148
 30
0.0
 11
-2610.155055530032
 21
6113.663137429148
 31
0.0
  0
LINE
  5
F3
330
1F
100
AcDbEntity
  8
0-B_寸法
  6
Continuous
 62
   120
370
     5
100
AcDbLine
 10
-7705.155055530031
 20
9363.663137429148
 30
0.0
 11
-2860.155055530032
 21
9363.663137429148
 31
0.0
  0
LWPOLYLINE
  5
F4
330
1F
100
AcDbEntity
  8
0-B_寸法
  6
Continuous
 62
     7
370
     9
100
AcDbPolyline
 90
        4
 70
     1
 43
20.0
 10
-7695.155055530032
 20
9363.663137429148
 42
0.4142135623731
 10
-7705.155055530031
 20
9373.663137429148
 42
0.4142135623731
 10
-7715.15505553003
 20
9363.663137429148
 42
0.4142135623731
 10
-7705.155055530031
 20
9353.663137429148
 42
0.4142135623731
  0
LWPOLYLINE
  5
F5
330
1F
100
AcDbEntity
  8
0-B_寸法
  6
Continuous
 62
     7
370
     9
100
AcDbPolyline
 90
        4
 70
     1
 43
20.0
 10
-2850.155055530032
 20
9363.663137429148
 42
0.4142135623731
 10
-2860.155055530032
 20
9373.663137429148
 42
0.4142135623731
 10
-2870.155055530032
 20
9363.663137429148
 42
0.4142135623731
 10
-2860.155055530032
 20
9353.663137429148
 42
0.4142135623731
  0
LINE
  5
F6
330
1F
100
AcDbEntity
  8
0-B_寸法
  6
Continuous
 62
   120
370
     5
100
AcDbLine
 10
-7705.155055530031
 20
9363.663137429148
 30
0.0
 11
-7705.155055530031
 21
8613.663137429148
 31
0.0
  0
LINE
  5
F7
330
1F
100
AcDbEntity
  8
0-B_寸法
  6
Continuous
 62
   120
370
     5
100
AcDbLine
 10
-2860.155055530032
 20
9363.663137429148
 30
0.0
 11
-2860.155055530032
 21
8613.663137429148
 31
0.0
  0
TEXT
  5
F8
330
1F
100
AcDbEntity
  8
0-B_寸法
  6
Continuous
 62
     7
370
   211
100
AcDbText
 10
-8156.583365665059
 20
5170.063137429148
 30
0.0
 40
304.8
  1
15
 41
1.0625
  7
ＭＳ ゴシック
100
AcDbText
  0
LINE
  5
F9
330
1F
100
AcDbEntity
  8
0-B_寸法
  6
Continuous
 62
   120
370
     5
100
AcDbLine
 10
-7630.155055530031
 20
5113.663137429148
 30
0.0
 11
-2935.155055530032
 21
5113.663137429148
 31
0.0
  0
TEXT
  5
FA
330
1F
100
AcDbEntity
  8
0-B_寸法
  6
Continuous
 62
     7
370
   211
100
AcDbText
 10
-5832.655055530032
 20
5170.063137429148
 30
0.0
 40
304.8
  1
～939
 41
1.1
  7
ＭＳ ゴシック
100
AcDbText
  0
TEXT
  5
FB
330
1F
100
AcDbEntity
  8
0-B_寸法
  6
Continuous
 62
     7
370
   211
100
AcDbText
 10
-5945.155055530032
 20
4775.686342927353
 30
0.0
 40
304.8
  1
ﾌﾘｰｶｯﾄ
 41
1.104166666666667
  7
ＭＳ ゴシック
100
AcDbText
  0
TEXT
  5
FC
330
1F
100
AcDbEntity
  8
0-A_文字
  6
Continuous
 62
     7
370
     9
100
AcDbText
 10
2214.844944469969
 20
-11074.93632129509
 30
0.0
 40
304.8
  1
ａ－ａ’断面図
 41
1.107142857142857
  7
ＭＳ ゴシック
100
AcDbText
  0
LINE
  5
FD
330
1F
100
AcDbEntity
  8
0-A_文字
  6
Continuous
 62
     7
370
     9
100
AcDbLine
 10
5639.844944575425
 20
-10556.33632129509
 30
0.0
 11
5639.844944575425
 21
-11306.33632129509
 31
0.0
  0
LINE
  5
FE
330
1F
100
AcDbEntity
  8
0-A_文字
  6
Continuous
 62
     7
370
     9
100
AcDbLine
 10
1889.844944364513
 20
-10556.33632129509
 30
0.0
 11
1889.844944364513
 21
-11306.33632129509
 31
0.0
  0
LINE
  5
FF
330
1F
100
AcDbEntity
  8
0-A_文字
  6
Continuous
 62
     7
370
     9
100
AcDbLine
 10
5639.844944575425
 20
-10556.33632129509
 30
0.0
 11
1889.844944364513
 21
-10556.33632129509
 31
0.0
  0
LINE
  5
100
330
1F
100
AcDbEntity
  8
0-A_文字
  6
Continuous
 62
     7
370
     9
100
AcDbLine
 10
1889.844944364513
 20
-11306.33632129509
 30
0.0
 11
5639.844944575425
 21
-11306.33632129509
 31
0.0
  0
LINE
  5
101
330
1F
100
AcDbEntity
  8
0-A_文字
  6
Continuous
 62
     7
370
     9
100
AcDbLine
 10
-5809.413246599811
 20
-5348.530716319568
 30
0.0
 11
-4755.896864460249
 21
-5348.530716319568
 31
0.0
  0
TEXT
  5
102
330
1F
100
AcDbEntity
  8
0-A_文字
  6
Continuous
 62
     7
370
     9
100
AcDbText
 10
-5809.413246599811
 20
-5306.230716319568
 30
0.0
 40
228.6
  1
可動棚
 41
1.111111111111111
  7
ＭＳ ゴシック
100
AcDbText
  0
LINE
  5
103
330
1F
100
AcDbEntity
  8
0-A_文字
  6
Continuous
 62
     7
370
     9
100
AcDbLine
 10
-5809.413246599811
 20
-5348.530716319568
 30
0.0
 11
-6085.741034393374
 21
-5827.144484321133
 31
0.0
  0
LINE
  5
104
330
1F
100
AcDbEntity
  8
可動棚
  6
Continuous
 62
    92
370
    13
100
AcDbLine
 10
-7630.155055530031
 20
-5876.336321295031
 30
0.0
 11
-7630.155055530031
 21
-5771.336321295032
 31
0.0
  0
LINE
  5
105
330
1F
100
AcDbEntity
  8
可動棚
  6
Continuous
 62
    92
370
    13
100
AcDbLine
 10
-2935.155055530031
 20
-5771.336321295032
 30
0.0
 11
-2935.155055530031
 21
-5876.336321295031
 31
0.0
  0
LINE
  5
106
330
1F
100
AcDbEntity
  8
可動棚
  6
Continuous
 62
    92
370
    13
100
AcDbLine
 10
-2935.155055530031
 20
-5876.336321295031
 30
0.0
 11
-7630.155055530031
 21
-5876.336321295031
 31
0.0
  0
LINE
  5
107
330
1F
100
AcDbEntity
  8
可動棚
  6
Continuous
 62
    92
370
    13
100
AcDbLine
 10
-2935.155055530031
 20
-5771.336321295032
 30
0.0
 11
-7630.155055530031
 21
-5771.336321295032
 31
0.0
  0
LINE
  5
108
330
1F
100
AcDbEntity
  8
0-A_文字
  6
Continuous
 62
     7
370
     9
100
AcDbLine
 10
-5809.413246599811
 20
-3908.530716319582
 30
0.0
 11
-4755.896864460249
 21
-3908.530716319582
 31
0.0
  0
TEXT
  5
109
330
1F
100
AcDbEntity
  8
0-A_文字
  6
Continuous
 62
     7
370
     9
100
AcDbText
 10
-5809.413246599811
 20
-3866.230716319582
 30
0.0
 40
228.6
  1
可動棚
 41
1.111111111111111
  7
ＭＳ ゴシック
100
AcDbText
  0
LINE
  5
10A
330
1F
100
AcDbEntity
  8
0-A_文字
  6
Continuous
 62
     7
370
     9
100
AcDbLine
 10
-5809.413246599811
 20
-3908.530716319582
 30
0.0
 11
-6085.741034393374
 21
-4387.144484321147
 31
0.0
  0
LINE
  5
10B
330
1F
100
AcDbEntity
  8
可動棚
  6
Continuous
 62
    92
370
    13
100
AcDbLine
 10
-7630.155055530031
 20
-4436.336321295044
 30
0.0
 11
-7630.155055530031
 21
-4331.336321295045
 31
0.0
  0
LINE
  5
10C
330
1F
100
AcDbEntity
  8
可動棚
  6
Continuous
 62
    92
370
    13
100
AcDbLine
 10
-2935.155055530031
 20
-4331.336321295045
 30
0.0
 11
-2935.155055530031
 21
-4436.336321295044
 31
0.0
  0
LINE
  5
10D
330
1F
100
AcDbEntity
  8
可動棚
  6
Continuous
 62
    92
370
    13
100
AcDbLine
 10
-2935.155055530031
 20
-4436.336321295044
 30
0.0
 11
-7630.155055530031
 21
-4436.336321295044
 31
0.0
  0
LINE
  5
10E
330
1F
100
AcDbEntity
  8
可動棚
  6
Continuous
 62
    92
370
    13
100
AcDbLine
 10
-2935.155055530031
 20
-4331.336321295045
 30
0.0
 11
-7630.155055530031
 21
-4331.336321295045
 31
0.0
  0
LINE
  5
10F
330
1F
100
AcDbEntity
  8
0-A_文字
  6
Continuous
 62
     7
370
     9
100
AcDbLine
 10
-5809.413246599811
 20
-2468.530716319596
 30
0.0
 11
-4755.896864460249
 21
-2468.530716319596
 31
0.0
  0
TEXT
  5
110
330
1F
100
AcDbEntity
  8
0-A_文字
  6
Continuous
 62
     7
370
     9
100
AcDbText
 10
-5809.413246599811
 20
-2426.230716319596
 30
0.0
 40
228.6
  1
可動棚
 41
1.111111111111111
  7
ＭＳ ゴシック
100
AcDbText
  0
LINE
  5
111
330
1F
100
AcDbEntity
  8
0-A_文字
  6
Continuous
 62
     7
370
     9
100
AcDbLine
 10
-5809.413246599811
 20
-2468.530716319596
 30
0.0
 11
-6085.741034393374
 21
-2947.14448432116
 31
0.0
  0
LINE
  5
112
330
1F
100
AcDbEntity
  8
可動棚
  6
Continuous
 62
    92
370
    13
100
AcDbLine
 10
-7630.155055530031
 20
-2996.336321295058
 30
0.0
 11
-7630.155055530031
 21
-2891.336321295058
 31
0.0
  0
LINE
  5
113
330
1F
100
AcDbEntity
  8
可動棚
  6
Continuous
 62
    92
370
    13
100
AcDbLine
 10
-2935.155055530031
 20
-2891.336321295058
 30
0.0
 11
-2935.155055530031
 21
-2996.336321295058
 31
0.0
  0
LINE
  5
114
330
1F
100
AcDbEntity
  8
可動棚
  6
Continuous
 62
    92
370
    13
100
AcDbLine
 10
-2935.155055530031
 20
-2996.336321295058
 30
0.0
 11
-7630.155055530031
 21
-2996.336321295058
 31
0.0
  0
LINE
  5
115
330
1F
100
AcDbEntity
  8
可動棚
  6
Continuous
 62
    92
370
    13
100
AcDbLine
 10
-2935.155055530031
 20
-2891.336321295058
 30
0.0
 11
-7630.155055530031
 21
-2891.336321295058
 31
0.0
  0
LINE
  5
116
330
1F
100
AcDbEntity
  8
0-A_文字
  6
Continuous
 62
     7
370
     9
100
AcDbLine
 10
-5809.413246599811
 20
-1028.530716319609
 30
0.0
 11
-4755.896864460249
 21
-1028.530716319609
 31
0.0
  0
TEXT
  5
117
330
1F
100
AcDbEntity
  8
0-A_文字
  6
Continuous
 62
     7
370
     9
100
AcDbText
 10
-5809.413246599811
 20
-986.2307163196094
 30
0.0
 40
228.6
  1
可動棚
 41
1.111111111111111
  7
ＭＳ ゴシック
100
AcDbText
  0
LINE
  5
118
330
1F
100
AcDbEntity
  8
0-A_文字
  6
Continuous
 62
     7
370
     9
100
AcDbLine
 10
-5809.413246599811
 20
-1028.530716319609
 30
0.0
 11
-6085.741034393374
 21
-1507.144484321174
 31
0.0
  0
LINE
  5
119
330
1F
100
AcDbEntity
  8
可動棚
  6
Continuous
 62
    92
370
    13
100
AcDbLine
 10
-7630.155055530031
 20
-1556.336321295072
 30
0.0
 11
-7630.155055530031
 21
-1451.336321295072
 31
0.0
  0
LINE
  5
11A
330
1F
100
AcDbEntity
  8
可動棚
  6
Continuous
 62
    92
370
    13
100
AcDbLine
 10
-2935.155055530031
 20
-1451.336321295072
 30
0.0
 11
-2935.155055530031
 21
-1556.336321295072
 31
0.0
  0
LINE
  5
11B
330
1F
100
AcDbEntity
  8
可動棚
  6
Continuous
 62
    92
370
    13
100
AcDbLine
 10
-2935.155055530031
 20
-1556.336321295072
 30
0.0
 11
-7630.155055530031
 21
-1556.336321295072
 31
0.0
  0
LINE
  5
11C
330
1F
100
AcDbEntity
  8
可動棚
  6
Continuous
 62
    92
370
    13
100
AcDbLine
 10
-2935.155055530031
 20
-1451.336321295072
 30
0.0
 11
-7630.155055530031
 21
-1451.336321295072
 31
0.0
  0
LINE
  5
11D
330
1F
100
AcDbEntity
  8
0-A_文字
  6
Continuous
 62
     7
370
     9
100
AcDbLine
 10
-5809.413246599811
 20
411.4692836803755
 30
0.0
 11
-4755.896864460249
 21
411.4692836803755
 31
0.0
  0
TEXT
  5
11E
330
1F
100
AcDbEntity
  8
0-A_文字
  6
Continuous
 62
     7
370
     9
100
AcDbText
 10
-5809.413246599811
 20
453.7692836803755
 30
0.0
 40
228.6
  1
可動棚
 41
1.111111111111111
  7
ＭＳ ゴシック
100
AcDbText
  0
LINE
  5
11F
330
1F
100
AcDbEntity
  8
0-A_文字
  6
Continuous
 62
     7
370
     9
100
AcDbLine
 10
-5809.413246599811
 20
411.4692836803755
 30
0.0
 11
-6085.741034393374
 21
-67.14448432119013
 31
0.0
  0
LINE
  5
120
330
1F
100
AcDbEntity
  8
可動棚
  6
Continuous
 62
    92
370
    13
100
AcDbLine
 10
-7630.155055530031
 20
-116.3363212950856
 30
0.0
 11
-7630.155055530031
 21
-11.33632129508726
 31
0.0
  0
LINE
  5
121
330
1F
100
AcDbEntity
  8
可動棚
  6
Continuous
 62
    92
370
    13
100
AcDbLine
 10
-2935.155055530031
 20
-11.33632129508726
 30
0.0
 11
-2935.155055530031
 21
-116.3363212950856
 31
0.0
  0
LINE
  5
122
330
1F
100
AcDbEntity
  8
可動棚
  6
Continuous
 62
    92
370
    13
100
AcDbLine
 10
-2935.155055530031
 20
-116.3363212950856
 30
0.0
 11
-7630.155055530031
 21
-116.3363212950856
 31
0.0
  0
LINE
  5
123
330
1F
100
AcDbEntity
  8
可動棚
  6
Continuous
 62
    92
370
    13
100
AcDbLine
 10
-2935.155055530031
 20
-11.33632129508726
 30
0.0
 11
-7630.155055530031
 21
-11.33632129508726
 31
0.0
  0
TEXT
  5
124
330
1F
100
AcDbEntity
  8
0-B_寸法
  6
Continuous
 62
     7
370
   211
100
AcDbText
 10
-8797.160707409459
 20
915.4498943208978
 30
0.0
 40
304.8
  1
21
 50
90.0
 41
1.0625
  7
ＭＳ ゴシック
100
AcDbText
  0
TEXT
  5
125
330
1F
100
AcDbEntity
  8
0-B_寸法
  6
Continuous
 62
     7
370
   211
100
AcDbText
 10
-9417.791343269977
 20
-4146.336321964364
 30
0.0
 40
304.8
  1
1,984
 50
90.0
 41
1.1
  7
ＭＳ ゴシック
100
AcDbText
  0
TEXT
  5
126
330
1F
100
AcDbEntity
  8
0-B_寸法
  6
Continuous
 62
     7
370
   211
100
AcDbText
 10
-8767.79134326998
 20
-4198.836321964364
 30
0.0
 40
304.8
  1
1,963
 50
90.0
 41
1.1
  7
ＭＳ ゴシック
100
AcDbText
  0
LWPOLYLINE
  5
127
330
1F
100
AcDbEntity
  8
0-B_寸法
  6
Continuous
 62
     7
370
     9
100
AcDbPolyline
 90
        4
 70
     1
 43
20.0
 10
-9345.155055530031
 20
-8556.336322633644
 42
0.4142135623731
 10
-9355.155055530031
 20
-8546.336322633644
 42
0.4142135623731
 10
-9365.155055530031
 20
-8556.336322633644
 42
0.4142135623731
 10
-9355.155055530031
 20
-8566.336322633642
 42
0.4142135623731
  0
LWPOLYLINE
  5
128
330
1F
100
AcDbEntity
  8
0-B_寸法
  6
Continuous
 62
     7
370
     9
100
AcDbPolyline
 90
        4
 70
     1
 43
20.0
 10
-9345.155055530031
 20
1363.663678704913
 42
0.4142135623731
 10
-9355.155055530031
 20
1373.663678704913
 42
0.4142135623731
 10
-9365.155055530031
 20
1363.663678704913
 42
0.4142135623731
 10
-9355.155055530031
 20
1353.663678704913
 42
0.4142135623731
  0
LINE
  5
129
330
1F
100
AcDbEntity
  8
0-B_寸法
  6
Continuous
 62
   120
370
     5
100
AcDbLine
 10
-9355.155055530031
 20
1363.663678704913
 30
0.0
 11
-9355.155055530031
 21
-8556.336322633644
 31
0.0
  0
LINE
  5
12A
330
1F
100
AcDbEntity
  8
0-B_寸法
  6
Continuous
 62
   120
370
     5
100
AcDbLine
 10
-9355.155055530031
 20
1363.663678704913
 30
0.0
 11
-7955.155055530031
 21
1363.663678704913
 31
0.0
  0
LINE
  5
12B
330
1F
100
AcDbEntity
  8
0-B_寸法
  6
Continuous
 62
   120
370
     5
100
AcDbLine
 10
-9355.155055530031
 20
-8556.336322633644
 30
0.0
 11
-7955.155055530031
 21
-8556.336321295088
 31
0.0
  0
LWPOLYLINE
  5
12C
330
1F
100
AcDbEntity
  8
0-B_寸法
  6
Continuous
 62
     7
370
     9
100
AcDbPolyline
 90
        4
 70
     1
 43
20.0
 10
-8695.155055530035
 20
-8556.336322633644
 42
0.4142135623731
 10
-8705.155055530035
 20
-8546.336322633644
 42
0.4142135623731
 10
-8715.155055530033
 20
-8556.336322633644
 42
0.4142135623731
 10
-8705.155055530035
 20
-8566.336322633642
 42
0.4142135623731
  0
LINE
  5
12D
330
1F
100
AcDbEntity
  8
0-B_寸法
  6
Continuous
 62
   120
370
     5
100
AcDbLine
 10
-8705.155055530035
 20
1258.663678704914
 30
0.0
 11
-8705.155055530035
 21
-8556.336322633644
 31
0.0
  0
LINE
  5
12E
330
1F
100
AcDbEntity
  8
0-B_寸法
  6
Continuous
 62
   120
370
     5
100
AcDbLine
 10
-8705.155055530035
 20
1258.663678704914
 30
0.0
 11
-7955.155055530031
 21
1258.663678704914
 31
0.0
  0
LWPOLYLINE
  5
12F
330
1F
100
AcDbEntity
  8
0-B_寸法
  6
Continuous
 62
     7
370
     9
100
AcDbPolyline
 90
        4
 70
     1
 43
20.0
 10
-8695.155055530035
 20
1258.663678704914
 42
0.4142135623731
 10
-8705.155055530035
 20
1268.663678704914
 42
0.4142135623731
 10
-8715.155055530033
 20
1258.663678704914
 42
0.4142135623731
 10
-8705.155055530035
 20
1248.663678704914
 42
0.4142135623731
  0
LWPOLYLINE
  5
130
330
1F
100
AcDbEntity
  8
0-B_寸法
  6
Continuous
 62
     7
370
     9
100
AcDbPolyline
 90
        4
 70
     1
 43
20.0
 10
-8695.155055530035
 20
1363.663678704913
 42
0.4142135623731
 10
-8705.155055530035
 20
1373.663678704913
 42
0.4142135623731
 10
-8715.155055530033
 20
1363.663678704913
 42
0.4142135623731
 10
-8705.155055530035
 20
1353.663678704913
 42
0.4142135623731
  0
LINE
  5
131
330
1F
100
AcDbEntity
  8
0-B_寸法
  6
Continuous
 62
   120
370
     5
100
AcDbLine
 10
-8705.155055530035
 20
1363.663678704913
 30
0.0
 11
-8705.155055530035
 21
1258.663678704914
 31
0.0
  0
LINE
  5
132
330
1F
100
AcDbEntity
  8
0-0_補助線
  6
JWW_HOJO
 62
     7
370
     9
100
AcDbLine
 10
-7955.155055530031
 20
-8556.336322633644
 30
0.0
 11
5139.844944469969
 21
-8556.336322633644
 31
0.0
  0
LINE
  5
133
330
1F
100
AcDbEntity
  8
0-0_補助線
  6
JWW_HOJO
 62
     7
370
     9
100
AcDbLine
 10
-7955.155055530031
 20
1363.663677366355
 30
0.0
 11
5139.844944469969
 21
1363.663677366355
 31
0.0
  0
TEXT
  5
134
330
1F
100
AcDbEntity
  8
0-B_寸法
  6
Continuous
 62
     7
370
   211
100
AcDbText
 10
-5832.655055530031
 20
-9999.936321295087
 30
0.0
 40
304.8
  1
～969
 41
1.1
  7
ＭＳ ゴシック
100
AcDbText
  0
TEXT
  5
135
330
1F
100
AcDbEntity
  8
0-B_寸法
  6
Continuous
 62
     7
370
   211
100
AcDbText
 10
-6732.655055530032
 20
-9499.936321295087
 30
0.0
 40
304.8
  1
～939　ﾌﾘｰｶｯﾄ
 41
1.115384615384616
  7
ＭＳ ゴシック
100
AcDbText
  0
TEXT
  5
136
330
1F
100
AcDbEntity
  8
0-B_寸法
  6
Continuous
 62
     7
370
   211
100
AcDbText
 10
-2870.16377383359
 20
-9499.936321295087
 30
0.0
 40
304.8
  1
15
 41
1.0625
  7
ＭＳ ゴシック
100
AcDbText
  0
TEXT
  5
137
330
1F
100
AcDbEntity
  8
0-B_寸法
  6
Continuous
 62
     7
370
   211
100
AcDbText
 10
-8136.621454084371
 20
-9499.936321295087
 30
0.0
 40
304.8
  1
15
 41
1.0625
  7
ＭＳ ゴシック
100
AcDbText
  0
LINE
  5
138
330
1F
100
AcDbEntity
  8
0-0_補助線
  6
JWW_HOJO
 62
   120
370
     5
100
AcDbLine
 10
-10005.15505553003
 20
2363.66367870491
 30
0.0
 11
-10005.15505553003
 21
-10056.33632129509
 31
0.0
  0
LINE
  5
139
330
1F
100
AcDbEntity
  8
0-0_補助線
  6
JWW_HOJO
 62
   120
370
     5
100
AcDbLine
 10
-9355.155055530031
 20
2363.66367870491
 30
0.0
 11
-9355.155055530031
 21
-10056.33632129509
 31
0.0
  0
LINE
  5
13A
330
1F
100
AcDbEntity
  8
0-0_補助線
  6
JWW_HOJO
 62
   120
370
     5
100
AcDbLine
 10
-1860.155055530031
 20
-10056.33632129509
 30
0.0
 11
-10005.15505553003
 21
-10056.33632129509
 31
0.0
  0
LINE
  5
13B
330
1F
100
AcDbEntity
  8
0-0_補助線
  6
JWW_HOJO
 62
   120
370
     5
100
AcDbLine
 10
-1860.155055530031
 20
2363.66367870491
 30
0.0
 11
-10005.15505553003
 21
2363.66367870491
 31
0.0
  0
LINE
  5
13C
330
1F
100
AcDbEntity
  8
0-B_寸法
  6
Continuous
 62
   120
370
     5
100
AcDbLine
 10
-2935.155055530031
 20
-9556.336321295086
 30
0.0
 11
-7630.155055530031
 21
-9556.336321295086
 31
0.0
  0
LINE
  5
13D
330
1F
100
AcDbEntity
  8
0-B_寸法
  6
Continuous
 62
   120
370
     5
100
AcDbLine
 10
-2860.155055530031
 20
-10056.33632129509
 30
0.0
 11
-2860.155055530031
 21
-9556.336321295086
 31
0.0
  0
LINE
  5
13E
330
1F
100
AcDbEntity
  8
0-B_寸法
  6
Continuous
 62
   120
370
     5
100
AcDbLine
 10
-7705.155055530031
 20
-10056.33632129509
 30
0.0
 11
-7705.155055530031
 21
-9556.336321295086
 31
0.0
  0
LWPOLYLINE
  5
13F
330
1F
100
AcDbEntity
  8
0-B_寸法
  6
Continuous
 62
     7
370
     9
100
AcDbPolyline
 90
        4
 70
     1
 43
20.0
 10
-2850.155055530031
 20
-10056.33632129509
 42
0.4142135623731
 10
-2860.155055530031
 20
-10046.33632129509
 42
0.4142135623731
 10
-2870.155055530031
 20
-10056.33632129509
 42
0.4142135623731
 10
-2860.155055530031
 20
-10066.33632129509
 42
0.4142135623731
  0
LWPOLYLINE
  5
140
330
1F
100
AcDbEntity
  8
0-B_寸法
  6
Continuous
 62
     7
370
     9
100
AcDbPolyline
 90
        4
 70
     1
 43
20.0
 10
-7695.155055530032
 20
-10056.33632129509
 42
0.4142135623731
 10
-7705.155055530031
 20
-10046.33632129509
 42
0.4142135623731
 10
-7715.15505553003
 20
-10056.33632129509
 42
0.4142135623731
 10
-7705.155055530031
 20
-10066.33632129509
 42
0.4142135623731
  0
LINE
  5
141
330
1F
100
AcDbEntity
  8
0-B_寸法
  6
Continuous
 62
   120
370
     5
100
AcDbLine
 10
-7705.155055530031
 20
-10056.33632129509
 30
0.0
 11
-2860.155055530031
 21
-10056.33632129509
 31
0.0
  0
LINE
  5
142
330
1F
100
AcDbEntity
  8
0-B_寸法
  6
Continuous
 62
   120
370
     5
100
AcDbLine
 10
-2860.155055530031
 20
-9556.336321295086
 30
0.0
 11
-2935.155055530031
 21
-9556.336321295086
 31
0.0
  0
LINE
  5
143
330
1F
100
AcDbEntity
  8
0-B_寸法
  6
Continuous
 62
   120
370
     5
100
AcDbLine
 10
-2860.155055530031
 20
-9556.336321295086
 30
0.0
 11
-2860.155055530031
 21
-8806.336321295086
 31
0.0
  0
LINE
  5
144
330
1F
100
AcDbEntity
  8
0-B_寸法
  6
Continuous
 62
   120
370
     5
100
AcDbLine
 10
-2935.155055530031
 20
-9556.336321295086
 30
0.0
 11
-2935.155055530031
 21
-8806.336321295086
 31
0.0
  0
LINE
  5
145
330
1F
100
AcDbEntity
  8
0-B_寸法
  6
Continuous
 62
   120
370
     5
100
AcDbLine
 10
-7630.155055530031
 20
-9556.336321295086
 30
0.0
 11
-7630.155055530031
 21
-8806.336321295086
 31
0.0
  0
LINE
  5
146
330
1F
100
AcDbEntity
  8
0-B_寸法
  6
Continuous
 62
   120
370
     5
100
AcDbLine
 10
-7630.155055530031
 20
-9556.336321295086
 30
0.0
 11
-7705.155055530031
 21
-9556.336321295086
 31
0.0
  0
LINE
  5
147
330
1F
100
AcDbEntity
  8
0-B_寸法
  6
Continuous
 62
   120
370
     5
100
AcDbLine
 10
-7705.155055530031
 20
-9556.336321295086
 30
0.0
 11
-7705.155055530031
 21
-8806.336321295086
 31
0.0
  0
LWPOLYLINE
  5
148
330
1F
100
AcDbEntity
  8
0-B_寸法
  6
Continuous
 62
     7
370
     9
100
AcDbPolyline
 90
        4
 70
     1
 43
20.0
 10
-2850.155055530031
 20
-9556.336321295086
 42
0.4142135623731
 10
-2860.155055530031
 20
-9546.336321295086
 42
0.4142135623731
 10
-2870.155055530031
 20
-9556.336321295086
 42
0.4142135623731
 10
-2860.155055530031
 20
-9566.336321295086
 42
0.4142135623731
  0
LWPOLYLINE
  5
149
330
1F
100
AcDbEntity
  8
0-B_寸法
  6
Continuous
 62
     7
370
     9
100
AcDbPolyline
 90
        4
 70
     1
 43
20.0
 10
-2925.155055530031
 20
-9556.336321295086
 42
0.4142135623731
 10
-2935.155055530031
 20
-9546.336321295086
 42
0.4142135623731
 10
-2945.155055530031
 20
-9556.336321295086
 42
0.4142135623731
 10
-2935.155055530031
 20
-9566.336321295086
 42
0.4142135623731
  0
LWPOLYLINE
  5
14A
330
1F
100
AcDbEntity
  8
0-B_寸法
  6
Continuous
 62
     7
370
     9
100
AcDbPolyline
 90
        4
 70
     1
 43
20.0
 10
-7620.155055530032
 20
-9556.336321295086
 42
0.4142135623731
 10
-7630.155055530031
 20
-9546.336321295086
 42
0.4142135623731
 10
-7640.15505553003
 20
-9556.336321295086
 42
0.4142135623731
 10
-7630.155055530031
 20
-9566.336321295086
 42
0.4142135623731
  0
LWPOLYLINE
  5
14B
330
1F
100
AcDbEntity
  8
0-B_寸法
  6
Continuous
 62
     7
370
     9
100
AcDbPolyline
 90
        4
 70
     1
 43
20.0
 10
-7695.155055530032
 20
-9556.336321295086
 42
0.4142135623731
 10
-7705.155055530031
 20
-9546.336321295086
 42
0.4142135623731
 10
-7715.15505553003
 20
-9556.336321295086
 42
0.4142135623731
 10
-7705.155055530031
 20
-9566.336321295086
 42
0.4142135623731
  0
LINE
  5
14C
330
1F
100
AcDbEntity
  8
0-A_文字
  6
Continuous
 62
     7
370
     9
100
AcDbLine
 10
-3927.214844924732
 20
1082.515366563661
 30
0.0
 11
-3653.076905810094
 21
1557.33620539244
 31
0.0
  0
LINE
  5
14D
330
1F
100
AcDbEntity
  8
0-A_文字
  6
Continuous
 62
     7
370
     9
100
AcDbLine
 10
-2980.155727467456
 20
1557.33620539244
 30
0.0
 11
-3653.076905810094
 21
1557.33620539244
 31
0.0
  0
TEXT
  5
14E
330
1F
100
AcDbEntity
  8
0-A_文字
  6
Continuous
 62
     7
370
     9
100
AcDbText
 10
-3630.155727467456
 20
1599.63620539244
 30
0.0
 40
228.6
  1
桟木
 41
1.083333333333333
  7
ＭＳ ゴシック
100
AcDbText
  0
LINE
  5
14F
330
1F
100
AcDbEntity
  8
0-0_補助線
  6
JWW_HOJO
 62
   120
370
     5
100
AcDbLine
 10
-5282.655055530031
 20
1363.663678035635
 30
0.0
 11
-5282.655055530031
 21
2788.277314117033
 31
0.0
  0
LINE
  5
150
330
1F
100
AcDbEntity
  8
0-A_文字
  6
Continuous
 62
     7
370
     9
100
AcDbLine
 10
-7307.043292155882
 20
-8434.159922005447
 30
0.0
 11
-7144.543235907256
 21
-8152.701568350025
 31
0.0
  0
LINE
  5
151
330
1F
100
AcDbEntity
  8
0-A_文字
  6
Continuous
 62
     7
370
     9
100
AcDbLine
 10
-7144.543235907256
 20
-8152.701568350025
 30
0.0
 11
-6433.136917869456
 21
-8152.701568350025
 31
0.0
  0
TEXT
  5
152
330
1F
100
AcDbEntity
  8
0-A_文字
  6
Continuous
 62
     7
370
     9
100
AcDbText
 10
-7063.274234654637
 20
-8110.401568350025
 30
0.0
 40
228.6
  1
巾木
 41
1.083333333333333
  7
ＭＳ ゴシック
100
AcDbText
  0
LINE
  5
153
330
1F
100
AcDbEntity
  8
桟木・巾木
  6
Continuous
 62
     7
370
     9
100
AcDbLine
 10
-2935.155055530031
 20
958.6636787049144
 30
0.0
 11
-7630.155055530031
 21
958.6636787049144
 31
0.0
  0
TEXT
  5
154
330
1F
100
AcDbEntity
  8
0-A_文字
  6
Continuous
 62
     7
370
     9
100
AcDbText
 10
-6382.655055530032
 20
-11074.93632129509
 30
0.0
 40
304.8
  1
正面展開図
 41
1.099999999999999
  7
ＭＳ ゴシック
100
AcDbText
  0
LINE
  5
155
330
1F
100
AcDbEntity
  8
桟木・巾木
  6
Continuous
 62
     7
370
     9
100
AcDbLine
 10
-7630.155055530031
 20
-8256.336321295088
 30
0.0
 11
-2935.155055530031
 21
-8256.336321295088
 31
0.0
  0
LINE
  5
156
330
1F
100
AcDbEntity
  8
0-A_文字
  6
Continuous
 62
     7
370
     9
100
AcDbLine
 10
-3407.655055424575
 20
-10556.33632129509
 30
0.0
 11
-3407.655055424575
 21
-11306.33632129509
 31
0.0
  0
LINE
  5
157
330
1F
100
AcDbEntity
  8
0-A_文字
  6
Continuous
 62
     7
370
     9
100
AcDbLine
 10
-7157.655055635485
 20
-10556.33632129509
 30
0.0
 11
-7157.655055635485
 21
-11306.33632129509
 31
0.0
  0
LINE
  5
158
330
1F
100
AcDbEntity
  8
0-A_文字
  6
Continuous
 62
     7
370
     9
100
AcDbLine
 10
-3407.655055424575
 20
-10556.33632129509
 30
0.0
 11
-7157.655055635485
 21
-10556.33632129509
 31
0.0
  0
LINE
  5
159
330
1F
100
AcDbEntity
  8
0-A_文字
  6
Continuous
 62
     7
370
     9
100
AcDbLine
 10
-7157.655055635485
 20
-11306.33632129509
 30
0.0
 11
-3407.655055424575
 21
-11306.33632129509
 31
0.0
  0
LINE
  5
15A
330
1F
100
AcDbEntity
  8
0-0_補助線
  6
JWW_HOJO
 62
   120
370
     5
100
AcDbLine
 10
-8705.155055530031
 20
2363.66367870491
 30
0.0
 11
-8705.155055530031
 21
-9556.336321295086
 31
0.0
  0
LINE
  5
15B
330
1F
100
AcDbEntity
  8
0-0_補助線
  6
JWW_HOJO
 62
   120
370
     5
100
AcDbLine
 10
-1860.155055530031
 20
2363.66367870491
 30
0.0
 11
-1860.155055530031
 21
-10056.33632129509
 31
0.0
  0
LINE
  5
15C
330
1F
100
AcDbEntity
  8
0-0_補助線
  6
JWW_HOJO
 62
   120
370
     5
100
AcDbLine
 10
-7955.155055530031
 20
1613.663678704913
 30
0.0
 11
-7955.155055530031
 21
-8806.336321295086
 31
0.0
  0
LINE
  5
15D
330
1F
100
AcDbEntity
  8
0-0_補助線
  6
JWW_HOJO
 62
   120
370
     5
100
AcDbLine
 10
-7955.155055530031
 20
-8806.336321295086
 30
0.0
 11
-2610.155055530031
 21
-8806.336321295086
 31
0.0
  0
LINE
  5
15E
330
1F
100
AcDbEntity
  8
0-0_補助線
  6
JWW_HOJO
 62
   120
370
     5
100
AcDbLine
 10
-2610.155055530031
 20
1613.663678704913
 30
0.0
 11
-7955.155055530031
 21
1613.663678704913
 31
0.0
  0
LINE
  5
15F
330
1F
100
AcDbEntity
  8
0-2
  6
Continuous
 62
    92
370
    13
100
AcDbLine
 10
-2860.155055530031
 20
1258.663678704914
 30
0.0
 11
-7705.155055530031
 21
1258.663678704914
 31
0.0
  0
LINE
  5
160
330
1F
100
AcDbEntity
  8
0-2
  6
Continuous
 62
    92
370
    13
100
AcDbLine
 10
-7705.155055530031
 20
-8556.336321295088
 30
0.0
 11
-2860.155055530031
 21
-8556.336321295088
 31
0.0
  0
LINE
  5
161
330
1F
100
AcDbEntity
  8
0-2
  6
Continuous
 62
    92
370
    13
100
AcDbLine
 10
-7705.155055530031
 20
1258.663678704914
 30
0.0
 11
-7705.155055530031
 21
-8556.336321295088
 31
0.0
  0
LINE
  5
162
330
1F
100
AcDbEntity
  8
0-2
  6
Continuous
 62
    92
370
    13
100
AcDbLine
 10
-7630.155055530031
 20
1258.663678704914
 30
0.0
 11
-7630.155055530031
 21
-8556.336321295088
 31
0.0
  0
LINE
  5
163
330
1F
100
AcDbEntity
  8
0-2
  6
Continuous
 62
    92
370
    13
100
AcDbLine
 10
-2860.155055530031
 20
1363.663678704913
 30
0.0
 11
-7705.155055530031
 21
1363.663678704913
 31
0.0
  0
LINE
  5
164
330
1F
100
AcDbEntity
  8
0-2
  6
Continuous
 62
    92
370
    13
100
AcDbLine
 10
-7705.155055530031
 20
1258.663678704914
 30
0.0
 11
-7705.155055530031
 21
1363.663678704913
 31
0.0
  0
LINE
  5
165
330
1F
100
AcDbEntity
  8
0-2
  6
Continuous
 62
    92
370
    13
100
AcDbLine
 10
-2860.155055530031
 20
-8556.336321295088
 30
0.0
 11
-2860.155055530031
 21
1258.663678704914
 31
0.0
  0
LINE
  5
166
330
1F
100
AcDbEntity
  8
0-2
  6
Continuous
 62
    92
370
    13
100
AcDbLine
 10
-2935.155055530031
 20
-8556.336321295088
 30
0.0
 11
-2935.155055530031
 21
1258.663678704914
 31
0.0
  0
LINE
  5
167
330
1F
100
AcDbEntity
  8
0-2
  6
Continuous
 62
    92
370
    13
100
AcDbLine
 10
-2860.155055530031
 20
1363.663678704913
 30
0.0
 11
-2860.155055530031
 21
1258.663678704914
 31
0.0
  0
LINE
  5
168
330
1F
100
AcDbEntity
  8
0-0_補助線
  6
JWW_HOJO
 62
   120
370
     5
100
AcDbLine
 10
-2610.155055530031
 20
1613.663678704913
 30
0.0
 11
-2610.155055530031
 21
-8806.336321295086
 31
0.0
  0
LINE
  5
169
330
1F
100
AcDbEntity
  8
0-0_補助線
  6
JWW_HOJO
 62
   120
370
     5
100
AcDbLine
 10
-8705.155055530031
 20
-9556.336321295086
 30
0.0
 11
-1860.155055530031
 21
-9556.336321295086
 31
0.0
  0
TEXT
  5
16A
330
1F
100
AcDbEntity
  8
F-A_文字
  6
Continuous
 62
     7
370
     0
100
AcDbText
 10
16144.00902676515
 20
-13371.24620625523
 30
0.0
 40
228.6
  1
2018.01.16
 41
1.15
  7
ＭＳ ゴシック
100
AcDbText
  0
TEXT
  5
16B
330
1F
100
AcDbEntity
  8
F-A_文字
  6
Continuous
 62
     7
370
     0
100
AcDbText
 10
11669.00861436545
 20
-13396.24155881304
 30
0.0
 40
228.6
  1
1/20
 41
1.125
  7
ＭＳ ゴシック
100
AcDbText
  0
TEXT
  5
16C
330
1F
100
AcDbEntity
  8
F-A_文字
  6
Continuous
 62
     7
370
     9
100
AcDbText
 10
11056.50861436545
 20
-14062.90823401339
 30
0.0
 40
228.6
  1
CL-327a_C02
 41
1.151515151515151
  7
ＭＳ ゴシック
100
AcDbText
  0
TEXT
  5
16D
330
1F
100
AcDbEntity
  8
0-A_文字
  6
Continuous
 62
     7
370
     9
100
AcDbText
 10
1877.344943423844
 20
3170.063678704904
 30
0.0
 40
304.8
  1
【側板：Ｄ＝450】
 41
1.110294117647059
  7
ＭＳ ゴシック
100
AcDbText
  0
TEXT
  5
16E
330
1F
100
AcDbEntity
  8
0-A_文字
  6
Continuous
 62
     7
370
     9
100
AcDbText
 10
3773.11213263527
 20
1833.919206825442
 30
0.0
 40
228.6
  1
桟木
 41
1.083333333333333
  7
ＭＳ ゴシック
100
AcDbText
  0
TEXT
  5
16F
330
1F
100
AcDbEntity
  8
0-A_文字
  6
Continuous
 62
     7
370
     9
100
AcDbText
 10
2022.544944068381
 20
-1125.355537113933
 30
0.0
 40
228.6
  1
化粧面
 50
90.0
 41
1.111111111111111
  7
ＭＳ ゴシック
100
AcDbText
  0
TEXT
  5
170
330
1F
100
AcDbEntity
  8
0-A_文字
  6
Continuous
 62
     7
370
     9
100
AcDbText
 10
3715.951467786653
 20
-7586.080791836002
 30
0.0
 40
228.6
  1
巾木
 41
1.083333333333333
  7
ＭＳ ゴシック
100
AcDbText
  0
TEXT
  5
171
330
1F
100
AcDbEntity
  8
0-A_文字
  6
Continuous
 62
     7
370
     9
100
AcDbText
 10
5286.925183831539
 20
-7586.080791836002
 30
0.0
 40
228.6
  1
下地
 41
1.083333333333333
  7
ＭＳ ゴシック
100
AcDbText
  0
TEXT
  5
172
330
1F
100
AcDbEntity
  8
0-B_寸法
  6
Continuous
 62
     7
370
   211
100
AcDbText
 10
2519.844944279288
 20
2426.125416994891
 30
0.0
 40
304.8
  1
37
 41
1.0625
  7
ＭＳ ゴシック
100
AcDbText
  0
TEXT
  5
173
330
1F
100
AcDbEntity
  8
0-B_寸法
  6
Continuous
 62
     7
370
   211
100
AcDbText
 10
3404.844944279279
 20
2426.125416994891
 30
0.0
 40
304.8
  1
352
 41
1.083333333333333
  7
ＭＳ ゴシック
100
AcDbText
  0
TEXT
  5
174
330
1F
100
AcDbEntity
  8
0-B_寸法
  6
Continuous
 62
     7
370
   211
100
AcDbText
 10
4549.844944279283
 20
2426.125416994891
 30
0.0
 40
304.8
  1
61
 41
1.0625
  7
ＭＳ ゴシック
100
AcDbText
  0
TEXT
  5
175
330
1F
100
AcDbEntity
  8
0-B_寸法
  6
Continuous
 62
     7
370
   211
100
AcDbText
 10
1570.376734066203
 20
1324.071313013246
 30
0.0
 40
304.8
  1
53.5
 50
90.0
 41
1.09375
  7
ＭＳ ゴシック
100
AcDbText
  0
TEXT
  5
176
330
1F
100
AcDbEntity
  8
0-B_寸法
  6
Continuous
 62
     7
370
   211
100
AcDbText
 10
4192.43006235329
 20
804.3151470942689
 30
0.0
 40
304.8
  1
60
 50
90.0
 41
1.0625
  7
ＭＳ ゴシック
100
AcDbText
  0
TEXT
  5
177
330
1F
100
AcDbEntity
  8
0-B_寸法
  6
Continuous
 62
     7
370
   211
100
AcDbText
 10
1570.376734066203
 20
670.4935777530636
 30
0.0
 40
304.8
  1
32
 50
90.0
 41
1.0625
  7
ＭＳ ゴシック
100
AcDbText
  0
TEXT
  5
178
330
1F
100
AcDbEntity
  8
0-B_寸法
  6
Continuous
 62
     7
370
   211
100
AcDbText
 10
916.8334591302504
 20
607.4136800434644
 30
0.0
 40
304.8
  1
85.5
 50
90.0
 41
1.09375
  7
ＭＳ ゴシック
100
AcDbText
  0
TEXT
  5
179
330
1F
100
AcDbEntity
  8
0-B_寸法
  6
Continuous
 62
     7
370
   211
100
AcDbText
 10
4904.307041660019
 20
515.0636800434689
 30
0.0
 40
304.8
  1
15
 41
1.0625
  7
ＭＳ ゴシック
100
AcDbText
  0
TEXT
  5
17A
330
1F
100
AcDbEntity
  8
0-B_寸法
  6
Continuous
 62
     7
370
   211
100
AcDbText
 10
1570.376734066203
 20
-293.8363199565401
 30
0.0
 40
304.8
  1
320
 50
90.0
 41
1.083333333333333
  7
ＭＳ ゴシック
100
AcDbText
  0
TEXT
  5
17B
330
1F
100
AcDbEntity
  8
0-B_寸法
  6
Continuous
 62
     7
370
   211
100
AcDbText
 10
1583.444944068392
 20
-1061.336319956536
 30
0.0
 40
304.8
  1
32
 50
90.0
 41
1.0625
  7
ＭＳ ゴシック
100
AcDbText
  0
TEXT
  5
17C
330
1F
100
AcDbEntity
  8
0-B_寸法
  6
Continuous
 62
     7
370
   211
100
AcDbText
 10
1548.893019837705
 20
-2133.836319956538
 30
0.0
 40
304.8
  1
352
 50
90.0
 41
1.083333333333333
  7
ＭＳ ゴシック
100
AcDbText
  0
TEXT
  5
17D
330
1F
100
AcDbEntity
  8
0-B_寸法
  6
Continuous
 62
     7
370
   211
100
AcDbText
 10
1565.888847316889
 20
-2949.467159787002
 30
0.0
 40
304.8
  1
32
 50
90.0
 41
1.0625
  7
ＭＳ ゴシック
100
AcDbText
  0
TEXT
  5
17E
330
1F
100
AcDbEntity
  8
0-B_寸法
  6
Continuous
 62
     7
370
   211
100
AcDbText
 10
1548.893019837705
 20
-3973.836319956547
 30
0.0
 40
304.8
  1
320
 50
90.0
 41
1.083333333333333
  7
ＭＳ ゴシック
100
AcDbText
  0
TEXT
  5
17F
330
1F
100
AcDbEntity
  8
0-B_寸法
  6
Continuous
 62
     7
370
   211
100
AcDbText
 10
916.8334591302504
 20
-4198.83631995649
 30
0.0
 40
304.8
  1
1,792
 50
90.0
 41
1.1
  7
ＭＳ ゴシック
100
AcDbText
  0
TEXT
  5
180
330
1F
100
AcDbEntity
  8
0-B_寸法
  6
Continuous
 62
     7
370
   211
100
AcDbText
 10
1565.888847316889
 20
-4709.467159787005
 30
0.0
 40
304.8
  1
32
 50
90.0
 41
1.0625
  7
ＭＳ ゴシック
100
AcDbText
  0
TEXT
  5
181
330
1F
100
AcDbEntity
  8
0-B_寸法
  6
Continuous
 62
     7
370
   211
100
AcDbText
 10
1533.444944068392
 20
-5813.836319956545
 30
0.0
 40
304.8
  1
352
 50
90.0
 41
1.083333333333333
  7
ＭＳ ゴシック
100
AcDbText
  0
TEXT
  5
182
330
1F
100
AcDbEntity
  8
0-B_寸法
  6
Continuous
 62
     7
370
   211
100
AcDbText
 10
1533.444944068392
 20
-6661.336319956547
 30
0.0
 40
304.8
  1
32
 50
90.0
 41
1.0625
  7
ＭＳ ゴシック
100
AcDbText
  0
TEXT
  5
183
330
1F
100
AcDbEntity
  8
0-B_寸法
  6
Continuous
 62
     7
370
   211
100
AcDbText
 10
1533.444944068392
 20
-7653.836319956543
 30
0.0
 40
304.8
  1
320
 50
90.0
 41
1.083333333333333
  7
ＭＳ ゴシック
100
AcDbText
  0
TEXT
  5
184
330
1F
100
AcDbEntity
  8
0-B_寸法
  6
Continuous
 62
     7
370
   211
100
AcDbText
 10
4570.617956720816
 20
-7699.936321295089
 30
0.0
 40
304.8
  1
15
 41
1.0625
  7
ＭＳ ゴシック
100
AcDbText
  0
TEXT
  5
185
330
1F
100
AcDbEntity
  8
0-B_寸法
  6
Continuous
 62
     7
370
   211
100
AcDbText
 10
1533.444944068392
 20
-8421.336319956537
 30
0.0
 40
304.8
  1
32
 50
90.0
 41
1.0625
  7
ＭＳ ゴシック
100
AcDbText
  0
TEXT
  5
186
330
1F
100
AcDbEntity
  8
0-B_寸法
  6
Continuous
 62
     7
370
   211
100
AcDbText
 10
4208.444944469969
 20
-8510.235209601684
 30
0.0
 40
304.8
  1
60
 50
90.0
 41
1.0625
  7
ＭＳ ゴシック
100
AcDbText
  0
TEXT
  5
187
330
1F
100
AcDbEntity
  8
0-B_寸法
  6
Continuous
 62
     7
370
   211
100
AcDbText
 10
916.8334591302504
 20
-8780.08631995649
 30
0.0
 40
304.8
  1
85.5
 50
90.0
 41
1.09375
  7
ＭＳ ゴシック
100
AcDbText
  0
TEXT
  5
188
330
1F
100
AcDbEntity
  8
0-B_寸法
  6
Continuous
 62
     7
370
   211
100
AcDbText
 10
2739.844944068392
 20
-9493.874581666554
 30
0.0
 40
304.8
  1
170
 41
1.083333333333333
  7
ＭＳ ゴシック
100
AcDbText
  0
TEXT
  5
189
330
1F
100
AcDbEntity
  8
0-B_寸法
  6
Continuous
 62
     7
370
   211
100
AcDbText
 10
3864.844944068392
 20
-9493.874581666554
 30
0.0
 40
304.8
  1
280
 41
1.083333333333352
  7
ＭＳ ゴシック
100
AcDbText
  0
TEXT
  5
18A
330
1F
100
AcDbEntity
  8
0-B_寸法
  6
Continuous
 62
     7
370
   211
100
AcDbText
 10
1533.444944068392
 20
-9559.202773253628
 30
0.0
 40
304.8
  1
53.5
 50
90.0
 41
1.09375
  7
ＭＳ ゴシック
100
AcDbText
  0
TEXT
  5
18B
330
1F
100
AcDbEntity
  8
0-B_寸法
  6
Continuous
 62
     7
370
   211
100
AcDbText
 10
3437.129494218215
 20
-9993.874581666545
 30
0.0
 40
304.8
  1
450
 41
1.083333333333333
  7
ＭＳ ゴシック
100
AcDbText
  0
TEXT
  5
18C
330
1F
100
AcDbEntity
  8
0-E
  6
Continuous
 62
     9
370
     5
100
AcDbText
 10
2682.344944712946
 20
795.2636813820201
 30
0.0
 40
76.2
  1
57
  7
ＭＳ ゴシック
100
AcDbText
  0
TEXT
  5
18D
330
1F
100
AcDbEntity
  8
0-E
  6
Continuous
 62
     9
370
     5
100
AcDbText
 10
2682.344944712946
 20
635.2636813820178
 30
0.0
 40
76.2
  1
56
  7
ＭＳ ゴシック
100
AcDbText
  0
TEXT
  5
18E
330
1F
100
AcDbEntity
  8
0-E
  6
Continuous
 62
     9
370
     5
100
AcDbText
 10
2682.344944712946
 20
475.2636813820155
 30
0.0
 40
76.2
  1
55
  7
ＭＳ ゴシック
100
AcDbText
  0
TEXT
  5
18F
330
1F
100
AcDbEntity
  8
0-E
  6
Continuous
 62
     9
370
     5
100
AcDbText
 10
2682.344944712946
 20
315.2636813820133
 30
0.0
 40
76.2
  1
54
  7
ＭＳ ゴシック
100
AcDbText
  0
TEXT
  5
190
330
1F
100
AcDbEntity
  8
0-E
  6
Continuous
 62
     9
370
     5
100
AcDbText
 10
2682.344944712946
 20
155.2636813820223
 30
0.0
 40
76.2
  1
53
  7
ＭＳ ゴシック
100
AcDbText
  0
TEXT
  5
191
330
1F
100
AcDbEntity
  8
0-E
  6
Continuous
 62
     9
370
     5
100
AcDbText
 10
2682.344944712946
 20
-4.73631861797994
 30
0.0
 40
76.2
  1
52
  7
ＭＳ ゴシック
100
AcDbText
  0
TEXT
  5
192
330
1F
100
AcDbEntity
  8
0-E
  6
Continuous
 62
     9
370
     5
100
AcDbText
 10
2682.344944712946
 20
-164.7363186179822
 30
0.0
 40
76.2
  1
51
  7
ＭＳ ゴシック
100
AcDbText
  0
TEXT
  5
193
330
1F
100
AcDbEntity
  8
0-E
  6
Continuous
 62
     9
370
     5
100
AcDbText
 10
2682.344944712946
 20
-324.7363186179845
 30
0.0
 40
76.2
  1
50
  7
ＭＳ ゴシック
100
AcDbText
  0
TEXT
  5
194
330
1F
100
AcDbEntity
  8
0-E
  6
Continuous
 62
     9
370
     5
100
AcDbText
 10
2682.344944712946
 20
-484.7363186179867
 30
0.0
 40
76.2
  1
49
  7
ＭＳ ゴシック
100
AcDbText
  0
TEXT
  5
195
330
1F
100
AcDbEntity
  8
0-E
  6
Continuous
 62
     9
370
     5
100
AcDbText
 10
2682.344944712946
 20
-644.7363186179776
 30
0.0
 40
76.2
  1
48
  7
ＭＳ ゴシック
100
AcDbText
  0
TEXT
  5
196
330
1F
100
AcDbEntity
  8
0-E
  6
Continuous
 62
     9
370
     5
100
AcDbText
 10
2682.344944712946
 20
-804.7363186179799
 30
0.0
 40
76.2
  1
47
  7
ＭＳ ゴシック
100
AcDbText
  0
TEXT
  5
197
330
1F
100
AcDbEntity
  8
0-E
  6
Continuous
 62
     9
370
     5
100
AcDbText
 10
2682.344944712946
 20
-964.7363186179822
 30
0.0
 40
76.2
  1
46
  7
ＭＳ ゴシック
100
AcDbText
  0
TEXT
  5
198
330
1F
100
AcDbEntity
  8
0-E
  6
Continuous
 62
     9
370
     5
100
AcDbText
 10
2682.344944712946
 20
-1124.736318617985
 30
0.0
 40
76.2
  1
45
  7
ＭＳ ゴシック
100
AcDbText
  0
LINE
  5
199
330
1F
100
AcDbEntity
  8
0-0_補助線
  6
JWW_HOJO
 62
    92
370
    13
100
AcDbLine
 10
3489.844944068392
 20
-8556.33631995654
 30
0.0
 11
3489.844944068392
 21
1258.663680043469
 31
0.0
  0
LINE
  5
19A
330
1F
100
AcDbEntity
  8
桟木・巾木
  6
Continuous
 62
    40
370
    15
100
AcDbLine
 10
4889.844944068392
 20
-8256.33632129509
 30
0.0
 11
4889.844944068392
 21
-8556.33632129509
 31
0.0
  0
LINE
  5
19B
330
1F
100
AcDbEntity
  8
桟木・巾木
  6
Continuous
 62
    40
370
    15
100
AcDbLine
 10
4814.844944068392
 20
-8256.33632129509
 30
0.0
 11
4889.844944068392
 21
-8256.33632129509
 31
0.0
  0
LINE
  5
19C
330
1F
100
AcDbEntity
  8
桟木・巾木
  6
Continuous
 62
    40
370
    15
100
AcDbLine
 10
4889.844944068392
 20
-8556.33632129509
 30
0.0
 11
4814.844944068392
 21
-8556.33632129509
 31
0.0
  0
LINE
  5
19D
330
1F
100
AcDbEntity
  8
桟木・巾木
  6
Continuous
 62
    40
370
    15
100
AcDbLine
 10
4814.844944068392
 20
-8556.33632129509
 30
0.0
 11
4814.844944068392
 21
-8256.33632129509
 31
0.0
  0
LINE
  5
19E
330
1F
100
AcDbEntity
  8
桟木・巾木
  6
Continuous
 62
    40
370
    15
100
AcDbLine
 10
4889.844943857503
 20
1258.663680043469
 30
0.0
 11
4814.844943857503
 21
1258.663680043469
 31
0.0
  0
LINE
  5
19F
330
1F
100
AcDbEntity
  8
桟木・巾木
  6
Continuous
 62
    40
370
    15
100
AcDbLine
 10
4889.844943857503
 20
1258.663680043469
 30
0.0
 11
4889.844943857503
 21
958.663680043469
 31
0.0
  0
LINE
  5
1A0
330
1F
100
AcDbEntity
  8
桟木・巾木
  6
Continuous
 62
    40
370
    15
100
AcDbLine
 10
4814.844943857503
 20
958.663680043469
 30
0.0
 11
4814.844943857503
 21
1258.663680043469
 31
0.0
  0
LINE
  5
1A1
330
1F
100
AcDbEntity
  8
桟木・巾木
  6
Continuous
 62
    40
370
    15
100
AcDbLine
 10
4889.844943857503
 20
958.663680043469
 30
0.0
 11
4832.36543634253
 21
958.663680043469
 31
0.0
  0
LINE
  5
1A2
330
1F
100
AcDbEntity
  8
桟木・巾木
  6
Continuous
 62
    40
370
    15
100
AcDbLine
 10
4832.36543634253
 20
958.663680043469
 30
0.0
 11
4814.844943857503
 21
958.663680043469
 31
0.0
  0
LINE
  5
1A3
330
1F
100
AcDbEntity
  8
0-2
  6
Continuous
 62
    40
370
    15
100
AcDbLine
 10
4889.844944068392
 20
1363.663678704904
 30
0.0
 11
4889.844944068392
 21
1258.663680043469
 31
0.0
  0
LINE
  5
1A4
330
1F
100
AcDbEntity
  8
0-0_補助線
  6
JWW_HOJO
 62
     7
370
     9
100
AcDbLine
 10
2824.844944068394
 20
1258.663680043469
 30
0.0
 11
2824.844944068394
 21
-8556.33631995654
 31
0.0
  0
LWPOLYLINE
  5
1A5
330
1F
100
AcDbEntity
  8
0-B_寸法
  6
Continuous
 62
     7
370
     9
100
AcDbPolyline
 90
        4
 70
     1
 43
20.0
 10
1649.844944068392
 20
1258.663680043469
 42
0.4142135623731
 10
1639.844944068392
 20
1268.663680043469
 42
0.4142135623731
 10
1629.844944068392
 20
1258.663680043469
 42
0.4142135623731
 10
1639.844944068392
 20
1248.663680043469
 42
0.4142135623731
  0
LWPOLYLINE
  5
1A6
330
1F
100
AcDbEntity
  8
0-B_寸法
  6
Continuous
 62
     7
370
     9
100
AcDbPolyline
 90
        4
 70
     1
 43
20.0
 10
1649.844944068392
 20
991.1636800434621
 42
0.4142135623731
 10
1639.844944068392
 20
1001.163680043462
 42
0.4142135623731
 10
1629.844944068392
 20
991.1636800434621
 42
0.4142135623731
 10
1639.844944068392
 20
981.1636800434621
 42
0.4142135623731
  0
LWPOLYLINE
  5
1A7
330
1F
100
AcDbEntity
  8
0-B_寸法
  6
Continuous
 62
     7
370
     9
100
AcDbPolyline
 90
        4
 70
     1
 43
20.0
 10
1649.844944068392
 20
831.1636800434599
 42
0.4142135623731
 10
1639.844944068392
 20
841.1636800434599
 42
0.4142135623731
 10
1629.844944068392
 20
831.1636800434599
 42
0.4142135623731
 10
1639.844944068392
 20
821.1636800434599
 42
0.4142135623731
  0
LWPOLYLINE
  5
1A8
330
1F
100
AcDbEntity
  8
0-B_寸法
  6
Continuous
 62
     7
370
     9
100
AcDbPolyline
 90
        4
 70
     1
 43
20.0
 10
1649.844944068392
 20
-768.8363199565401
 42
0.4142135623731
 10
1639.844944068392
 20
-758.8363199565401
 42
0.4142135623731
 10
1629.844944068392
 20
-768.8363199565401
 42
0.4142135623731
 10
1639.844944068392
 20
-778.8363199565401
 42
0.4142135623731
  0
LWPOLYLINE
  5
1A9
330
1F
100
AcDbEntity
  8
0-B_寸法
  6
Continuous
 62
     7
370
     9
100
AcDbPolyline
 90
        4
 70
     1
 43
20.0
 10
1649.844944068392
 20
-928.836319956531
 42
0.4142135623731
 10
1639.844944068392
 20
-918.836319956531
 42
0.4142135623731
 10
1629.844944068392
 20
-928.836319956531
 42
0.4142135623731
 10
1639.844944068392
 20
-938.836319956531
 42
0.4142135623731
  0
LWPOLYLINE
  5
1AA
330
1F
100
AcDbEntity
  8
0-B_寸法
  6
Continuous
 62
     7
370
     9
100
AcDbPolyline
 90
        4
 70
     1
 43
20.0
 10
1649.844944068392
 20
-2688.836319956533
 42
0.4142135623731
 10
1639.844944068392
 20
-2678.836319956533
 42
0.4142135623731
 10
1629.844944068392
 20
-2688.836319956533
 42
0.4142135623731
 10
1639.844944068392
 20
-2698.836319956533
 42
0.4142135623731
  0
LWPOLYLINE
  5
1AB
330
1F
100
AcDbEntity
  8
0-B_寸法
  6
Continuous
 62
     7
370
     9
100
AcDbPolyline
 90
        4
 70
     1
 43
20.0
 10
1649.844944068392
 20
-2848.836319956536
 42
0.4142135623731
 10
1639.844944068392
 20
-2838.836319956536
 42
0.4142135623731
 10
1629.844944068392
 20
-2848.836319956536
 42
0.4142135623731
 10
1639.844944068392
 20
-2858.836319956536
 42
0.4142135623731
  0
LWPOLYLINE
  5
1AC
330
1F
100
AcDbEntity
  8
0-B_寸法
  6
Continuous
 62
     7
370
     9
100
AcDbPolyline
 90
        4
 70
     1
 43
20.0
 10
1649.844944068392
 20
-4448.836319956547
 42
0.4142135623731
 10
1639.844944068392
 20
-4438.836319956547
 42
0.4142135623731
 10
1629.844944068392
 20
-4448.836319956547
 42
0.4142135623731
 10
1639.844944068392
 20
-4458.836319956547
 42
0.4142135623731
  0
LWPOLYLINE
  5
1AD
330
1F
100
AcDbEntity
  8
0-B_寸法
  6
Continuous
 62
     7
370
     9
100
AcDbPolyline
 90
        4
 70
     1
 43
20.0
 10
1649.844944068392
 20
-4608.836319956537
 42
0.4142135623731
 10
1639.844944068392
 20
-4598.836319956537
 42
0.4142135623731
 10
1629.844944068392
 20
-4608.836319956537
 42
0.4142135623731
 10
1639.844944068392
 20
-4618.836319956538
 42
0.4142135623731
  0
LINE
  5
1AE
330
1F
100
AcDbEntity
  8
0-B_寸法
  6
Continuous
 62
   120
370
     5
100
AcDbLine
 10
1639.844944068392
 20
1258.663680043469
 30
0.0
 11
1639.844944068392
 21
991.1636800434621
 31
0.0
  0
LINE
  5
1AF
330
1F
100
AcDbEntity
  8
0-B_寸法
  6
Continuous
 62
   120
370
     5
100
AcDbLine
 10
1639.844944068392
 20
831.1636800434599
 30
0.0
 11
1639.844944068392
 21
-768.8363199565401
 31
0.0
  0
LINE
  5
1B0
330
1F
100
AcDbEntity
  8
0-B_寸法
  6
Continuous
 62
   120
370
     5
100
AcDbLine
 10
1639.844944068392
 20
-928.836319956531
 30
0.0
 11
1639.844944068392
 21
-2688.836319956533
 31
0.0
  0
LINE
  5
1B1
330
1F
100
AcDbEntity
  8
0-B_寸法
  6
Continuous
 62
   120
370
     5
100
AcDbLine
 10
1639.844944068392
 20
-2848.836319956536
 30
0.0
 11
1639.844944068392
 21
-4448.836319956547
 31
0.0
  0
LINE
  5
1B2
330
1F
100
AcDbEntity
  8
0-B_寸法
  6
Continuous
 62
   120
370
     5
100
AcDbLine
 10
1639.844944068392
 20
991.1636800434621
 30
0.0
 11
1639.844944068392
 21
831.1636800434599
 31
0.0
  0
LINE
  5
1B3
330
1F
100
AcDbEntity
  8
0-B_寸法
  6
Continuous
 62
   120
370
     5
100
AcDbLine
 10
1639.844944068392
 20
-768.8363199565401
 30
0.0
 11
1639.844944068392
 21
-928.836319956531
 31
0.0
  0
LINE
  5
1B4
330
1F
100
AcDbEntity
  8
0-B_寸法
  6
Continuous
 62
   120
370
     5
100
AcDbLine
 10
1639.844944068392
 20
-2688.836319956533
 30
0.0
 11
1639.844944068392
 21
-2848.836319956536
 31
0.0
  0
LINE
  5
1B5
330
1F
100
AcDbEntity
  8
0-B_寸法
  6
Continuous
 62
   120
370
     5
100
AcDbLine
 10
1639.844944068392
 20
-4448.836319956547
 30
0.0
 11
1639.844944068392
 21
-4608.836319956537
 31
0.0
  0
LINE
  5
1B6
330
1F
100
AcDbEntity
  8
0-B_寸法
  6
Continuous
 62
   120
370
     5
100
AcDbLine
 10
2389.844944068392
 20
1258.663680043469
 30
0.0
 11
1639.844944068392
 21
1258.663680043469
 31
0.0
  0
LINE
  5
1B7
330
1F
100
AcDbEntity
  8
0-B_寸法
  6
Continuous
 62
   120
370
     5
100
AcDbLine
 10
2389.844944068392
 20
991.1636800434621
 30
0.0
 11
1639.844944068392
 21
991.1636800434621
 31
0.0
  0
LINE
  5
1B8
330
1F
100
AcDbEntity
  8
0-B_寸法
  6
Continuous
 62
   120
370
     5
100
AcDbLine
 10
2389.844944068392
 20
831.1636800434599
 30
0.0
 11
1639.844944068392
 21
831.1636800434599
 31
0.0
  0
LINE
  5
1B9
330
1F
100
AcDbEntity
  8
0-B_寸法
  6
Continuous
 62
   120
370
     5
100
AcDbLine
 10
2389.844944068392
 20
-2688.836319956533
 30
0.0
 11
1639.844944068392
 21
-2688.836319956533
 31
0.0
  0
LINE
  5
1BA
330
1F
100
AcDbEntity
  8
0-B_寸法
  6
Continuous
 62
   120
370
     5
100
AcDbLine
 10
2389.844944068392
 20
-2848.836319956536
 30
0.0
 11
1639.844944068392
 21
-2848.836319956536
 31
0.0
  0
LINE
  5
1BB
330
1F
100
AcDbEntity
  8
0-B_寸法
  6
Continuous
 62
   120
370
     5
100
AcDbLine
 10
2389.844944068392
 20
-4448.836319956547
 30
0.0
 11
1639.844944068392
 21
-4448.836319956547
 31
0.0
  0
LINE
  5
1BC
330
1F
100
AcDbEntity
  8
0-B_寸法
  6
Continuous
 62
   120
370
     5
100
AcDbLine
 10
2389.844944068392
 20
-4608.836319956537
 30
0.0
 11
1639.844944068392
 21
-4608.836319956537
 31
0.0
  0
TEXT
  5
1BD
330
1F
100
AcDbEntity
  8
0-E
  6
Continuous
 62
     9
370
     5
100
AcDbText
 10
2682.344944712946
 20
-1284.736318617987
 30
0.0
 40
76.2
  1
44
  7
ＭＳ ゴシック
100
AcDbText
  0
TEXT
  5
1BE
330
1F
100
AcDbEntity
  8
0-E
  6
Continuous
 62
     9
370
     5
100
AcDbText
 10
2682.344944712946
 20
-1444.736318617983
 30
0.0
 40
76.2
  1
43
  7
ＭＳ ゴシック
100
AcDbText
  0
TEXT
  5
1BF
330
1F
100
AcDbEntity
  8
0-E
  6
Continuous
 62
     9
370
     5
100
AcDbText
 10
2682.344944712946
 20
-1604.73631861798
 30
0.0
 40
76.2
  1
42
  7
ＭＳ ゴシック
100
AcDbText
  0
TEXT
  5
1C0
330
1F
100
AcDbEntity
  8
0-E
  6
Continuous
 62
     9
370
     5
100
AcDbText
 10
2682.344944712946
 20
-1764.736318617982
 30
0.0
 40
76.2
  1
41
  7
ＭＳ ゴシック
100
AcDbText
  0
LINE
  5
1C1
330
1F
100
AcDbEntity
  8
0-B_寸法
  6
Continuous
 62
   120
370
     5
100
AcDbLine
 10
1732.31045662273
 20
-768.8363199565401
 30
0.0
 11
1639.844944068392
 21
-768.8363199565401
 31
0.0
  0
LINE
  5
1C2
330
1F
100
AcDbEntity
  8
0-B_寸法
  6
Continuous
 62
   120
370
     5
100
AcDbLine
 10
2389.844944068392
 20
-768.8363199565401
 30
0.0
 11
2191.08087159197
 21
-768.8363199565401
 31
0.0
  0
LINE
  5
1C3
330
1F
100
AcDbEntity
  8
0-B_寸法
  6
Continuous
 62
   120
370
     5
100
AcDbLine
 10
1732.31045662273
 20
-928.836319956531
 30
0.0
 11
1639.844944068392
 21
-928.836319956531
 31
0.0
  0
LINE
  5
1C4
330
1F
100
AcDbEntity
  8
0-B_寸法
  6
Continuous
 62
   120
370
     5
100
AcDbLine
 10
2389.844944068392
 20
-928.836319956531
 30
0.0
 11
2191.08087159197
 21
-928.836319956531
 31
0.0
  0
LINE
  5
1C5
330
1F
100
AcDbEntity
  8
0-2
  6
Continuous
 62
    40
370
    15
100
AcDbLine
 10
2639.844942779297
 20
1363.663678704904
 30
0.0
 11
4889.844944068392
 21
1363.663678704904
 31
0.0
  0
LINE
  5
1C6
330
1F
100
AcDbEntity
  8
0-2
  6
Continuous
 62
    40
370
    15
100
AcDbLine
 10
4889.844944068392
 20
1258.663680043469
 30
0.0
 11
2639.844942779297
 21
1258.663680043469
 31
0.0
  0
LINE
  5
1C7
330
1F
100
AcDbEntity
  8
0-2
  6
Continuous
 62
    40
370
    15
100
AcDbLine
 10
2639.844942779297
 20
1258.663680043469
 30
0.0
 11
2639.844942779297
 21
1363.663678704904
 31
0.0
  0
LINE
  5
1C8
330
1F
100
AcDbEntity
  8
0-A_文字
  6
Continuous
 62
     7
370
     9
100
AcDbLine
 10
2639.844944068392
 20
413.3195974808814
 30
0.0
 11
2139.844944068381
 21
124.6444628860672
 31
0.0
  0
LINE
  5
1C9
330
1F
100
AcDbEntity
  8
0-A_文字
  6
Continuous
 62
     7
370
     9
100
AcDbLine
 10
2139.844944068381
 20
-1375.355537113933
 30
0.0
 11
2139.844944068381
 21
124.6444628860672
 31
0.0
  0
LINE
  5
1CA
330
1F
100
AcDbEntity
  8
0-0_補助線
  6
JWW_HOJO
 62
     7
370
     9
100
AcDbLine
 10
4584.844944068396
 20
1258.663680043469
 30
0.0
 11
4584.844944068396
 21
-8556.33631995654
 31
0.0
  0
TEXT
  5
1CB
330
1F
100
AcDbEntity
  8
0-E
  6
Continuous
 62
     9
370
     5
100
AcDbText
 10
2682.344944712946
 20
-1924.736318617985
 30
0.0
 40
76.2
  1
40
  7
ＭＳ ゴシック
100
AcDbText
  0
TEXT
  5
1CC
330
1F
100
AcDbEntity
  8
0-E
  6
Continuous
 62
     9
370
     5
100
AcDbText
 10
2682.344944712946
 20
-2084.736318617987
 30
0.0
 40
76.2
  1
39
  7
ＭＳ ゴシック
100
AcDbText
  0
TEXT
  5
1CD
330
1F
100
AcDbEntity
  8
0-E
  6
Continuous
 62
     9
370
     5
100
AcDbText
 10
2682.344944712946
 20
-2244.736318617983
 30
0.0
 40
76.2
  1
38
  7
ＭＳ ゴシック
100
AcDbText
  0
TEXT
  5
1CE
330
1F
100
AcDbEntity
  8
0-E
  6
Continuous
 62
     9
370
     5
100
AcDbText
 10
2682.344944712946
 20
-2404.73631861798
 30
0.0
 40
76.2
  1
37
  7
ＭＳ ゴシック
100
AcDbText
  0
TEXT
  5
1CF
330
1F
100
AcDbEntity
  8
0-E
  6
Continuous
 62
     9
370
     5
100
AcDbText
 10
2682.344944712946
 20
-2564.736318617982
 30
0.0
 40
76.2
  1
36
  7
ＭＳ ゴシック
100
AcDbText
  0
TEXT
  5
1D0
330
1F
100
AcDbEntity
  8
0-E
  6
Continuous
 62
     9
370
     5
100
AcDbText
 10
2682.344944712946
 20
-2724.736318617985
 30
0.0
 40
76.2
  1
35
  7
ＭＳ ゴシック
100
AcDbText
  0
TEXT
  5
1D1
330
1F
100
AcDbEntity
  8
0-E
  6
Continuous
 62
     9
370
     5
100
AcDbText
 10
2682.344944712946
 20
-2884.736318617987
 30
0.0
 40
76.2
  1
34
  7
ＭＳ ゴシック
100
AcDbText
  0
TEXT
  5
1D2
330
1F
100
AcDbEntity
  8
0-E
  6
Continuous
 62
     9
370
     5
100
AcDbText
 10
2682.344944712946
 20
-3044.736318617989
 30
0.0
 40
76.2
  1
33
  7
ＭＳ ゴシック
100
AcDbText
  0
TEXT
  5
1D3
330
1F
100
AcDbEntity
  8
0-E
  6
Continuous
 62
     9
370
     5
100
AcDbText
 10
2682.344944712946
 20
-3204.736318617986
 30
0.0
 40
76.2
  1
32
  7
ＭＳ ゴシック
100
AcDbText
  0
TEXT
  5
1D4
330
1F
100
AcDbEntity
  8
0-E
  6
Continuous
 62
     9
370
     5
100
AcDbText
 10
2682.344944712946
 20
-3364.736318617982
 30
0.0
 40
76.2
  1
31
  7
ＭＳ ゴシック
100
AcDbText
  0
TEXT
  5
1D5
330
1F
100
AcDbEntity
  8
0-E
  6
Continuous
 62
     9
370
     5
100
AcDbText
 10
2682.344944712946
 20
-3524.736318617985
 30
0.0
 40
76.2
  1
30
  7
ＭＳ ゴシック
100
AcDbText
  0
TEXT
  5
1D6
330
1F
100
AcDbEntity
  8
0-E
  6
Continuous
 62
     9
370
     5
100
AcDbText
 10
2682.344944712946
 20
-3684.736318617987
 30
0.0
 40
76.2
  1
29
  7
ＭＳ ゴシック
100
AcDbText
  0
TEXT
  5
1D7
330
1F
100
AcDbEntity
  8
0-E
  6
Continuous
 62
     9
370
     5
100
AcDbText
 10
2682.344944712946
 20
-3844.736318617989
 30
0.0
 40
76.2
  1
28
  7
ＭＳ ゴシック
100
AcDbText
  0
TEXT
  5
1D8
330
1F
100
AcDbEntity
  8
0-E
  6
Continuous
 62
     9
370
     5
100
AcDbText
 10
2682.344944712946
 20
-4004.736318617991
 30
0.0
 40
76.2
  1
27
  7
ＭＳ ゴシック
100
AcDbText
  0
TEXT
  5
1D9
330
1F
100
AcDbEntity
  8
0-E
  6
Continuous
 62
     9
370
     5
100
AcDbText
 10
2682.344944712946
 20
-4164.736318617982
 30
0.0
 40
76.2
  1
26
  7
ＭＳ ゴシック
100
AcDbText
  0
TEXT
  5
1DA
330
1F
100
AcDbEntity
  8
0-E
  6
Continuous
 62
     9
370
     5
100
AcDbText
 10
2682.344944712946
 20
-4324.736318617985
 30
0.0
 40
76.2
  1
25
  7
ＭＳ ゴシック
100
AcDbText
  0
TEXT
  5
1DB
330
1F
100
AcDbEntity
  8
0-E
  6
Continuous
 62
     9
370
     5
100
AcDbText
 10
2682.344944712946
 20
-4484.736318617986
 30
0.0
 40
76.2
  1
24
  7
ＭＳ ゴシック
100
AcDbText
  0
TEXT
  5
1DC
330
1F
100
AcDbEntity
  8
0-E
  6
Continuous
 62
     9
370
     5
100
AcDbText
 10
2682.344944712946
 20
-4644.736318617988
 30
0.0
 40
76.2
  1
23
  7
ＭＳ ゴシック
100
AcDbText
  0
TEXT
  5
1DD
330
1F
100
AcDbEntity
  8
0-E
  6
Continuous
 62
     9
370
     5
100
AcDbText
 10
2682.344944712946
 20
-4804.736318617991
 30
0.0
 40
76.2
  1
22
  7
ＭＳ ゴシック
100
AcDbText
  0
TEXT
  5
1DE
330
1F
100
AcDbEntity
  8
0-E
  6
Continuous
 62
     9
370
     5
100
AcDbText
 10
2682.344944712946
 20
-4964.736318617994
 30
0.0
 40
76.2
  1
21
  7
ＭＳ ゴシック
100
AcDbText
  0
TEXT
  5
1DF
330
1F
100
AcDbEntity
  8
0-E
  6
Continuous
 62
     9
370
     5
100
AcDbText
 10
2682.344944712946
 20
-5124.736318617985
 30
0.0
 40
76.2
  1
20
  7
ＭＳ ゴシック
100
AcDbText
  0
TEXT
  5
1E0
330
1F
100
AcDbEntity
  8
0-E
  6
Continuous
 62
     9
370
     5
100
AcDbText
 10
2682.344944712946
 20
-5284.736318617986
 30
0.0
 40
76.2
  1
19
  7
ＭＳ ゴシック
100
AcDbText
  0
TEXT
  5
1E1
330
1F
100
AcDbEntity
  8
0-E
  6
Continuous
 62
     9
370
     5
100
AcDbText
 10
2682.344944712946
 20
-5444.736318617988
 30
0.0
 40
76.2
  1
18
  7
ＭＳ ゴシック
100
AcDbText
  0
TEXT
  5
1E2
330
1F
100
AcDbEntity
  8
0-E
  6
Continuous
 62
     9
370
     5
100
AcDbText
 10
2682.344944712946
 20
-5604.736318617991
 30
0.0
 40
76.2
  1
17
  7
ＭＳ ゴシック
100
AcDbText
  0
TEXT
  5
1E3
330
1F
100
AcDbEntity
  8
0-E
  6
Continuous
 62
     9
370
     5
100
AcDbText
 10
2682.344944712946
 20
-5764.736318617982
 30
0.0
 40
76.2
  1
16
  7
ＭＳ ゴシック
100
AcDbText
  0
TEXT
  5
1E4
330
1F
100
AcDbEntity
  8
0-E
  6
Continuous
 62
     9
370
     5
100
AcDbText
 10
2682.344944712946
 20
-5924.736318617985
 30
0.0
 40
76.2
  1
15
  7
ＭＳ ゴシック
100
AcDbText
  0
TEXT
  5
1E5
330
1F
100
AcDbEntity
  8
0-E
  6
Continuous
 62
     9
370
     5
100
AcDbText
 10
2682.344944712946
 20
-6084.736318617986
 30
0.0
 40
76.2
  1
14
  7
ＭＳ ゴシック
100
AcDbText
  0
TEXT
  5
1E6
330
1F
100
AcDbEntity
  8
0-E
  6
Continuous
 62
     9
370
     5
100
AcDbText
 10
2682.344944712946
 20
-6244.736318617988
 30
0.0
 40
76.2
  1
13
  7
ＭＳ ゴシック
100
AcDbText
  0
TEXT
  5
1E7
330
1F
100
AcDbEntity
  8
0-E
  6
Continuous
 62
     9
370
     5
100
AcDbText
 10
2682.344944712946
 20
-6404.736318617991
 30
0.0
 40
76.2
  1
12
  7
ＭＳ ゴシック
100
AcDbText
  0
LINE
  5
1E8
330
1F
100
AcDbEntity
  8
0-B_寸法
  6
Continuous
 62
   120
370
     5
100
AcDbLine
 10
1639.844944068392
 20
-8556.33631995654
 30
0.0
 11
1639.844944068392
 21
-8288.836319956545
 31
0.0
  0
LWPOLYLINE
  5
1E9
330
1F
100
AcDbEntity
  8
0-B_寸法
  6
Continuous
 62
     7
370
     9
100
AcDbPolyline
 90
        4
 70
     1
 43
20.0
 10
1649.844944068392
 20
-8556.33631995654
 42
0.4142135623731
 10
1639.844944068392
 20
-8546.336319956541
 42
0.4142135623731
 10
1629.844944068392
 20
-8556.33631995654
 42
0.4142135623731
 10
1639.844944068392
 20
-8566.33631995654
 42
0.4142135623731
  0
LWPOLYLINE
  5
1EA
330
1F
100
AcDbEntity
  8
0-B_寸法
  6
Continuous
 62
     7
370
     9
100
AcDbPolyline
 90
        4
 70
     1
 43
20.0
 10
1649.844944068392
 20
-8288.836319956545
 42
0.4142135623731
 10
1639.844944068392
 20
-8278.836319956545
 42
0.4142135623731
 10
1629.844944068392
 20
-8288.836319956545
 42
0.4142135623731
 10
1639.844944068392
 20
-8298.836319956545
 42
0.4142135623731
  0
LINE
  5
1EB
330
1F
100
AcDbEntity
  8
0-B_寸法
  6
Continuous
 62
   120
370
     5
100
AcDbLine
 10
1639.844944068392
 20
-8556.33631995654
 30
0.0
 11
2389.844944068392
 21
-8556.33631995654
 31
0.0
  0
LINE
  5
1EC
330
1F
100
AcDbEntity
  8
0-B_寸法
  6
Continuous
 62
   120
370
     5
100
AcDbLine
 10
1639.844944068392
 20
-8288.836319956545
 30
0.0
 11
2389.844944068392
 21
-8288.836319956545
 31
0.0
  0
LINE
  5
1ED
330
1F
100
AcDbEntity
  8
0-B_寸法
  6
Continuous
 62
   120
370
     5
100
AcDbLine
 10
1639.844944068392
 20
-8288.836319956545
 30
0.0
 11
1639.844944068392
 21
-8128.836319956543
 31
0.0
  0
LWPOLYLINE
  5
1EE
330
1F
100
AcDbEntity
  8
0-B_寸法
  6
Continuous
 62
     7
370
     9
100
AcDbPolyline
 90
        4
 70
     1
 43
20.0
 10
1649.844944068392
 20
-8128.836319956543
 42
0.4142135623731
 10
1639.844944068392
 20
-8118.836319956543
 42
0.4142135623731
 10
1629.844944068392
 20
-8128.836319956543
 42
0.4142135623731
 10
1639.844944068392
 20
-8138.836319956542
 42
0.4142135623731
  0
LINE
  5
1EF
330
1F
100
AcDbEntity
  8
0-B_寸法
  6
Continuous
 62
   120
370
     5
100
AcDbLine
 10
1639.844944068392
 20
-8128.836319956543
 30
0.0
 11
2389.844944068392
 21
-8128.836319956543
 31
0.0
  0
LINE
  5
1F0
330
1F
100
AcDbEntity
  8
0-B_寸法
  6
Continuous
 62
   120
370
     5
100
AcDbLine
 10
1639.844944068392
 20
-8128.836319956543
 30
0.0
 11
1639.844944068392
 21
-6528.836319956543
 31
0.0
  0
LWPOLYLINE
  5
1F1
330
1F
100
AcDbEntity
  8
0-B_寸法
  6
Continuous
 62
     7
370
     9
100
AcDbPolyline
 90
        4
 70
     1
 43
20.0
 10
1649.844944068392
 20
-6528.836319956543
 42
0.4142135623731
 10
1639.844944068392
 20
-6518.836319956543
 42
0.4142135623731
 10
1629.844944068392
 20
-6528.836319956543
 42
0.4142135623731
 10
1639.844944068392
 20
-6538.836319956542
 42
0.4142135623731
  0
LINE
  5
1F2
330
1F
100
AcDbEntity
  8
0-B_寸法
  6
Continuous
 62
   120
370
     5
100
AcDbLine
 10
1639.844944068392
 20
-6528.836319956543
 30
0.0
 11
2389.844944068392
 21
-6528.836319956543
 31
0.0
  0
TEXT
  5
1F3
330
1F
100
AcDbEntity
  8
0-E
  6
Continuous
 62
     9
370
     5
100
AcDbText
 10
2682.344944712946
 20
-6564.736318617982
 30
0.0
 40
76.2
  1
11
  7
ＭＳ ゴシック
100
AcDbText
  0
LINE
  5
1F4
330
1F
100
AcDbEntity
  8
0-B_寸法
  6
Continuous
 62
   120
370
     5
100
AcDbLine
 10
1639.844944068392
 20
-6528.836319956543
 30
0.0
 11
1639.844944068392
 21
-6368.836319956552
 31
0.0
  0
LWPOLYLINE
  5
1F5
330
1F
100
AcDbEntity
  8
0-B_寸法
  6
Continuous
 62
     7
370
     9
100
AcDbPolyline
 90
        4
 70
     1
 43
20.0
 10
1649.844944068392
 20
-6368.836319956552
 42
0.4142135623731
 10
1639.844944068392
 20
-6358.836319956551
 42
0.4142135623731
 10
1629.844944068392
 20
-6368.836319956552
 42
0.4142135623731
 10
1639.844944068392
 20
-6378.836319956552
 42
0.4142135623731
  0
LINE
  5
1F6
330
1F
100
AcDbEntity
  8
0-B_寸法
  6
Continuous
 62
   120
370
     5
100
AcDbLine
 10
1639.844944068392
 20
-6368.836319956552
 30
0.0
 11
2389.844944068392
 21
-6368.836319956552
 31
0.0
  0
LINE
  5
1F7
330
1F
100
AcDbEntity
  8
0-B_寸法
  6
Continuous
 62
   120
370
     5
100
AcDbLine
 10
1639.844944068392
 20
-6368.836319956552
 30
0.0
 11
1639.844944068392
 21
-4608.836319956537
 31
0.0
  0
TEXT
  5
1F8
330
1F
100
AcDbEntity
  8
0-E
  6
Continuous
 62
     9
370
     5
100
AcDbText
 10
2682.344944712946
 20
-6724.736318617985
 30
0.0
 40
76.2
  1
10
  7
ＭＳ ゴシック
100
AcDbText
  0
LWPOLYLINE
  5
1F9
330
1F
100
AcDbEntity
  8
0-B_寸法
  6
Continuous
 62
     7
370
     9
100
AcDbPolyline
 90
        4
 70
     1
 43
20.0
 10
3499.844944068392
 20
-9556.33631995654
 42
0.4142135623731
 10
3489.844944068392
 20
-9546.336319956541
 42
0.4142135623731
 10
3479.844944068392
 20
-9556.33631995654
 42
0.4142135623731
 10
3489.844944068392
 20
-9566.33631995654
 42
0.4142135623731
  0
LINE
  5
1FA
330
1F
100
AcDbEntity
  8
0-B_寸法
  6
Continuous
 62
   120
370
     5
100
AcDbLine
 10
3489.844944068392
 20
-9556.33631995654
 30
0.0
 11
3489.844944068392
 21
-8806.33631995654
 31
0.0
  0
LWPOLYLINE
  5
1FB
330
1F
100
AcDbEntity
  8
0-B_寸法
  6
Continuous
 62
     7
370
     9
100
AcDbPolyline
 90
        4
 70
     1
 43
20.0
 10
4899.844944068403
 20
-9556.33631995654
 42
0.4142135623731
 10
4889.844944068403
 20
-9546.336319956541
 42
0.4142135623731
 10
4879.844944068403
 20
-9556.33631995654
 42
0.4142135623731
 10
4889.844944068403
 20
-9566.33631995654
 42
0.4142135623731
  0
LINE
  5
1FC
330
1F
100
AcDbEntity
  8
0-B_寸法
  6
Continuous
 62
   120
370
     5
100
AcDbLine
 10
4889.844944068403
 20
-10056.33631995653
 30
0.0
 11
4889.844944068403
 21
-8806.33631995654
 31
0.0
  0
LWPOLYLINE
  5
1FD
330
1F
100
AcDbEntity
  8
0-B_寸法
  6
Continuous
 62
     7
370
     9
100
AcDbPolyline
 90
        4
 70
     1
 43
20.0
 10
4899.844944068403
 20
-10056.33631995653
 42
0.4142135623731
 10
4889.844944068403
 20
-10046.33631995653
 42
0.4142135623731
 10
4879.844944068403
 20
-10056.33631995653
 42
0.4142135623731
 10
4889.844944068403
 20
-10066.33631995653
 42
0.4142135623731
  0
TEXT
  5
1FE
330
1F
100
AcDbEntity
  8
0-E
  6
Continuous
 62
     9
370
     5
100
AcDbText
 10
2707.344944712946
 20
-6884.736318617986
 30
0.0
 40
76.2
  1
9
  7
ＭＳ ゴシック
100
AcDbText
  0
LWPOLYLINE
  5
1FF
330
1F
100
AcDbEntity
  8
0-B_寸法
  6
Continuous
 62
     7
370
     9
100
AcDbPolyline
 90
        4
 70
     1
 43
20.0
 10
2649.844944068392
 20
-9556.33631995654
 42
0.4142135623731
 10
2639.844944068392
 20
-9546.336319956541
 42
0.4142135623731
 10
2629.844944068392
 20
-9556.33631995654
 42
0.4142135623731
 10
2639.844944068392
 20
-9566.33631995654
 42
0.4142135623731
  0
LINE
  5
200
330
1F
100
AcDbEntity
  8
0-B_寸法
  6
Continuous
 62
   120
370
     5
100
AcDbLine
 10
2639.844944068392
 20
-10056.33631995653
 30
0.0
 11
2639.844944068392
 21
-8806.33631995654
 31
0.0
  0
LWPOLYLINE
  5
201
330
1F
100
AcDbEntity
  8
0-B_寸法
  6
Continuous
 62
     7
370
     9
100
AcDbPolyline
 90
        4
 70
     1
 43
20.0
 10
2649.844944068392
 20
-10056.33631995653
 42
0.4142135623731
 10
2639.844944068392
 20
-10046.33631995653
 42
0.4142135623731
 10
2629.844944068392
 20
-10056.33631995653
 42
0.4142135623731
 10
2639.844944068392
 20
-10066.33631995653
 42
0.4142135623731
  0
LINE
  5
202
330
1F
100
AcDbEntity
  8
0-B_寸法
  6
Continuous
 62
   120
370
     5
100
AcDbLine
 10
2639.844944068392
 20
-9556.33631995654
 30
0.0
 11
4889.844944068403
 21
-9556.33631995654
 31
0.0
  0
LINE
  5
203
330
1F
100
AcDbEntity
  8
0-B_寸法
  6
Continuous
 62
   120
370
     5
100
AcDbLine
 10
2639.844944068392
 20
-10056.33631995653
 30
0.0
 11
4889.844944068403
 21
-10056.33631995653
 31
0.0
  0
TEXT
  5
204
330
1F
100
AcDbEntity
  8
0-E
  6
Continuous
 62
     9
370
     5
100
AcDbText
 10
2707.344944712946
 20
-7044.736318617988
 30
0.0
 40
76.2
  1
8
  7
ＭＳ ゴシック
100
AcDbText
  0
LINE
  5
205
330
1F
100
AcDbEntity
  8
0-B_寸法
  6
Continuous
 62
   120
370
     5
100
AcDbLine
 10
989.8449440683919
 20
1258.663680043469
 30
0.0
 11
989.8449440683919
 21
-8556.33631995654
 31
0.0
  0
LWPOLYLINE
  5
206
330
1F
100
AcDbEntity
  8
0-B_寸法
  6
Continuous
 62
     7
370
     9
100
AcDbPolyline
 90
        4
 70
     1
 43
20.0
 10
999.8449440683919
 20
1258.663680043469
 42
0.4142135623731
 10
989.8449440683919
 20
1268.663680043469
 42
0.4142135623731
 10
979.8449440683919
 20
1258.663680043469
 42
0.4142135623731
 10
989.8449440683919
 20
1248.663680043469
 42
0.4142135623731
  0
LWPOLYLINE
  5
207
330
1F
100
AcDbEntity
  8
0-B_寸法
  6
Continuous
 62
     7
370
     9
100
AcDbPolyline
 90
        4
 70
     1
 43
20.0
 10
999.8449440683919
 20
831.1636800434599
 42
0.4142135623731
 10
989.8449440683919
 20
841.1636800434599
 42
0.4142135623731
 10
979.8449440683919
 20
831.1636800434599
 42
0.4142135623731
 10
989.8449440683919
 20
821.1636800434599
 42
0.4142135623731
  0
LWPOLYLINE
  5
208
330
1F
100
AcDbEntity
  8
0-B_寸法
  6
Continuous
 62
     7
370
     9
100
AcDbPolyline
 90
        4
 70
     1
 43
20.0
 10
999.8449440683919
 20
-8128.836319956452
 42
0.4142135623731
 10
989.8449440683919
 20
-8118.836319956452
 42
0.4142135623731
 10
979.8449440683919
 20
-8128.836319956452
 42
0.4142135623731
 10
989.8449440683919
 20
-8138.836319956451
 42
0.4142135623731
  0
LWPOLYLINE
  5
209
330
1F
100
AcDbEntity
  8
0-B_寸法
  6
Continuous
 62
     7
370
     9
100
AcDbPolyline
 90
        4
 70
     1
 43
20.0
 10
999.8449440683919
 20
-8556.33631995654
 42
0.4142135623731
 10
989.8449440683919
 20
-8546.336319956541
 42
0.4142135623731
 10
979.8449440683919
 20
-8556.33631995654
 42
0.4142135623731
 10
989.8449440683919
 20
-8566.33631995654
 42
0.4142135623731
  0
TEXT
  5
20A
330
1F
100
AcDbEntity
  8
0-E
  6
Continuous
 62
     9
370
     5
100
AcDbText
 10
2707.344944712946
 20
-7204.736318617979
 30
0.0
 40
76.2
  1
7
  7
ＭＳ ゴシック
100
AcDbText
  0
LINE
  5
20B
330
1F
100
AcDbEntity
  8
0-B_寸法
  6
Continuous
 62
   120
370
     5
100
AcDbLine
 10
989.8449440683919
 20
1258.663680043469
 30
0.0
 11
1639.844944068392
 21
1258.663680043469
 31
0.0
  0
LINE
  5
20C
330
1F
100
AcDbEntity
  8
0-B_寸法
  6
Continuous
 62
   120
370
     5
100
AcDbLine
 10
989.8449440683919
 20
-8556.33631995654
 30
0.0
 11
1639.844944068392
 21
-8556.33631995654
 31
0.0
  0
LINE
  5
20D
330
1F
100
AcDbEntity
  8
0-B_寸法
  6
Continuous
 62
   120
370
     5
100
AcDbLine
 10
989.8449440683919
 20
831.1636800434599
 30
0.0
 11
1064.914259597805
 21
831.1636800434599
 31
0.0
  0
LINE
  5
20E
330
1F
100
AcDbEntity
  8
0-B_寸法
  6
Continuous
 62
   120
370
     5
100
AcDbLine
 10
989.8449440683919
 20
-8128.836319956452
 30
0.0
 11
1064.914259597805
 21
-8128.836319956452
 31
0.0
  0
CIRCLE
  5
20F
330
1F
100
AcDbEntity
  8
側板
  6
Continuous
 62
   120
370
     5
100
AcDbCircle
 10
3489.844944068392
 20
-4448.836319956547
 30
0.0
 40
12.5
  0
CIRCLE
  5
210
330
1F
100
AcDbEntity
  8
側板
  6
Continuous
 62
   120
370
     5
100
AcDbCircle
 10
3489.844944068392
 20
-4608.836319956537
 30
0.0
 40
12.5
  0
CIRCLE
  5
211
330
1F
100
AcDbEntity
  8
側板
  6
Continuous
 62
   120
370
     5
100
AcDbCircle
 10
3489.844944068392
 20
-2688.836319956533
 30
0.0
 40
12.5
  0
CIRCLE
  5
212
330
1F
100
AcDbEntity
  8
側板
  6
Continuous
 62
   120
370
     5
100
AcDbCircle
 10
3489.844944068392
 20
-2848.836319956536
 30
0.0
 40
12.5
  0
CIRCLE
  5
213
330
1F
100
AcDbEntity
  8
側板
  6
Continuous
 62
   120
370
     5
100
AcDbCircle
 10
3489.844944068392
 20
-768.8363199565401
 30
0.0
 40
12.5
  0
CIRCLE
  5
214
330
1F
100
AcDbEntity
  8
側板
  6
Continuous
 62
   120
370
     5
100
AcDbCircle
 10
3489.844944068392
 20
-928.836319956531
 30
0.0
 40
12.5
  0
CIRCLE
  5
215
330
1F
100
AcDbEntity
  8
側板
  6
Continuous
 62
   120
370
     5
100
AcDbCircle
 10
3489.844944068392
 20
991.1636800434621
 30
0.0
 40
12.5
  0
CIRCLE
  5
216
330
1F
100
AcDbEntity
  8
側板
  6
Continuous
 62
   120
370
     5
100
AcDbCircle
 10
3489.844944068392
 20
831.1636800434599
 30
0.0
 40
12.5
  0
CIRCLE
  5
217
330
1F
100
AcDbEntity
  8
側板
  6
Continuous
 62
   120
370
     5
100
AcDbCircle
 10
2824.844944068394
 20
831.1636800434599
 30
0.0
 40
12.5
  0
CIRCLE
  5
218
330
1F
100
AcDbEntity
  8
側板
  6
Continuous
 62
   120
370
     5
100
AcDbCircle
 10
2824.844944068394
 20
671.163680043469
 30
0.0
 40
12.5
  0
CIRCLE
  5
219
330
1F
100
AcDbEntity
  8
側板
  6
Continuous
 62
   120
370
     5
100
AcDbCircle
 10
2824.844944068394
 20
511.1636800434667
 30
0.0
 40
12.5
  0
CIRCLE
  5
21A
330
1F
100
AcDbEntity
  8
側板
  6
Continuous
 62
   120
370
     5
100
AcDbCircle
 10
2824.844944068394
 20
351.1636800434644
 30
0.0
 40
12.5
  0
CIRCLE
  5
21B
330
1F
100
AcDbEntity
  8
側板
  6
Continuous
 62
   120
370
     5
100
AcDbCircle
 10
2824.844944068394
 20
191.1636800434735
 30
0.0
 40
12.5
  0
CIRCLE
  5
21C
330
1F
100
AcDbEntity
  8
側板
  6
Continuous
 62
   120
370
     5
100
AcDbCircle
 10
2824.844944068394
 20
31.16368004347123
 30
0.0
 40
12.5
  0
CIRCLE
  5
21D
330
1F
100
AcDbEntity
  8
側板
  6
Continuous
 62
   120
370
     5
100
AcDbCircle
 10
2824.844944068394
 20
-128.836319956531
 30
0.0
 40
12.5
  0
CIRCLE
  5
21E
330
1F
100
AcDbEntity
  8
側板
  6
Continuous
 62
   120
370
     5
100
AcDbCircle
 10
2824.844944068394
 20
-288.8363199565219
 30
0.0
 40
12.5
  0
CIRCLE
  5
21F
330
1F
100
AcDbEntity
  8
側板
  6
Continuous
 62
   120
370
     5
100
AcDbCircle
 10
2824.844944068394
 20
-448.8363199565242
 30
0.0
 40
12.5
  0
CIRCLE
  5
220
330
1F
100
AcDbEntity
  8
側板
  6
Continuous
 62
   120
370
     5
100
AcDbCircle
 10
2824.844944068394
 20
-608.8363199565265
 30
0.0
 40
12.5
  0
CIRCLE
  5
221
330
1F
100
AcDbEntity
  8
側板
  6
Continuous
 62
   120
370
     5
100
AcDbCircle
 10
2824.844944068394
 20
-768.8363199565174
 30
0.0
 40
12.5
  0
CIRCLE
  5
222
330
1F
100
AcDbEntity
  8
側板
  6
Continuous
 62
   120
370
     5
100
AcDbCircle
 10
2824.844944068394
 20
-928.8363199565197
 30
0.0
 40
12.5
  0
CIRCLE
  5
223
330
1F
100
AcDbEntity
  8
側板
  6
Continuous
 62
   120
370
     5
100
AcDbCircle
 10
2824.844944068394
 20
-1088.836319956522
 30
0.0
 40
12.5
  0
CIRCLE
  5
224
330
1F
100
AcDbEntity
  8
側板
  6
Continuous
 62
   120
370
     5
100
AcDbCircle
 10
2824.844944068394
 20
-1248.836319956513
 30
0.0
 40
12.5
  0
CIRCLE
  5
225
330
1F
100
AcDbEntity
  8
側板
  6
Continuous
 62
   120
370
     5
100
AcDbCircle
 10
2824.844944068394
 20
-1408.836319956515
 30
0.0
 40
12.5
  0
CIRCLE
  5
226
330
1F
100
AcDbEntity
  8
側板
  6
Continuous
 62
   120
370
     5
100
AcDbCircle
 10
2824.844944068394
 20
-1568.836319956517
 30
0.0
 40
12.5
  0
CIRCLE
  5
227
330
1F
100
AcDbEntity
  8
側板
  6
Continuous
 62
   120
370
     5
100
AcDbCircle
 10
2824.844944068394
 20
-1728.836319956514
 30
0.0
 40
12.5
  0
CIRCLE
  5
228
330
1F
100
AcDbEntity
  8
側板
  6
Continuous
 62
   120
370
     5
100
AcDbCircle
 10
2824.844944068394
 20
-1888.836319956511
 30
0.0
 40
12.5
  0
CIRCLE
  5
229
330
1F
100
AcDbEntity
  8
側板
  6
Continuous
 62
   120
370
     5
100
AcDbCircle
 10
2824.844944068394
 20
-2048.836319956513
 30
0.0
 40
12.5
  0
CIRCLE
  5
22A
330
1F
100
AcDbEntity
  8
側板
  6
Continuous
 62
   120
370
     5
100
AcDbCircle
 10
2824.844944068394
 20
-2208.836319956515
 30
0.0
 40
12.5
  0
CIRCLE
  5
22B
330
1F
100
AcDbEntity
  8
側板
  6
Continuous
 62
   120
370
     5
100
AcDbCircle
 10
2824.844944068394
 20
-2368.836319956506
 30
0.0
 40
12.5
  0
CIRCLE
  5
22C
330
1F
100
AcDbEntity
  8
側板
  6
Continuous
 62
   120
370
     5
100
AcDbCircle
 10
2824.844944068394
 20
-2528.836319956508
 30
0.0
 40
12.5
  0
CIRCLE
  5
22D
330
1F
100
AcDbEntity
  8
側板
  6
Continuous
 62
   120
370
     5
100
AcDbCircle
 10
2824.844944068394
 20
-2688.836319956499
 30
0.0
 40
12.5
  0
CIRCLE
  5
22E
330
1F
100
AcDbEntity
  8
側板
  6
Continuous
 62
   120
370
     5
100
AcDbCircle
 10
2824.844944068394
 20
-2848.836319956501
 30
0.0
 40
12.5
  0
CIRCLE
  5
22F
330
1F
100
AcDbEntity
  8
側板
  6
Continuous
 62
   120
370
     5
100
AcDbCircle
 10
2824.844944068394
 20
-3008.836319956504
 30
0.0
 40
12.5
  0
CIRCLE
  5
230
330
1F
100
AcDbEntity
  8
側板
  6
Continuous
 62
   120
370
     5
100
AcDbCircle
 10
2824.844944068394
 20
-3168.836319956495
 30
0.0
 40
12.5
  0
CIRCLE
  5
231
330
1F
100
AcDbEntity
  8
側板
  6
Continuous
 62
   120
370
     5
100
AcDbCircle
 10
2824.844944068394
 20
-3328.836319956497
 30
0.0
 40
12.5
  0
CIRCLE
  5
232
330
1F
100
AcDbEntity
  8
側板
  6
Continuous
 62
   120
370
     5
100
AcDbCircle
 10
2824.844944068394
 20
-3488.836319956499
 30
0.0
 40
12.5
  0
CIRCLE
  5
233
330
1F
100
AcDbEntity
  8
側板
  6
Continuous
 62
   120
370
     5
100
AcDbCircle
 10
2824.844944068394
 20
-3648.83631995649
 30
0.0
 40
12.5
  0
CIRCLE
  5
234
330
1F
100
AcDbEntity
  8
側板
  6
Continuous
 62
   120
370
     5
100
AcDbCircle
 10
2824.844944068394
 20
-3808.836319956492
 30
0.0
 40
12.5
  0
CIRCLE
  5
235
330
1F
100
AcDbEntity
  8
側板
  6
Continuous
 62
   120
370
     5
100
AcDbCircle
 10
2824.844944068394
 20
-3968.836319956495
 30
0.0
 40
12.5
  0
CIRCLE
  5
236
330
1F
100
AcDbEntity
  8
側板
  6
Continuous
 62
   120
370
     5
100
AcDbCircle
 10
2824.844944068394
 20
-4128.836319956497
 30
0.0
 40
12.5
  0
CIRCLE
  5
237
330
1F
100
AcDbEntity
  8
側板
  6
Continuous
 62
   120
370
     5
100
AcDbCircle
 10
2824.844944068394
 20
-4288.836319956488
 30
0.0
 40
12.5
  0
CIRCLE
  5
238
330
1F
100
AcDbEntity
  8
側板
  6
Continuous
 62
   120
370
     5
100
AcDbCircle
 10
2824.844944068394
 20
-4448.83631995649
 30
0.0
 40
12.5
  0
CIRCLE
  5
239
330
1F
100
AcDbEntity
  8
側板
  6
Continuous
 62
   120
370
     5
100
AcDbCircle
 10
2824.844944068394
 20
-4608.836319956492
 30
0.0
 40
12.5
  0
CIRCLE
  5
23A
330
1F
100
AcDbEntity
  8
側板
  6
Continuous
 62
   120
370
     5
100
AcDbCircle
 10
2824.844944068394
 20
-4768.836319956483
 30
0.0
 40
12.5
  0
CIRCLE
  5
23B
330
1F
100
AcDbEntity
  8
側板
  6
Continuous
 62
   120
370
     5
100
AcDbCircle
 10
2824.844944068394
 20
-4928.836319956486
 30
0.0
 40
12.5
  0
CIRCLE
  5
23C
330
1F
100
AcDbEntity
  8
側板
  6
Continuous
 62
   120
370
     5
100
AcDbCircle
 10
2824.844944068394
 20
-5088.836319956488
 30
0.0
 40
12.5
  0
CIRCLE
  5
23D
330
1F
100
AcDbEntity
  8
側板
  6
Continuous
 62
   120
370
     5
100
AcDbCircle
 10
2824.844944068394
 20
-5248.836319956479
 30
0.0
 40
12.5
  0
CIRCLE
  5
23E
330
1F
100
AcDbEntity
  8
側板
  6
Continuous
 62
   120
370
     5
100
AcDbCircle
 10
2824.844944068394
 20
-5408.836319956481
 30
0.0
 40
12.5
  0
CIRCLE
  5
23F
330
1F
100
AcDbEntity
  8
側板
  6
Continuous
 62
   120
370
     5
100
AcDbCircle
 10
2824.844944068394
 20
-5568.836319956483
 30
0.0
 40
12.5
  0
CIRCLE
  5
240
330
1F
100
AcDbEntity
  8
側板
  6
Continuous
 62
   120
370
     5
100
AcDbCircle
 10
2824.844944068394
 20
-5728.836319956474
 30
0.0
 40
12.5
  0
CIRCLE
  5
241
330
1F
100
AcDbEntity
  8
側板
  6
Continuous
 62
   120
370
     5
100
AcDbCircle
 10
2824.844944068394
 20
-5888.836319956476
 30
0.0
 40
12.5
  0
CIRCLE
  5
242
330
1F
100
AcDbEntity
  8
側板
  6
Continuous
 62
   120
370
     5
100
AcDbCircle
 10
2824.844944068394
 20
-6048.836319956479
 30
0.0
 40
12.5
  0
CIRCLE
  5
243
330
1F
100
AcDbEntity
  8
側板
  6
Continuous
 62
   120
370
     5
100
AcDbCircle
 10
2824.844944068394
 20
-6208.83631995647
 30
0.0
 40
12.5
  0
CIRCLE
  5
244
330
1F
100
AcDbEntity
  8
側板
  6
Continuous
 62
   120
370
     5
100
AcDbCircle
 10
2824.844944068394
 20
-6368.836319956472
 30
0.0
 40
12.5
  0
CIRCLE
  5
245
330
1F
100
AcDbEntity
  8
側板
  6
Continuous
 62
   120
370
     5
100
AcDbCircle
 10
2824.844944068394
 20
-6528.836319956474
 30
0.0
 40
12.5
  0
CIRCLE
  5
246
330
1F
100
AcDbEntity
  8
側板
  6
Continuous
 62
   120
370
     5
100
AcDbCircle
 10
2824.844944068394
 20
-6688.836319956465
 30
0.0
 40
12.5
  0
CIRCLE
  5
247
330
1F
100
AcDbEntity
  8
側板
  6
Continuous
 62
   120
370
     5
100
AcDbCircle
 10
2824.844944068394
 20
-6848.836319956467
 30
0.0
 40
12.5
  0
CIRCLE
  5
248
330
1F
100
AcDbEntity
  8
側板
  6
Continuous
 62
   120
370
     5
100
AcDbCircle
 10
2824.844944068394
 20
-7008.836319956458
 30
0.0
 40
12.5
  0
CIRCLE
  5
249
330
1F
100
AcDbEntity
  8
側板
  6
Continuous
 62
   120
370
     5
100
AcDbCircle
 10
2824.844944068394
 20
-7168.836319956461
 30
0.0
 40
12.5
  0
CIRCLE
  5
24A
330
1F
100
AcDbEntity
  8
側板
  6
Continuous
 62
   120
370
     5
100
AcDbCircle
 10
2824.844944068394
 20
-7328.836319956463
 30
0.0
 40
12.5
  0
CIRCLE
  5
24B
330
1F
100
AcDbEntity
  8
側板
  6
Continuous
 62
   120
370
     5
100
AcDbCircle
 10
2824.844944068394
 20
-7488.836319956454
 30
0.0
 40
12.5
  0
CIRCLE
  5
24C
330
1F
100
AcDbEntity
  8
側板
  6
Continuous
 62
   120
370
     5
100
AcDbCircle
 10
2824.844944068394
 20
-7648.836319956456
 30
0.0
 40
12.5
  0
CIRCLE
  5
24D
330
1F
100
AcDbEntity
  8
側板
  6
Continuous
 62
   120
370
     5
100
AcDbCircle
 10
2824.844944068394
 20
-7808.836319956458
 30
0.0
 40
12.5
  0
CIRCLE
  5
24E
330
1F
100
AcDbEntity
  8
側板
  6
Continuous
 62
   120
370
     5
100
AcDbCircle
 10
2824.844944068394
 20
-7968.836319956461
 30
0.0
 40
12.5
  0
CIRCLE
  5
24F
330
1F
100
AcDbEntity
  8
側板
  6
Continuous
 62
   120
370
     5
100
AcDbCircle
 10
2824.844944068394
 20
-8128.836319956452
 30
0.0
 40
12.5
  0
CIRCLE
  5
250
330
1F
100
AcDbEntity
  8
側板
  6
Continuous
 62
   120
370
     5
100
AcDbCircle
 10
4584.844944068396
 20
831.1636800434599
 30
0.0
 40
12.5
  0
CIRCLE
  5
251
330
1F
100
AcDbEntity
  8
側板
  6
Continuous
 62
   120
370
     5
100
AcDbCircle
 10
4584.844944068396
 20
671.163680043469
 30
0.0
 40
12.5
  0
CIRCLE
  5
252
330
1F
100
AcDbEntity
  8
側板
  6
Continuous
 62
   120
370
     5
100
AcDbCircle
 10
4584.844944068396
 20
511.1636800434667
 30
0.0
 40
12.5
  0
CIRCLE
  5
253
330
1F
100
AcDbEntity
  8
側板
  6
Continuous
 62
   120
370
     5
100
AcDbCircle
 10
4584.844944068396
 20
351.1636800434644
 30
0.0
 40
12.5
  0
CIRCLE
  5
254
330
1F
100
AcDbEntity
  8
側板
  6
Continuous
 62
   120
370
     5
100
AcDbCircle
 10
4584.844944068396
 20
191.1636800434735
 30
0.0
 40
12.5
  0
CIRCLE
  5
255
330
1F
100
AcDbEntity
  8
側板
  6
Continuous
 62
   120
370
     5
100
AcDbCircle
 10
4584.844944068396
 20
31.16368004347123
 30
0.0
 40
12.5
  0
CIRCLE
  5
256
330
1F
100
AcDbEntity
  8
側板
  6
Continuous
 62
   120
370
     5
100
AcDbCircle
 10
4584.844944068396
 20
-128.836319956531
 30
0.0
 40
12.5
  0
CIRCLE
  5
257
330
1F
100
AcDbEntity
  8
側板
  6
Continuous
 62
   120
370
     5
100
AcDbCircle
 10
4584.844944068396
 20
-288.8363199565219
 30
0.0
 40
12.5
  0
CIRCLE
  5
258
330
1F
100
AcDbEntity
  8
側板
  6
Continuous
 62
   120
370
     5
100
AcDbCircle
 10
4584.844944068396
 20
-448.8363199565242
 30
0.0
 40
12.5
  0
CIRCLE
  5
259
330
1F
100
AcDbEntity
  8
側板
  6
Continuous
 62
   120
370
     5
100
AcDbCircle
 10
4584.844944068396
 20
-608.8363199565265
 30
0.0
 40
12.5
  0
CIRCLE
  5
25A
330
1F
100
AcDbEntity
  8
側板
  6
Continuous
 62
   120
370
     5
100
AcDbCircle
 10
4584.844944068396
 20
-768.8363199565174
 30
0.0
 40
12.5
  0
CIRCLE
  5
25B
330
1F
100
AcDbEntity
  8
側板
  6
Continuous
 62
   120
370
     5
100
AcDbCircle
 10
4584.844944068396
 20
-928.8363199565197
 30
0.0
 40
12.5
  0
CIRCLE
  5
25C
330
1F
100
AcDbEntity
  8
側板
  6
Continuous
 62
   120
370
     5
100
AcDbCircle
 10
4584.844944068396
 20
-1088.836319956522
 30
0.0
 40
12.5
  0
CIRCLE
  5
25D
330
1F
100
AcDbEntity
  8
側板
  6
Continuous
 62
   120
370
     5
100
AcDbCircle
 10
4584.844944068396
 20
-1248.836319956513
 30
0.0
 40
12.5
  0
CIRCLE
  5
25E
330
1F
100
AcDbEntity
  8
側板
  6
Continuous
 62
   120
370
     5
100
AcDbCircle
 10
4584.844944068396
 20
-1408.836319956515
 30
0.0
 40
12.5
  0
CIRCLE
  5
25F
330
1F
100
AcDbEntity
  8
側板
  6
Continuous
 62
   120
370
     5
100
AcDbCircle
 10
4584.844944068396
 20
-1568.836319956517
 30
0.0
 40
12.5
  0
CIRCLE
  5
260
330
1F
100
AcDbEntity
  8
側板
  6
Continuous
 62
   120
370
     5
100
AcDbCircle
 10
4584.844944068396
 20
-1728.836319956514
 30
0.0
 40
12.5
  0
CIRCLE
  5
261
330
1F
100
AcDbEntity
  8
側板
  6
Continuous
 62
   120
370
     5
100
AcDbCircle
 10
4584.844944068396
 20
-1888.836319956511
 30
0.0
 40
12.5
  0
CIRCLE
  5
262
330
1F
100
AcDbEntity
  8
側板
  6
Continuous
 62
   120
370
     5
100
AcDbCircle
 10
4584.844944068396
 20
-2048.836319956513
 30
0.0
 40
12.5
  0
CIRCLE
  5
263
330
1F
100
AcDbEntity
  8
側板
  6
Continuous
 62
   120
370
     5
100
AcDbCircle
 10
4584.844944068396
 20
-2208.836319956515
 30
0.0
 40
12.5
  0
CIRCLE
  5
264
330
1F
100
AcDbEntity
  8
側板
  6
Continuous
 62
   120
370
     5
100
AcDbCircle
 10
4584.844944068396
 20
-2368.836319956506
 30
0.0
 40
12.5
  0
CIRCLE
  5
265
330
1F
100
AcDbEntity
  8
側板
  6
Continuous
 62
   120
370
     5
100
AcDbCircle
 10
4584.844944068396
 20
-2528.836319956508
 30
0.0
 40
12.5
  0
CIRCLE
  5
266
330
1F
100
AcDbEntity
  8
側板
  6
Continuous
 62
   120
370
     5
100
AcDbCircle
 10
4584.844944068396
 20
-2688.836319956499
 30
0.0
 40
12.5
  0
CIRCLE
  5
267
330
1F
100
AcDbEntity
  8
側板
  6
Continuous
 62
   120
370
     5
100
AcDbCircle
 10
4584.844944068396
 20
-2848.836319956501
 30
0.0
 40
12.5
  0
CIRCLE
  5
268
330
1F
100
AcDbEntity
  8
側板
  6
Continuous
 62
   120
370
     5
100
AcDbCircle
 10
4584.844944068396
 20
-3008.836319956504
 30
0.0
 40
12.5
  0
CIRCLE
  5
269
330
1F
100
AcDbEntity
  8
側板
  6
Continuous
 62
   120
370
     5
100
AcDbCircle
 10
4584.844944068396
 20
-3168.836319956495
 30
0.0
 40
12.5
  0
CIRCLE
  5
26A
330
1F
100
AcDbEntity
  8
側板
  6
Continuous
 62
   120
370
     5
100
AcDbCircle
 10
4584.844944068396
 20
-3328.836319956497
 30
0.0
 40
12.5
  0
CIRCLE
  5
26B
330
1F
100
AcDbEntity
  8
側板
  6
Continuous
 62
   120
370
     5
100
AcDbCircle
 10
4584.844944068396
 20
-3488.836319956499
 30
0.0
 40
12.5
  0
CIRCLE
  5
26C
330
1F
100
AcDbEntity
  8
側板
  6
Continuous
 62
   120
370
     5
100
AcDbCircle
 10
4584.844944068396
 20
-3648.83631995649
 30
0.0
 40
12.5
  0
CIRCLE
  5
26D
330
1F
100
AcDbEntity
  8
側板
  6
Continuous
 62
   120
370
     5
100
AcDbCircle
 10
4584.844944068396
 20
-3808.836319956492
 30
0.0
 40
12.5
  0
CIRCLE
  5
26E
330
1F
100
AcDbEntity
  8
側板
  6
Continuous
 62
   120
370
     5
100
AcDbCircle
 10
4584.844944068396
 20
-3968.836319956495
 30
0.0
 40
12.5
  0
CIRCLE
  5
26F
330
1F
100
AcDbEntity
  8
側板
  6
Continuous
 62
   120
370
     5
100
AcDbCircle
 10
4584.844944068396
 20
-4128.836319956497
 30
0.0
 40
12.5
  0
CIRCLE
  5
270
330
1F
100
AcDbEntity
  8
側板
  6
Continuous
 62
   120
370
     5
100
AcDbCircle
 10
4584.844944068396
 20
-4288.836319956488
 30
0.0
 40
12.5
  0
CIRCLE
  5
271
330
1F
100
AcDbEntity
  8
側板
  6
Continuous
 62
   120
370
     5
100
AcDbCircle
 10
4584.844944068396
 20
-4448.83631995649
 30
0.0
 40
12.5
  0
CIRCLE
  5
272
330
1F
100
AcDbEntity
  8
側板
  6
Continuous
 62
   120
370
     5
100
AcDbCircle
 10
4584.844944068396
 20
-4608.836319956492
 30
0.0
 40
12.5
  0
CIRCLE
  5
273
330
1F
100
AcDbEntity
  8
側板
  6
Continuous
 62
   120
370
     5
100
AcDbCircle
 10
4584.844944068396
 20
-4768.836319956483
 30
0.0
 40
12.5
  0
CIRCLE
  5
274
330
1F
100
AcDbEntity
  8
側板
  6
Continuous
 62
   120
370
     5
100
AcDbCircle
 10
4584.844944068396
 20
-4928.836319956486
 30
0.0
 40
12.5
  0
CIRCLE
  5
275
330
1F
100
AcDbEntity
  8
側板
  6
Continuous
 62
   120
370
     5
100
AcDbCircle
 10
4584.844944068396
 20
-5088.836319956488
 30
0.0
 40
12.5
  0
CIRCLE
  5
276
330
1F
100
AcDbEntity
  8
側板
  6
Continuous
 62
   120
370
     5
100
AcDbCircle
 10
4584.844944068396
 20
-5248.836319956479
 30
0.0
 40
12.5
  0
CIRCLE
  5
277
330
1F
100
AcDbEntity
  8
側板
  6
Continuous
 62
   120
370
     5
100
AcDbCircle
 10
4584.844944068396
 20
-5408.836319956481
 30
0.0
 40
12.5
  0
CIRCLE
  5
278
330
1F
100
AcDbEntity
  8
側板
  6
Continuous
 62
   120
370
     5
100
AcDbCircle
 10
4584.844944068396
 20
-5568.836319956483
 30
0.0
 40
12.5
  0
CIRCLE
  5
279
330
1F
100
AcDbEntity
  8
側板
  6
Continuous
 62
   120
370
     5
100
AcDbCircle
 10
4584.844944068396
 20
-5728.836319956474
 30
0.0
 40
12.5
  0
CIRCLE
  5
27A
330
1F
100
AcDbEntity
  8
側板
  6
Continuous
 62
   120
370
     5
100
AcDbCircle
 10
4584.844944068396
 20
-5888.836319956476
 30
0.0
 40
12.5
  0
CIRCLE
  5
27B
330
1F
100
AcDbEntity
  8
側板
  6
Continuous
 62
   120
370
     5
100
AcDbCircle
 10
4584.844944068396
 20
-6048.836319956479
 30
0.0
 40
12.5
  0
CIRCLE
  5
27C
330
1F
100
AcDbEntity
  8
側板
  6
Continuous
 62
   120
370
     5
100
AcDbCircle
 10
4584.844944068396
 20
-6208.83631995647
 30
0.0
 40
12.5
  0
CIRCLE
  5
27D
330
1F
100
AcDbEntity
  8
側板
  6
Continuous
 62
   120
370
     5
100
AcDbCircle
 10
4584.844944068396
 20
-6368.836319956472
 30
0.0
 40
12.5
  0
CIRCLE
  5
27E
330
1F
100
AcDbEntity
  8
側板
  6
Continuous
 62
   120
370
     5
100
AcDbCircle
 10
4584.844944068396
 20
-6528.836319956474
 30
0.0
 40
12.5
  0
CIRCLE
  5
27F
330
1F
100
AcDbEntity
  8
側板
  6
Continuous
 62
   120
370
     5
100
AcDbCircle
 10
4584.844944068396
 20
-6688.836319956465
 30
0.0
 40
12.5
  0
CIRCLE
  5
280
330
1F
100
AcDbEntity
  8
側板
  6
Continuous
 62
   120
370
     5
100
AcDbCircle
 10
4584.844944068396
 20
-6848.836319956467
 30
0.0
 40
12.5
  0
CIRCLE
  5
281
330
1F
100
AcDbEntity
  8
側板
  6
Continuous
 62
   120
370
     5
100
AcDbCircle
 10
4584.844944068396
 20
-7008.836319956458
 30
0.0
 40
12.5
  0
CIRCLE
  5
282
330
1F
100
AcDbEntity
  8
側板
  6
Continuous
 62
   120
370
     5
100
AcDbCircle
 10
4584.844944068396
 20
-7168.836319956461
 30
0.0
 40
12.5
  0
CIRCLE
  5
283
330
1F
100
AcDbEntity
  8
側板
  6
Continuous
 62
   120
370
     5
100
AcDbCircle
 10
4584.844944068396
 20
-7328.836319956463
 30
0.0
 40
12.5
  0
CIRCLE
  5
284
330
1F
100
AcDbEntity
  8
側板
  6
Continuous
 62
   120
370
     5
100
AcDbCircle
 10
4584.844944068396
 20
-7488.836319956454
 30
0.0
 40
12.5
  0
CIRCLE
  5
285
330
1F
100
AcDbEntity
  8
側板
  6
Continuous
 62
   120
370
     5
100
AcDbCircle
 10
4584.844944068396
 20
-7648.836319956456
 30
0.0
 40
12.5
  0
CIRCLE
  5
286
330
1F
100
AcDbEntity
  8
側板
  6
Continuous
 62
   120
370
     5
100
AcDbCircle
 10
4584.844944068396
 20
-7808.836319956458
 30
0.0
 40
12.5
  0
CIRCLE
  5
287
330
1F
100
AcDbEntity
  8
側板
  6
Continuous
 62
   120
370
     5
100
AcDbCircle
 10
4584.844944068396
 20
-7968.836319956461
 30
0.0
 40
12.5
  0
CIRCLE
  5
288
330
1F
100
AcDbEntity
  8
側板
  6
Continuous
 62
   120
370
     5
100
AcDbCircle
 10
4584.844944068396
 20
-8128.836319956452
 30
0.0
 40
12.5
  0
CIRCLE
  5
289
330
1F
100
AcDbEntity
  8
側板
  6
Continuous
 62
   120
370
     5
100
AcDbCircle
 10
3489.844944068392
 20
-6528.836319956543
 30
0.0
 40
12.5
  0
CIRCLE
  5
28A
330
1F
100
AcDbEntity
  8
側板
  6
Continuous
 62
   120
370
     5
100
AcDbCircle
 10
3489.844944068392
 20
-6368.836319956552
 30
0.0
 40
12.5
  0
CIRCLE
  5
28B
330
1F
100
AcDbEntity
  8
側板
  6
Continuous
 62
   120
370
     5
100
AcDbCircle
 10
3489.844944068392
 20
-8288.836319956545
 30
0.0
 40
12.5
  0
CIRCLE
  5
28C
330
1F
100
AcDbEntity
  8
側板
  6
Continuous
 62
   120
370
     5
100
AcDbCircle
 10
3489.844944068392
 20
-8128.836319956543
 30
0.0
 40
12.5
  0
LINE
  5
28D
330
1F
100
AcDbEntity
  8
側板
  6
Continuous
 62
    92
370
    13
100
AcDbLine
 10
4889.844944068392
 20
-8556.33631995654
 30
0.0
 11
4889.844944068392
 21
1258.663680043469
 31
0.0
  0
LINE
  5
28E
330
1F
100
AcDbEntity
  8
側板
  6
Continuous
 62
    92
370
    13
100
AcDbLine
 10
2639.844944068392
 20
1258.663680043469
 30
0.0
 11
2639.844944068392
 21
-8556.33631995654
 31
0.0
  0
LINE
  5
28F
330
1F
100
AcDbEntity
  8
側板
  6
Continuous
 62
    92
370
    13
100
AcDbLine
 10
2639.844944068392
 20
-8556.33631995654
 30
0.0
 11
4889.844944068392
 21
-8556.33631995654
 31
0.0
  0
LINE
  5
290
330
1F
100
AcDbEntity
  8
側板
  6
Continuous
 62
    92
370
    13
100
AcDbLine
 10
4889.844944068392
 20
1258.663680043469
 30
0.0
 11
2639.844944068392
 21
1258.663680043469
 31
0.0
  0
TEXT
  5
291
330
1F
100
AcDbEntity
  8
0-E
  6
Continuous
 62
     9
370
     5
100
AcDbText
 10
2707.344944712946
 20
-7364.736318617982
 30
0.0
 40
76.2
  1
6
  7
ＭＳ ゴシック
100
AcDbText
  0
LINE
  5
292
330
1F
100
AcDbEntity
  8
0-A_文字
  6
Continuous
 62
     7
370
     9
100
AcDbLine
 10
4832.846937774497
 20
-8437.067467678697
 30
0.0
 11
4365.951467786653
 21
-7628.380791836003
 31
0.0
  0
LINE
  5
293
330
1F
100
AcDbEntity
  8
0-A_文字
  6
Continuous
 62
     7
370
     9
100
AcDbLine
 10
4365.951467786653
 20
-7628.380791836003
 30
0.0
 11
3735.814151001472
 21
-7628.380791836003
 31
0.0
  0
LINE
  5
294
330
1F
100
AcDbEntity
  8
0-A_文字
  6
Continuous
 62
     7
370
     9
100
AcDbLine
 10
4423.11213263527
 20
1791.619206825442
 30
0.0
 11
3792.974815850079
 21
1791.619206825442
 31
0.0
  0
LINE
  5
295
330
1F
100
AcDbEntity
  8
0-A_文字
  6
Continuous
 62
     7
370
     9
100
AcDbLine
 10
4856.478538552614
 20
1041.006573483082
 30
0.0
 11
4423.11213263527
 21
1791.619206825442
 31
0.0
  0
LINE
  5
296
330
1F
100
AcDbEntity
  8
0-B_寸法
  6
Continuous
 62
   120
370
     5
100
AcDbLine
 10
4814.844944469968
 20
-7756.336321295089
 30
0.0
 11
4889.844944469968
 21
-7756.336321295089
 31
0.0
  0
LWPOLYLINE
  5
297
330
1F
100
AcDbEntity
  8
0-B_寸法
  6
Continuous
 62
     7
370
     9
100
AcDbPolyline
 90
        4
 70
     1
 43
20.0
 10
4824.844944469968
 20
-7756.336321295089
 42
0.4142135623731
 10
4814.844944469968
 20
-7746.33632129509
 42
0.4142135623731
 10
4804.844944469968
 20
-7756.336321295089
 42
0.4142135623731
 10
4814.844944469968
 20
-7766.336321295088
 42
0.4142135623731
  0
LWPOLYLINE
  5
298
330
1F
100
AcDbEntity
  8
0-B_寸法
  6
Continuous
 62
     7
370
     9
100
AcDbPolyline
 90
        4
 70
     1
 43
20.0
 10
4899.844944469968
 20
-7756.336321295089
 42
0.4142135623731
 10
4889.844944469968
 20
-7746.33632129509
 42
0.4142135623731
 10
4879.844944469968
 20
-7756.336321295089
 42
0.4142135623731
 10
4889.844944469968
 20
-7766.336321295088
 42
0.4142135623731
  0
LINE
  5
299
330
1F
100
AcDbEntity
  8
0-B_寸法
  6
Continuous
 62
   120
370
     5
100
AcDbLine
 10
4814.844944469968
 20
-7756.336321295089
 30
0.0
 11
4814.844944469968
 21
-8006.336321295089
 31
0.0
  0
LINE
  5
29A
330
1F
100
AcDbEntity
  8
0-B_寸法
  6
Continuous
 62
   120
370
     5
100
AcDbLine
 10
4889.844944469968
 20
-7756.336321295089
 30
0.0
 11
4889.844944469968
 21
-8006.336321295089
 31
0.0
  0
LINE
  5
29B
330
1F
100
AcDbEntity
  8
0-B_寸法
  6
Continuous
 62
   120
370
     5
100
AcDbLine
 10
4814.844944259079
 20
458.663680043469
 30
0.0
 11
4889.844944259079
 21
458.663680043469
 31
0.0
  0
LWPOLYLINE
  5
29C
330
1F
100
AcDbEntity
  8
0-B_寸法
  6
Continuous
 62
     7
370
     9
100
AcDbPolyline
 90
        4
 70
     1
 43
20.0
 10
4824.844944259079
 20
458.663680043469
 42
0.4142135623731
 10
4814.844944259079
 20
468.6636800434689
 42
0.4142135623731
 10
4804.844944259079
 20
458.663680043469
 42
0.4142135623731
 10
4814.844944259079
 20
448.663680043469
 42
0.4142135623731
  0
LWPOLYLINE
  5
29D
330
1F
100
AcDbEntity
  8
0-B_寸法
  6
Continuous
 62
     7
370
     9
100
AcDbPolyline
 90
        4
 70
     1
 43
20.0
 10
4899.844944259079
 20
458.663680043469
 42
0.4142135623731
 10
4889.844944259079
 20
468.6636800434689
 42
0.4142135623731
 10
4879.844944259079
 20
458.663680043469
 42
0.4142135623731
 10
4889.844944259079
 20
448.663680043469
 42
0.4142135623731
  0
LINE
  5
29E
330
1F
100
AcDbEntity
  8
0-B_寸法
  6
Continuous
 62
   120
370
     5
100
AcDbLine
 10
4814.844944259079
 20
458.663680043469
 30
0.0
 11
4814.844944259079
 21
708.663680043469
 31
0.0
  0
LINE
  5
29F
330
1F
100
AcDbEntity
  8
0-B_寸法
  6
Continuous
 62
   120
370
     5
100
AcDbLine
 10
4889.844944259079
 20
458.663680043469
 30
0.0
 11
4889.844944259079
 21
708.663680043469
 31
0.0
  0
TEXT
  5
2A0
330
1F
100
AcDbEntity
  8
0-E
  6
Continuous
 62
     9
370
     5
100
AcDbText
 10
2707.344944712946
 20
-7524.736318617985
 30
0.0
 40
76.2
  1
5
  7
ＭＳ ゴシック
100
AcDbText
  0
LINE
  5
2A1
330
1F
100
AcDbEntity
  8
0-B_寸法
  6
Continuous
 62
   120
370
     5
100
AcDbLine
 10
4264.844944469968
 20
-8256.33632129509
 30
0.0
 11
4264.844944469968
 21
-8556.33632129509
 31
0.0
  0
LWPOLYLINE
  5
2A2
330
1F
100
AcDbEntity
  8
0-B_寸法
  6
Continuous
 62
     7
370
     9
100
AcDbPolyline
 90
        4
 70
     1
 43
20.0
 10
4274.844944469968
 20
-8256.33632129509
 42
0.4142135623731
 10
4264.844944469968
 20
-8246.33632129509
 42
0.4142135623731
 10
4254.844944469968
 20
-8256.33632129509
 42
0.4142135623731
 10
4264.844944469968
 20
-8266.336321295088
 42
0.4142135623731
  0
LWPOLYLINE
  5
2A3
330
1F
100
AcDbEntity
  8
0-B_寸法
  6
Continuous
 62
     7
370
     9
100
AcDbPolyline
 90
        4
 70
     1
 43
20.0
 10
4274.844944469968
 20
-8556.33632129509
 42
0.4142135623731
 10
4264.844944469968
 20
-8546.33632129509
 42
0.4142135623731
 10
4254.844944469968
 20
-8556.33632129509
 42
0.4142135623731
 10
4264.844944469968
 20
-8566.336321295088
 42
0.4142135623731
  0
LINE
  5
2A4
330
1F
100
AcDbEntity
  8
0-B_寸法
  6
Continuous
 62
   120
370
     5
100
AcDbLine
 10
4264.844944469968
 20
-8256.33632129509
 30
0.0
 11
4514.844944469968
 21
-8256.33632129509
 31
0.0
  0
LINE
  5
2A5
330
1F
100
AcDbEntity
  8
0-B_寸法
  6
Continuous
 62
   120
370
     5
100
AcDbLine
 10
4264.844944469968
 20
-8556.33632129509
 30
0.0
 11
4514.844944469968
 21
-8556.33632129509
 31
0.0
  0
LINE
  5
2A6
330
1F
100
AcDbEntity
  8
0-B_寸法
  6
Continuous
 62
   120
370
     5
100
AcDbLine
 10
4264.844944259079
 20
1258.663680043469
 30
0.0
 11
4264.844944259079
 21
958.663680043469
 31
0.0
  0
LWPOLYLINE
  5
2A7
330
1F
100
AcDbEntity
  8
0-B_寸法
  6
Continuous
 62
     7
370
     9
100
AcDbPolyline
 90
        4
 70
     1
 43
20.0
 10
4274.844944259079
 20
1258.663680043469
 42
0.4142135623731
 10
4264.844944259079
 20
1268.663680043469
 42
0.4142135623731
 10
4254.844944259079
 20
1258.663680043469
 42
0.4142135623731
 10
4264.844944259079
 20
1248.663680043469
 42
0.4142135623731
  0
LWPOLYLINE
  5
2A8
330
1F
100
AcDbEntity
  8
0-B_寸法
  6
Continuous
 62
     7
370
     9
100
AcDbPolyline
 90
        4
 70
     1
 43
20.0
 10
4274.844944259079
 20
958.663680043469
 42
0.4142135623731
 10
4264.844944259079
 20
968.663680043469
 42
0.4142135623731
 10
4254.844944259079
 20
958.663680043469
 42
0.4142135623731
 10
4264.844944259079
 20
948.663680043469
 42
0.4142135623731
  0
LINE
  5
2A9
330
1F
100
AcDbEntity
  8
0-B_寸法
  6
Continuous
 62
   120
370
     5
100
AcDbLine
 10
4264.844944259079
 20
1258.663680043469
 30
0.0
 11
4514.844944259079
 21
1258.663680043469
 31
0.0
  0
LINE
  5
2AA
330
1F
100
AcDbEntity
  8
0-B_寸法
  6
Continuous
 62
   120
370
     5
100
AcDbLine
 10
4264.844944259079
 20
958.663680043469
 30
0.0
 11
4514.844944259079
 21
958.663680043469
 31
0.0
  0
TEXT
  5
2AB
330
1F
100
AcDbEntity
  8
0-E
  6
Continuous
 62
     9
370
     5
100
AcDbText
 10
2707.344944712946
 20
-7684.736318617986
 30
0.0
 40
76.2
  1
4
  7
ＭＳ ゴシック
100
AcDbText
  0
LINE
  5
2AC
330
1F
100
AcDbEntity
  8
引き出し
  6
Continuous
 62
    92
370
    13
100
AcDbLine
 10
4889.844944469968
 20
-8556.33631995654
 30
0.0
 11
5039.844944469968
 21
-8556.33631995654
 31
0.0
  0
LINE
  5
2AD
330
1F
100
AcDbEntity
  8
引き出し
  6
Continuous
 62
    92
370
    13
100
AcDbLine
 10
4889.844944469968
 20
-8056.33631995654
 30
0.0
 11
4889.844944469968
 21
-8556.33631995654
 31
0.0
  0
LINE
  5
2AE
330
1F
100
AcDbEntity
  8
引き出し
  6
Continuous
 62
    92
370
    13
100
AcDbLine
 10
5039.844944469968
 20
-8056.33631995654
 30
0.0
 11
4889.844944469968
 21
-8056.33631995654
 31
0.0
  0
LINE
  5
2AF
330
1F
100
AcDbEntity
  8
引き出し
  6
Continuous
 62
    92
370
    13
100
AcDbLine
 10
5039.844944469968
 20
-8556.33631995654
 30
0.0
 11
5039.844944469968
 21
-8056.33631995654
 31
0.0
  0
LINE
  5
2B0
330
1F
100
AcDbEntity
  8
引き出し
  6
Continuous
 62
     7
370
     9
100
AcDbLine
 10
4889.844944469968
 20
-8556.33631995654
 30
0.0
 11
5039.844944469968
 21
-8056.33631995654
 31
0.0
  0
LINE
  5
2B1
330
1F
100
AcDbEntity
  8
引き出し
  6
Continuous
 62
     7
370
     9
100
AcDbLine
 10
4889.844944469968
 20
-8056.33631995654
 30
0.0
 11
5039.844944469968
 21
-8556.33631995654
 31
0.0
  0
LINE
  5
2B2
330
1F
100
AcDbEntity
  8
引き出し
  6
Continuous
 62
    92
370
    13
100
AcDbLine
 10
4889.844944469968
 20
863.6636787049042
 30
0.0
 11
5039.844944469968
 21
863.6636787049042
 31
0.0
  0
LINE
  5
2B3
330
1F
100
AcDbEntity
  8
引き出し
  6
Continuous
 62
    92
370
    13
100
AcDbLine
 10
4889.844944469968
 20
1363.663678704904
 30
0.0
 11
4889.844944469968
 21
863.6636787049042
 31
0.0
  0
LINE
  5
2B4
330
1F
100
AcDbEntity
  8
引き出し
  6
Continuous
 62
    92
370
    13
100
AcDbLine
 10
5039.844944469968
 20
1363.663678704904
 30
0.0
 11
4889.844944469968
 21
1363.663678704904
 31
0.0
  0
LINE
  5
2B5
330
1F
100
AcDbEntity
  8
引き出し
  6
Continuous
 62
    92
370
    13
100
AcDbLine
 10
5039.844944469968
 20
863.6636787049042
 30
0.0
 11
5039.844944469968
 21
1363.663678704904
 31
0.0
  0
LINE
  5
2B6
330
1F
100
AcDbEntity
  8
引き出し
  6
Continuous
 62
     7
370
     9
100
AcDbLine
 10
4889.844944469968
 20
863.6636787049042
 30
0.0
 11
5039.844944469968
 21
1363.663678704904
 31
0.0
  0
LINE
  5
2B7
330
1F
100
AcDbEntity
  8
引き出し
  6
Continuous
 62
     7
370
     9
100
AcDbLine
 10
4889.844944469968
 20
1363.663678704904
 30
0.0
 11
5039.844944469968
 21
863.6636787049042
 31
0.0
  0
LINE
  5
2B8
330
1F
100
AcDbEntity
  8
引き出し
  6
Continuous
 62
    92
370
    13
100
AcDbLine
 10
4889.844944469968
 20
-3906.33631995654
 30
0.0
 11
5039.844944469968
 21
-3906.33631995654
 31
0.0
  0
LINE
  5
2B9
330
1F
100
AcDbEntity
  8
引き出し
  6
Continuous
 62
    92
370
    13
100
AcDbLine
 10
4889.844944469968
 20
-3406.33631995654
 30
0.0
 11
4889.844944469968
 21
-3906.33631995654
 31
0.0
  0
LINE
  5
2BA
330
1F
100
AcDbEntity
  8
引き出し
  6
Continuous
 62
    92
370
    13
100
AcDbLine
 10
5039.844944469968
 20
-3406.33631995654
 30
0.0
 11
4889.844944469968
 21
-3406.33631995654
 31
0.0
  0
LINE
  5
2BB
330
1F
100
AcDbEntity
  8
引き出し
  6
Continuous
 62
    92
370
    13
100
AcDbLine
 10
5039.844944469968
 20
-3906.33631995654
 30
0.0
 11
5039.844944469968
 21
-3406.33631995654
 31
0.0
  0
LINE
  5
2BC
330
1F
100
AcDbEntity
  8
引き出し
  6
Continuous
 62
     7
370
     9
100
AcDbLine
 10
4889.844944469968
 20
-3906.33631995654
 30
0.0
 11
5039.844944469968
 21
-3406.33631995654
 31
0.0
  0
LINE
  5
2BD
330
1F
100
AcDbEntity
  8
引き出し
  6
Continuous
 62
     7
370
     9
100
AcDbLine
 10
4889.844944469968
 20
-3406.33631995654
 30
0.0
 11
5039.844944469968
 21
-3906.33631995654
 31
0.0
  0
LINE
  5
2BE
330
1F
100
AcDbEntity
  8
0-0_補助線
  6
JWW_HOJO
 62
   120
370
     5
100
AcDbLine
 10
5289.844944469956
 20
-8806.33631995654
 30
0.0
 11
2389.844944068392
 21
-8806.33631995654
 31
0.0
  0
LINE
  5
2BF
330
1F
100
AcDbEntity
  8
0-0_補助線
  6
JWW_HOJO
 62
   120
370
     5
100
AcDbLine
 10
5289.844944469956
 20
-9556.33631995654
 30
0.0
 11
2389.844944068392
 21
-9556.33631995654
 31
0.0
  0
TEXT
  5
2C0
330
1F
100
AcDbEntity
  8
0-E
  6
Continuous
 62
     9
370
     5
100
AcDbText
 10
2707.344944712946
 20
-7844.736318617977
 30
0.0
 40
76.2
  1
3
  7
ＭＳ ゴシック
100
AcDbText
  0
LINE
  5
2C1
330
1F
100
AcDbEntity
  8
0-0_補助線
  6
JWW_HOJO
 62
   120
370
     5
100
AcDbLine
 10
1639.844944068392
 20
-10056.33631995653
 30
0.0
 11
6039.844944469956
 21
-10056.33631995653
 31
0.0
  0
LINE
  5
2C2
330
1F
100
AcDbEntity
  8
0-A_文字
  6
Continuous
 62
     7
370
     9
100
AcDbLine
 10
5286.925183831539
 20
-7628.380791836003
 30
0.0
 11
5917.062500616731
 21
-7628.380791836003
 31
0.0
  0
LINE
  5
2C3
330
1F
100
AcDbEntity
  8
0-A_文字
  6
Continuous
 62
     7
370
     9
100
AcDbLine
 10
5039.844944469968
 20
-8056.33631995654
 30
0.0
 11
5286.925183831539
 21
-7628.380791836003
 31
0.0
  0
LWPOLYLINE
  5
2C4
330
1F
100
AcDbEntity
  8
0-B_寸法
  6
Continuous
 62
     7
370
     9
100
AcDbPolyline
 90
        4
 70
     1
 43
20.0
 10
4899.844944279281
 20
2363.663678704904
 42
0.4142135623731
 10
4889.844944279281
 20
2373.663678704904
 42
0.4142135623731
 10
4879.844944279281
 20
2363.663678704904
 42
0.4142135623731
 10
4889.844944279281
 20
2353.663678704904
 42
0.4142135623731
  0
LINE
  5
2C5
330
1F
100
AcDbEntity
  8
0-B_寸法
  6
Continuous
 62
   120
370
     5
100
AcDbLine
 10
4889.844944279281
 20
2363.663678704904
 30
0.0
 11
4889.844944279281
 21
1613.663678704904
 31
0.0
  0
LWPOLYLINE
  5
2C6
330
1F
100
AcDbEntity
  8
0-B_寸法
  6
Continuous
 62
     7
370
     9
100
AcDbPolyline
 90
        4
 70
     1
 43
20.0
 10
2649.844944279281
 20
2363.663678704904
 42
0.4142135623731
 10
2639.844944279281
 20
2373.663678704904
 42
0.4142135623731
 10
2629.844944279281
 20
2363.663678704904
 42
0.4142135623731
 10
2639.844944279281
 20
2353.663678704904
 42
0.4142135623731
  0
LWPOLYLINE
  5
2C7
330
1F
100
AcDbEntity
  8
0-B_寸法
  6
Continuous
 62
     7
370
     9
100
AcDbPolyline
 90
        4
 70
     1
 43
20.0
 10
2834.844944279283
 20
2363.663678704904
 42
0.4142135623731
 10
2824.844944279283
 20
2373.663678704904
 42
0.4142135623731
 10
2814.844944279283
 20
2363.663678704904
 42
0.4142135623731
 10
2824.844944279283
 20
2353.663678704904
 42
0.4142135623731
  0
LINE
  5
2C8
330
1F
100
AcDbEntity
  8
0-B_寸法
  6
Continuous
 62
   120
370
     5
100
AcDbLine
 10
2639.844944279281
 20
2363.663678704904
 30
0.0
 11
2639.844944279281
 21
1613.663678704904
 31
0.0
  0
LINE
  5
2C9
330
1F
100
AcDbEntity
  8
0-B_寸法
  6
Continuous
 62
   120
370
     5
100
AcDbLine
 10
2824.844944279283
 20
2363.663678704904
 30
0.0
 11
2824.844944279283
 21
1613.663678704904
 31
0.0
  0
TEXT
  5
2CA
330
1F
100
AcDbEntity
  8
0-E
  6
Continuous
 62
     9
370
     5
100
AcDbText
 10
2707.344944712946
 20
-8004.736318617979
 30
0.0
 40
76.2
  1
2
  7
ＭＳ ゴシック
100
AcDbText
  0
LINE
  5
2CB
330
1F
100
AcDbEntity
  8
0-B_寸法
  6
Continuous
 62
   120
370
     5
100
AcDbLine
 10
2639.844944279281
 20
2363.663678704904
 30
0.0
 11
4889.844944279281
 21
2363.663678704904
 31
0.0
  0
LWPOLYLINE
  5
2CC
330
1F
100
AcDbEntity
  8
0-B_寸法
  6
Continuous
 62
     7
370
     9
100
AcDbPolyline
 90
        4
 70
     1
 43
20.0
 10
4594.844944279285
 20
2363.663678704904
 42
0.4142135623731
 10
4584.844944279285
 20
2373.663678704904
 42
0.4142135623731
 10
4574.844944279285
 20
2363.663678704904
 42
0.4142135623731
 10
4584.844944279285
 20
2353.663678704904
 42
0.4142135623731
  0
LINE
  5
2CD
330
1F
100
AcDbEntity
  8
0-B_寸法
  6
Continuous
 62
   120
370
     5
100
AcDbLine
 10
4584.844944279285
 20
2363.663678704904
 30
0.0
 11
4584.844944279285
 21
1613.663678704904
 31
0.0
  0
TEXT
  5
2CE
330
1F
100
AcDbEntity
  8
0-E
  6
Continuous
 62
     9
370
     5
100
AcDbText
 10
2707.344944712946
 20
-8164.736318617982
 30
0.0
 40
76.2
  1
1
  7
ＭＳ ゴシック
100
AcDbText
  0
LINE
  5
2CF
330
1F
100
AcDbEntity
  8
0-0_補助線
  6
JWW_HOJO
 62
   120
370
     5
100
AcDbLine
 10
2389.844944068392
 20
1613.663678704904
 30
0.0
 11
2389.844944068392
 21
-9556.33631995654
 31
0.0
  0
LINE
  5
2D0
330
1F
100
AcDbEntity
  8
0-0_補助線
  6
JWW_HOJO
 62
   120
370
     5
100
AcDbLine
 10
1639.844944068392
 20
2363.663678704904
 30
0.0
 11
1639.844944068392
 21
-10056.33631995653
 31
0.0
  0
LINE
  5
2D1
330
1F
100
AcDbEntity
  8
0-0_補助線
  6
JWW_HOJO
 62
   120
370
     5
100
AcDbLine
 10
989.8449440683919
 20
-10556.33631995653
 30
0.0
 11
989.8449440683919
 21
2863.663678704904
 31
0.0
  0
LINE
  5
2D2
330
1F
100
AcDbEntity
  8
0-0_補助線
  6
JWW_HOJO
 62
   120
370
     5
100
AcDbLine
 10
2389.844944068392
 20
1613.663678704904
 30
0.0
 11
5289.844944469956
 21
1613.663678704904
 31
0.0
  0
LINE
  5
2D3
330
1F
100
AcDbEntity
  8
0-0_補助線
  6
JWW_HOJO
 62
   120
370
     5
100
AcDbLine
 10
5289.844944469956
 20
1613.663678704904
 30
0.0
 11
5289.844944469956
 21
-9556.33631995654
 31
0.0
  0
LINE
  5
2D4
330
1F
100
AcDbEntity
  8
0-0_補助線
  6
JWW_HOJO
 62
   120
370
     5
100
AcDbLine
 10
1639.844944068392
 20
2363.663678704904
 30
0.0
 11
6039.844944469956
 21
2363.663678704904
 31
0.0
  0
LINE
  5
2D5
330
1F
100
AcDbEntity
  8
0-0_補助線
  6
JWW_HOJO
 62
   120
370
     5
100
AcDbLine
 10
6039.844944469956
 20
2363.663678704904
 30
0.0
 11
6039.844944469956
 21
-10056.33631995653
 31
0.0
  0
TEXT
  5
2D6
330
1F
100
AcDbEntity
  8
0-B_寸法
  6
Continuous
 62
     7
370
   211
100
AcDbText
 10
5983.444944469969
 20
788.6636787049042
 30
0.0
 40
304.8
  1
100
 50
90.0
 41
1.083333333333333
  7
ＭＳ ゴシック
100
AcDbText
  0
TEXT
  5
2D7
330
1F
100
AcDbEntity
  8
0-B_寸法
  6
Continuous
 62
     7
370
   211
100
AcDbText
 10
5983.444944469969
 20
-3981.33631995654
 30
0.0
 40
304.8
  1
100
 50
90.0
 41
1.083333333333333
  7
ＭＳ ゴシック
100
AcDbText
  0
TEXT
  5
2D8
330
1F
100
AcDbEntity
  8
0-B_寸法
  6
Continuous
 62
     7
370
   211
100
AcDbText
 10
7266.833459531827
 20
-4198.836319956541
 30
0.0
 40
304.8
  1
1,963
 50
90.0
 41
1.1
  7
ＭＳ ゴシック
100
AcDbText
  0
TEXT
  5
2D9
330
1F
100
AcDbEntity
  8
0-B_寸法
  6
Continuous
 62
     7
370
   211
100
AcDbText
 10
5983.444944469969
 20
-6306.33631995654
 30
0.0
 40
304.8
  1
830
 50
90.0
 41
1.083333333333333
  7
ＭＳ ゴシック
100
AcDbText
  0
TEXT
  5
2DA
330
1F
100
AcDbEntity
  8
0-B_寸法
  6
Continuous
 62
     7
370
   211
100
AcDbText
 10
6633.444944469969
 20
-6531.33631995654
 30
0.0
 40
304.8
  1
1,030
 50
90.0
 41
1.1
  7
ＭＳ ゴシック
100
AcDbText
  0
TEXT
  5
2DB
330
1F
100
AcDbEntity
  8
0-B_寸法
  6
Continuous
 62
     7
370
   211
100
AcDbText
 10
5983.444944469969
 20
-8631.33631995654
 30
0.0
 40
304.8
  1
100
 50
90.0
 41
1.083333333333333
  7
ＭＳ ゴシック
100
AcDbText
  0
LINE
  5
2DC
330
1F
100
AcDbEntity
  8
0-B_寸法
  6
Continuous
 62
   120
370
     5
100
AcDbLine
 10
6039.844944469968
 20
-8556.33631995654
 30
0.0
 11
6039.844944469968
 21
-8056.336319956542
 31
0.0
  0
LWPOLYLINE
  5
2DD
330
1F
100
AcDbEntity
  8
0-B_寸法
  6
Continuous
 62
     7
370
     9
100
AcDbPolyline
 90
        4
 70
     1
 43
20.0
 10
6049.844944469968
 20
-8556.33631995654
 42
0.4142135623731
 10
6039.844944469968
 20
-8546.336319956541
 42
0.4142135623731
 10
6029.844944469968
 20
-8556.33631995654
 42
0.4142135623731
 10
6039.844944469968
 20
-8566.33631995654
 42
0.4142135623731
  0
LWPOLYLINE
  5
2DE
330
1F
100
AcDbEntity
  8
0-B_寸法
  6
Continuous
 62
     7
370
     9
100
AcDbPolyline
 90
        4
 70
     1
 43
20.0
 10
6049.844944469968
 20
-8056.336319956542
 42
0.4142135623731
 10
6039.844944469968
 20
-8046.336319956542
 42
0.4142135623731
 10
6029.844944469968
 20
-8056.336319956542
 42
0.4142135623731
 10
6039.844944469968
 20
-8066.336319956541
 42
0.4142135623731
  0
LINE
  5
2DF
330
1F
100
AcDbEntity
  8
0-B_寸法
  6
Continuous
 62
   120
370
     5
100
AcDbLine
 10
6039.844944469968
 20
-8056.336319956542
 30
0.0
 11
5289.844944469968
 21
-8056.336319956542
 31
0.0
  0
LINE
  5
2E0
330
1F
100
AcDbEntity
  8
0-B_寸法
  6
Continuous
 62
   120
370
     5
100
AcDbLine
 10
6039.844944469968
 20
-8056.336319956542
 30
0.0
 11
6039.844944469968
 21
-3906.336319956543
 31
0.0
  0
LWPOLYLINE
  5
2E1
330
1F
100
AcDbEntity
  8
0-B_寸法
  6
Continuous
 62
     7
370
     9
100
AcDbPolyline
 90
        4
 70
     1
 43
20.0
 10
6049.844944469968
 20
-3906.336319956543
 42
0.4142135623731
 10
6039.844944469968
 20
-3896.336319956543
 42
0.4142135623731
 10
6029.844944469968
 20
-3906.336319956543
 42
0.4142135623731
 10
6039.844944469968
 20
-3916.336319956543
 42
0.4142135623731
  0
LINE
  5
2E2
330
1F
100
AcDbEntity
  8
0-B_寸法
  6
Continuous
 62
   120
370
     5
100
AcDbLine
 10
6039.844944469968
 20
-3906.336319956543
 30
0.0
 11
5289.844944469968
 21
-3906.336319956543
 31
0.0
  0
LINE
  5
2E3
330
1F
100
AcDbEntity
  8
0-B_寸法
  6
Continuous
 62
   120
370
     5
100
AcDbLine
 10
6039.844944469968
 20
-3906.336319956543
 30
0.0
 11
6039.844944469968
 21
-3406.336319956542
 31
0.0
  0
LWPOLYLINE
  5
2E4
330
1F
100
AcDbEntity
  8
0-B_寸法
  6
Continuous
 62
     7
370
     9
100
AcDbPolyline
 90
        4
 70
     1
 43
20.0
 10
6049.844944469968
 20
-3406.336319956542
 42
0.4142135623731
 10
6039.844944469968
 20
-3396.336319956542
 42
0.4142135623731
 10
6029.844944469968
 20
-3406.336319956542
 42
0.4142135623731
 10
6039.844944469968
 20
-3416.336319956542
 42
0.4142135623731
  0
LINE
  5
2E5
330
1F
100
AcDbEntity
  8
0-B_寸法
  6
Continuous
 62
   120
370
     5
100
AcDbLine
 10
6039.844944469968
 20
1363.663678704904
 30
0.0
 11
6039.844944469968
 21
863.6636787049042
 31
0.0
  0
LWPOLYLINE
  5
2E6
330
1F
100
AcDbEntity
  8
0-B_寸法
  6
Continuous
 62
     7
370
     9
100
AcDbPolyline
 90
        4
 70
     1
 43
20.0
 10
6049.844944469968
 20
1363.663678704904
 42
0.4142135623731
 10
6039.844944469968
 20
1373.663678704904
 42
0.4142135623731
 10
6029.844944469968
 20
1363.663678704904
 42
0.4142135623731
 10
6039.844944469968
 20
1353.663678704904
 42
0.4142135623731
  0
LWPOLYLINE
  5
2E7
330
1F
100
AcDbEntity
  8
0-B_寸法
  6
Continuous
 62
     7
370
     9
100
AcDbPolyline
 90
        4
 70
     1
 43
20.0
 10
6049.844944469968
 20
863.6636787049042
 42
0.4142135623731
 10
6039.844944469968
 20
873.6636787049042
 42
0.4142135623731
 10
6029.844944469968
 20
863.6636787049042
 42
0.4142135623731
 10
6039.844944469968
 20
853.6636787049042
 42
0.4142135623731
  0
LINE
  5
2E8
330
1F
100
AcDbEntity
  8
0-B_寸法
  6
Continuous
 62
   120
370
     5
100
AcDbLine
 10
6039.844944469968
 20
1363.663678704904
 30
0.0
 11
5289.844944469968
 21
1363.663678704904
 31
0.0
  0
LINE
  5
2E9
330
1F
100
AcDbEntity
  8
0-B_寸法
  6
Continuous
 62
   120
370
     5
100
AcDbLine
 10
6039.844944469968
 20
863.6636787049042
 30
0.0
 11
5289.844944469968
 21
863.6636787049042
 31
0.0
  0
LINE
  5
2EA
330
1F
100
AcDbEntity
  8
0-B_寸法
  6
Continuous
 62
   120
370
     5
100
AcDbLine
 10
6689.844944469968
 20
-3406.336319956542
 30
0.0
 11
5289.844944469968
 21
-3406.336319956542
 31
0.0
  0
LINE
  5
2EB
330
1F
100
AcDbEntity
  8
0-B_寸法
  6
Continuous
 62
   120
370
     5
100
AcDbLine
 10
6689.844944469968
 20
-8556.33631995654
 30
0.0
 11
6689.844944469968
 21
-3406.336319956542
 31
0.0
  0
LWPOLYLINE
  5
2EC
330
1F
100
AcDbEntity
  8
0-B_寸法
  6
Continuous
 62
     7
370
     9
100
AcDbPolyline
 90
        4
 70
     1
 43
20.0
 10
6699.844944469967
 20
-8556.33631995654
 42
0.4142135623731
 10
6689.844944469968
 20
-8546.336319956541
 42
0.4142135623731
 10
6679.844944469968
 20
-8556.33631995654
 42
0.4142135623731
 10
6689.844944469968
 20
-8566.33631995654
 42
0.4142135623731
  0
LWPOLYLINE
  5
2ED
330
1F
100
AcDbEntity
  8
0-B_寸法
  6
Continuous
 62
     7
370
     9
100
AcDbPolyline
 90
        4
 70
     1
 43
20.0
 10
6699.844944469967
 20
-3406.336319956542
 42
0.4142135623731
 10
6689.844944469968
 20
-3396.336319956542
 42
0.4142135623731
 10
6679.844944469968
 20
-3406.336319956542
 42
0.4142135623731
 10
6689.844944469968
 20
-3416.336319956542
 42
0.4142135623731
  0
LINE
  5
2EE
330
1F
100
AcDbEntity
  8
0-B_寸法
  6
Continuous
 62
   120
370
     5
100
AcDbLine
 10
7339.844944469968
 20
1258.663680043463
 30
0.0
 11
7339.844944469968
 21
-8556.33631995654
 31
0.0
  0
LWPOLYLINE
  5
2EF
330
1F
100
AcDbEntity
  8
0-B_寸法
  6
Continuous
 62
     7
370
     9
100
AcDbPolyline
 90
        4
 70
     1
 43
20.0
 10
7349.844944469967
 20
1258.663680043463
 42
0.4142135623731
 10
7339.844944469968
 20
1268.663680043463
 42
0.4142135623731
 10
7329.844944469968
 20
1258.663680043463
 42
0.4142135623731
 10
7339.844944469968
 20
1248.663680043463
 42
0.4142135623731
  0
LWPOLYLINE
  5
2F0
330
1F
100
AcDbEntity
  8
0-B_寸法
  6
Continuous
 62
     7
370
     9
100
AcDbPolyline
 90
        4
 70
     1
 43
20.0
 10
7349.844944469967
 20
-8556.33631995654
 42
0.4142135623731
 10
7339.844944469968
 20
-8546.336319956541
 42
0.4142135623731
 10
7329.844944469968
 20
-8556.33631995654
 42
0.4142135623731
 10
7339.844944469968
 20
-8566.33631995654
 42
0.4142135623731
  0
LINE
  5
2F1
330
1F
100
AcDbEntity
  8
0-B_寸法
  6
Continuous
 62
   120
370
     5
100
AcDbLine
 10
7339.844944469968
 20
-8556.33631995654
 30
0.0
 11
5289.844944469968
 21
-8556.33631995654
 31
0.0
  0
LINE
  5
2F2
330
1F
100
AcDbEntity
  8
0-B_寸法
  6
Continuous
 62
   120
370
     5
100
AcDbLine
 10
7339.844944469968
 20
1258.663680043463
 30
0.0
 11
6039.844944469968
 21
1258.663680043463
 31
0.0
  0
LINE
  5
2F3
330
1F
100
AcDbEntity
  8
0-B_寸法
  6
JWW_DASHED2
 62
   120
370
     5
100
AcDbLine
 10
4889.844944469968
 20
1363.663678704904
 30
0.0
 11
-7705.155055530031
 21
1363.663678704904
 31
0.0
  0
LINE
  5
2F4
330
1F
100
AcDbEntity
  8
0-B_寸法
  6
JWW_DASHED2
 62
   120
370
     5
100
AcDbLine
 10
4889.844944469968
 20
-8556.33631995654
 30
0.0
 11
-7705.155055530031
 21
-8556.33631995654
 31
0.0
  0
LINE
  5
2F5
330
1F
100
AcDbEntity
  8
0-B_寸法
  6
JWW_DASHED2
 62
   120
370
     5
100
AcDbLine
 10
4889.844944469968
 20
863.6636787049042
 30
0.0
 11
-7705.155055530031
 21
863.6636787049042
 31
0.0
  0
LINE
  5
2F6
330
1F
100
AcDbEntity
  8
0-B_寸法
  6
JWW_DASHED2
 62
   120
370
     5
100
AcDbLine
 10
4889.844944469968
 20
-3406.336319956542
 30
0.0
 11
-7705.155055530031
 21
-3406.336319956542
 31
0.0
  0
LINE
  5
2F7
330
1F
100
AcDbEntity
  8
0-B_寸法
  6
JWW_DASHED2
 62
   120
370
     5
100
AcDbLine
 10
4889.844944469968
 20
-3906.336319956543
 30
0.0
 11
-7705.155055530031
 21
-3906.336319956543
 31
0.0
  0
LINE
  5
2F8
330
1F
100
AcDbEntity
  8
0-B_寸法
  6
JWW_DASHED2
 62
   120
370
     5
100
AcDbLine
 10
4889.844944469968
 20
-8056.336319956542
 30
0.0
 11
-7705.155055530031
 21
-8056.336319956542
 31
0.0
  0
TEXT
  5
2F9
330
1F
100
AcDbEntity
  8
0-A_文字
  6
Continuous
 62
     7
370
     9
100
AcDbText
 10
3272.344944469969
 20
-5483.400538152338
 30
0.0
 40
228.6
  1
可動棚
 41
1.111111111111111
  7
ＭＳ ゴシック
100
AcDbText
  0
LINE
  5
2FA
330
1F
100
AcDbEntity
  8
0-A_文字
  6
Continuous
 62
     7
370
     9
100
AcDbLine
 10
4272.344944469969
 20
-5525.700538152339
 30
0.0
 11
3272.344944469969
 21
-5525.700538152339
 31
0.0
  0
LINE
  5
2FB
330
1F
100
AcDbEntity
  8
0-A_文字
  6
Continuous
 62
     7
370
     9
100
AcDbLine
 10
3097.256265390234
 20
-5828.96302614856
 30
0.0
 11
3272.344944469969
 21
-5525.700538152339
 31
0.0
  0
LINE
  5
2FC
330
1F
100
AcDbEntity
  8
可動棚
  6
Continuous
 62
    40
370
    15
100
AcDbLine
 10
2654.844944469969
 20
-5771.336321295032
 30
0.0
 11
4889.844944469969
 21
-5771.336321295032
 31
0.0
  0
LINE
  5
2FD
330
1F
100
AcDbEntity
  8
可動棚
  6
Continuous
 62
    40
370
    15
100
AcDbLine
 10
2654.844944469969
 20
-5876.336321295031
 30
0.0
 11
4889.844944469969
 21
-5876.336321295031
 31
0.0
  0
LINE
  5
2FE
330
1F
100
AcDbEntity
  8
可動棚
  6
Continuous
 62
    40
370
    15
100
AcDbLine
 10
2654.844944469969
 20
-5771.336321295032
 30
0.0
 11
2654.844944469969
 21
-5876.336321295031
 31
0.0
  0
LINE
  5
2FF
330
1F
100
AcDbEntity
  8
可動棚
  6
Continuous
 62
    40
370
    15
100
AcDbLine
 10
4889.844944469969
 20
-5771.336321295032
 30
0.0
 11
4889.844944469969
 21
-5876.336321295031
 31
0.0
  0
TEXT
  5
300
330
1F
100
AcDbEntity
  8
0-A_文字
  6
Continuous
 62
     7
370
     9
100
AcDbText
 10
3272.344944469969
 20
-4043.400538152352
 30
0.0
 40
228.6
  1
可動棚
 41
1.111111111111111
  7
ＭＳ ゴシック
100
AcDbText
  0
LINE
  5
301
330
1F
100
AcDbEntity
  8
0-A_文字
  6
Continuous
 62
     7
370
     9
100
AcDbLine
 10
4272.344944469969
 20
-4085.700538152352
 30
0.0
 11
3272.344944469969
 21
-4085.700538152352
 31
0.0
  0
LINE
  5
302
330
1F
100
AcDbEntity
  8
0-A_文字
  6
Continuous
 62
     7
370
     9
100
AcDbLine
 10
3097.256265390234
 20
-4388.963026148574
 30
0.0
 11
3272.344944469969
 21
-4085.700538152352
 31
0.0
  0
LINE
  5
303
330
1F
100
AcDbEntity
  8
可動棚
  6
Continuous
 62
    40
370
    15
100
AcDbLine
 10
2654.844944469969
 20
-4331.336321295045
 30
0.0
 11
4889.844944469969
 21
-4331.336321295045
 31
0.0
  0
LINE
  5
304
330
1F
100
AcDbEntity
  8
可動棚
  6
Continuous
 62
    40
370
    15
100
AcDbLine
 10
2654.844944469969
 20
-4436.336321295044
 30
0.0
 11
4889.844944469969
 21
-4436.336321295044
 31
0.0
  0
LINE
  5
305
330
1F
100
AcDbEntity
  8
可動棚
  6
Continuous
 62
    40
370
    15
100
AcDbLine
 10
2654.844944469969
 20
-4331.336321295045
 30
0.0
 11
2654.844944469969
 21
-4436.336321295044
 31
0.0
  0
LINE
  5
306
330
1F
100
AcDbEntity
  8
可動棚
  6
Continuous
 62
    40
370
    15
100
AcDbLine
 10
4889.844944469969
 20
-4331.336321295045
 30
0.0
 11
4889.844944469969
 21
-4436.336321295044
 31
0.0
  0
TEXT
  5
307
330
1F
100
AcDbEntity
  8
0-A_文字
  6
Continuous
 62
     7
370
     9
100
AcDbText
 10
3272.344944469969
 20
-2603.400538152366
 30
0.0
 40
228.6
  1
可動棚
 41
1.111111111111111
  7
ＭＳ ゴシック
100
AcDbText
  0
LINE
  5
308
330
1F
100
AcDbEntity
  8
0-A_文字
  6
Continuous
 62
     7
370
     9
100
AcDbLine
 10
4272.344944469969
 20
-2645.700538152366
 30
0.0
 11
3272.344944469969
 21
-2645.700538152366
 31
0.0
  0
LINE
  5
309
330
1F
100
AcDbEntity
  8
0-A_文字
  6
Continuous
 62
     7
370
     9
100
AcDbLine
 10
3097.256265390234
 20
-2948.963026148587
 30
0.0
 11
3272.344944469969
 21
-2645.700538152366
 31
0.0
  0
LINE
  5
30A
330
1F
100
AcDbEntity
  8
可動棚
  6
Continuous
 62
    40
370
    15
100
AcDbLine
 10
2654.844944469969
 20
-2891.33632129506
 30
0.0
 11
4889.844944469969
 21
-2891.33632129506
 31
0.0
  0
LINE
  5
30B
330
1F
100
AcDbEntity
  8
可動棚
  6
Continuous
 62
    40
370
    15
100
AcDbLine
 10
2654.844944469969
 20
-2996.336321295058
 30
0.0
 11
4889.844944469969
 21
-2996.336321295058
 31
0.0
  0
LINE
  5
30C
330
1F
100
AcDbEntity
  8
可動棚
  6
Continuous
 62
    40
370
    15
100
AcDbLine
 10
2654.844944469969
 20
-2891.33632129506
 30
0.0
 11
2654.844944469969
 21
-2996.336321295058
 31
0.0
  0
LINE
  5
30D
330
1F
100
AcDbEntity
  8
可動棚
  6
Continuous
 62
    40
370
    15
100
AcDbLine
 10
4889.844944469969
 20
-2891.33632129506
 30
0.0
 11
4889.844944469969
 21
-2996.336321295058
 31
0.0
  0
TEXT
  5
30E
330
1F
100
AcDbEntity
  8
0-A_文字
  6
Continuous
 62
     7
370
     9
100
AcDbText
 10
3272.344944469969
 20
-1163.40053815238
 30
0.0
 40
228.6
  1
可動棚
 41
1.111111111111111
  7
ＭＳ ゴシック
100
AcDbText
  0
LINE
  5
30F
330
1F
100
AcDbEntity
  8
0-A_文字
  6
Continuous
 62
     7
370
     9
100
AcDbLine
 10
4272.344944469969
 20
-1205.70053815238
 30
0.0
 11
3272.344944469969
 21
-1205.70053815238
 31
0.0
  0
LINE
  5
310
330
1F
100
AcDbEntity
  8
0-A_文字
  6
Continuous
 62
     7
370
     9
100
AcDbLine
 10
3097.256265390234
 20
-1508.963026148601
 30
0.0
 11
3272.344944469969
 21
-1205.70053815238
 31
0.0
  0
LINE
  5
311
330
1F
100
AcDbEntity
  8
可動棚
  6
Continuous
 62
    40
370
    15
100
AcDbLine
 10
2654.844944469969
 20
-1451.336321295074
 30
0.0
 11
4889.844944469969
 21
-1451.336321295074
 31
0.0
  0
LINE
  5
312
330
1F
100
AcDbEntity
  8
可動棚
  6
Continuous
 62
    40
370
    15
100
AcDbLine
 10
2654.844944469969
 20
-1556.336321295072
 30
0.0
 11
4889.844944469969
 21
-1556.336321295072
 31
0.0
  0
LINE
  5
313
330
1F
100
AcDbEntity
  8
可動棚
  6
Continuous
 62
    40
370
    15
100
AcDbLine
 10
2654.844944469969
 20
-1451.336321295074
 30
0.0
 11
2654.844944469969
 21
-1556.336321295072
 31
0.0
  0
LINE
  5
314
330
1F
100
AcDbEntity
  8
可動棚
  6
Continuous
 62
    40
370
    15
100
AcDbLine
 10
4889.844944469969
 20
-1451.336321295074
 30
0.0
 11
4889.844944469969
 21
-1556.336321295072
 31
0.0
  0
TEXT
  5
315
330
1F
100
AcDbEntity
  8
0-A_文字
  6
Continuous
 62
     7
370
     9
100
AcDbText
 10
3272.344944469969
 20
276.599461847607
 30
0.0
 40
228.6
  1
可動棚
 41
1.111111111111111
  7
ＭＳ ゴシック
100
AcDbText
  0
LINE
  5
316
330
1F
100
AcDbEntity
  8
0-A_文字
  6
Continuous
 62
     7
370
     9
100
AcDbLine
 10
4272.344944469969
 20
234.2994618476069
 30
0.0
 11
3272.344944469969
 21
234.2994618476069
 31
0.0
  0
LINE
  5
317
330
1F
100
AcDbEntity
  8
0-A_文字
  6
Continuous
 62
     7
370
     9
100
AcDbLine
 10
3097.256265390234
 20
-68.9630261486144
 30
0.0
 11
3272.344944469969
 21
234.2994618476069
 31
0.0
  0
LINE
  5
318
330
1F
100
AcDbEntity
  8
可動棚
  6
Continuous
 62
    40
370
    15
100
AcDbLine
 10
2654.844944469969
 20
-11.33632129508726
 30
0.0
 11
4889.844944469969
 21
-11.33632129508726
 31
0.0
  0
LINE
  5
319
330
1F
100
AcDbEntity
  8
可動棚
  6
Continuous
 62
    40
370
    15
100
AcDbLine
 10
2654.844944469969
 20
-116.3363212950856
 30
0.0
 11
4889.844944469969
 21
-116.3363212950856
 31
0.0
  0
LINE
  5
31A
330
1F
100
AcDbEntity
  8
可動棚
  6
Continuous
 62
    40
370
    15
100
AcDbLine
 10
2654.844944469969
 20
-11.33632129508726
 30
0.0
 11
2654.844944469969
 21
-116.3363212950856
 31
0.0
  0
LINE
  5
31B
330
1F
100
AcDbEntity
  8
可動棚
  6
Continuous
 62
    40
370
    15
100
AcDbLine
 10
4889.844944469969
 20
-11.33632129508726
 30
0.0
 11
4889.844944469969
 21
-116.3363212950856
 31
0.0
  0
LINE
  5
31C
330
1F
100
AcDbEntity
  8
0-0_補助線
  6
JWW_HOJO
 62
   120
370
     5
100
AcDbLine
 10
6689.844944469968
 20
-10556.33631995653
 30
0.0
 11
989.8449440683919
 21
-10556.33631995653
 31
0.0
  0
LINE
  5
31D
330
1F
100
AcDbEntity
  8
0-0_補助線
  6
JWW_HOJO
 62
   120
370
     5
100
AcDbLine
 10
6689.844944469968
 20
2863.663678704904
 30
0.0
 11
6689.844944469968
 21
-10556.33631995653
 31
0.0
  0
LINE
  5
31E
330
1F
100
AcDbEntity
  8
0-0_補助線
  6
JWW_HOJO
 62
   120
370
     5
100
AcDbLine
 10
989.8449440683919
 20
2863.663678704904
 30
0.0
 11
6689.844944469968
 21
2863.663678704904
 31
0.0
  0
ENDSEC
  0
SECTION
  2
OBJECTS
  0
DICTIONARY
  5
C
330
0
100
AcDbDictionary
281
     1
  3
ACAD_DETAILVIEWSTYLE
350
356
  3
ACAD_GROUP
350
D
  3
ACAD_LAYOUT
350
1A
  3
ACAD_MATERIAL
350
43
  3
ACAD_MLEADERSTYLE
350
6B
  3
ACAD_MLINESTYLE
350
17
  3
ACAD_PLOTSETTINGS
350
19
  3
ACAD_PLOTSTYLENAME
350
E
  3
ACAD_SCALELIST
350
47
  3
ACAD_SECTIONVIEWSTYLE
350
357
  3
ACAD_TABLESTYLE
350
69
  3
ACAD_VISUALSTYLE
350
2A
  3
ACDB_RECOMPOSE_DATA
350
353
  3
AcDbVariableDictionary
350
31F
  0
SUN
  5
6D
330
29
100
AcDbSun
 90
        1
290
     0
 63
     7
421
 16777215
 40
1.0
291
     1
 91
  2455826
 92
 54000000
292
     0
 70
     2
 71
   256
280
     1
  0
DICTIONARY
  5
356
102
{ACAD_REACTORS
330
C
102
}
330
C
100
AcDbDictionary
281
     1
  0
DICTIONARY
  5
D
102
{ACAD_REACTORS
330
C
102
}
330
C
100
AcDbDictionary
281
     1
  0
DICTIONARY
  5
1A
102
{ACAD_REACTORS
330
C
102
}
330
C
100
AcDbDictionary
281
     1
  3
Layout1
350
1E
  3
Layout2
350
26
  3
Model
350
22
  0
DICTIONARY
  5
43
102
{ACAD_REACTORS
330
C
102
}
330
C
100
AcDbDictionary
281
     1
  3
ByBlock
350
45
  3
ByLayer
350
44
  3
Global
350
46
  0
DICTIONARY
  5
6B
102
{ACAD_REACTORS
330
C
102
}
330
C
100
AcDbDictionary
281
     1
  3
Standard
350
6C
  0
DICTIONARY
  5
17
102
{ACAD_REACTORS
330
C
102
}
330
C
100
AcDbDictionary
281
     1
  3
Standard
350
18
  0
DICTIONARY
  5
19
102
{ACAD_REACTORS
330
C
102
}
330
C
100
AcDbDictionary
281
     1
  0
ACDBDICTIONARYWDFLT
  5
E
102
{ACAD_REACTORS
330
C
102
}
330
C
100
AcDbDictionary
281
     1
  3
Normal
350
F
100
AcDbDictionaryWithDefault
340
F
  0
DICTIONARY
  5
47
102
{ACAD_REACTORS
330
C
102
}
330
C
100
AcDbDictionary
281
     1
  3
A0
350
48
  3
A1
350
49
  3
A2
350
4A
  3
A3
350
4B
  3
A4
350
4C
  3
A5
350
4D
  3
A6
350
4E
  3
A7
350
4F
  3
A8
350
50
  3
A9
350
51
  3
B0
350
52
  3
B1
350
53
  3
B2
350
54
  3
B3
350
55
  3
B4
350
56
  3
B5
350
57
  3
B6
350
58
  3
B7
350
59
  3
B8
350
5A
  3
B9
350
5B
  3
C0
350
5C
  3
C1
350
5D
  3
C2
350
5E
  3
C3
350
5F
  3
C4
350
60
  3
C5
350
61
  3
C6
350
62
  3
C7
350
63
  3
C8
350
64
  3
C9
350
65
  3
D0
350
66
  3
D1
350
67
  3
D2
350
68
  0
DICTIONARY
  5
357
102
{ACAD_REACTORS
330
C
102
}
330
C
100
AcDbDictionary
281
     1
  0
DICTIONARY
  5
69
102
{ACAD_REACTORS
330
C
102
}
330
C
100
AcDbDictionary
281
     1
  3
Standard
350
6A
  0
DICTIONARY
  5
2A
102
{ACAD_REACTORS
330
C
102
}
330
C
100
AcDbDictionary
281
     1
  3
2dWireframe
350
2F
  3
Basic
350
32
  3
Brighten
350
36
  3
ColorChange
350
3A
  3
Conceptual
350
34
  3
Dim
350
35
  3
EdgeColorOff
350
3D
  3
Facepattern
350
39
  3
Flat
350
2B
  3
FlatWithEdges
350
2C
  3
Gouraud
350
2D
  3
GouraudWithEdges
350
2E
  3
Hidden
350
31
  3
JitterOff
350
3B
  3
Linepattern
350
38
  3
OverhangOff
350
3C
  3
Realistic
350
33
  3
Shaded
350
42
  3
Shaded with edges
350
41
  3
Shades of Gray
350
3E
  3
Sketchy
350
3F
  3
Thicken
350
37
  3
Wireframe
350
30
  3
X-Ray
350
40
  0
XRECORD
  5
353
102
{ACAD_REACTORS
330
C
102
}
330
C
100
AcDbXrecord
280
     1
 90
        1
330
6A
  0
DICTIONARY
  5
31F
102
{ACAD_REACTORS
330
C
102
}
330
C
100
AcDbDictionary
281
     1
  3
CANNOSCALE
350
320
  3
CENTEREXE
350
358
  3
CENTERLTYPEFILE
350
359
  3
CMLEADERSTYLE
350
355
  3
CTABLESTYLE
350
354
  0
LAYOUT
  5
1E
102
{ACAD_REACTORS
330
1A
102
}
330
1A
100
AcDbPlotSettings
  1

  2
none_device
  4

  6

 40
0.0
 41
0.0
 42
0.0
 43
0.0
 44
0.0
 45
0.0
 46
0.0
 47
0.0
 48
0.0
 49
0.0
140
0.0
141
0.0
142
1.0
143
1.0
 70
   688
 72
     1
 73
     0
 74
     5
  7

 75
    16
 76
     0
 77
     5
 78
   300
147
1.0
148
0.0
149
0.0
100
AcDbLayout
  1
Layout1
 70
     1
 71
     1
 10
0.0
 20
0.0
 11
420.0
 21
297.0
 12
0.0
 22
0.0
 32
0.0
 14
1.000000000000000E+20
 24
1.000000000000000E+20
 34
1.000000000000000E+20
 15
-1.000000000000000E+20
 25
-1.000000000000000E+20
 35
-1.000000000000000E+20
146
0.0
 13
0.0
 23
0.0
 33
0.0
 16
1.0
 26
0.0
 36
0.0
 17
0.0
 27
1.0
 37
0.0
 76
     0
330
1B
  0
LAYOUT
  5
26
102
{ACAD_REACTORS
330
1A
102
}
330
1A
100
AcDbPlotSettings
  1

  2
none_device
  4

  6

 40
0.0
 41
0.0
 42
0.0
 43
0.0
 44
0.0
 45
0.0
 46
0.0
 47
0.0
 48
0.0
 49
0.0
140
0.0
141
0.0
142
1.0
143
1.0
 70
   688
 72
     1
 73
     0
 74
     5
  7

 75
    16
 76
     0
 77
     5
 78
   300
147
1.0
148
0.0
149
0.0
100
AcDbLayout
  1
Layout2
 70
     1
 71
     2
 10
0.0
 20
0.0
 11
0.0
 21
0.0
 12
0.0
 22
0.0
 32
0.0
 14
0.0
 24
0.0
 34
0.0
 15
0.0
 25
0.0
 35
0.0
146
0.0
 13
0.0
 23
0.0
 33
0.0
 16
1.0
 26
0.0
 36
0.0
 17
0.0
 27
1.0
 37
0.0
 76
     0
330
23
  0
LAYOUT
  5
22
102
{ACAD_REACTORS
330
1A
102
}
330
1A
100
AcDbPlotSettings
  1

  2
none_device
  4
Letter_(8.50_x_11.00_Inches)
  6

 40
6.35
 41
6.35
 42
6.35000508
 43
6.35000508
 44
215.9
 45
279.4
 46
0.0
 47
0.0
 48
0.0
 49
0.0
140
0.0
141
0.0
142
1.0
143
1.0
 70
  1712
 72
     1
 73
     0
 74
     0
  7

 75
     0
 76
     0
 77
     5
 78
   300
147
1.0
148
0.0
149
0.0
100
AcDbLayout
  1
Model
 70
     1
 71
     0
 10
-21000.0
 20
-14850.0
 11
21000.0
 21
14850.0
 12
0.0
 22
0.0
 32
0.0
 14
-21000.0
 24
-14850.0
 34
0.0
 15
21000.0
 25
14850.0
 35
0.0
146
0.0
 13
0.0
 23
0.0
 33
0.0
 16
1.0
 26
0.0
 36
0.0
 17
0.0
 27
1.0
 37
0.0
 76
     0
330
1F
331
29
  0
MATERIAL
  5
45
102
{ACAD_REACTORS
330
43
102
}
330
43
100
AcDbMaterial
  1
ByBlock
 72
     1
 94
      127
  0
MATERIAL
  5
44
102
{ACAD_REACTORS
330
43
102
}
330
43
100
AcDbMaterial
  1
ByLayer
 72
     1
 94
      127
  0
MATERIAL
  5
46
102
{ACAD_REACTORS
330
43
102
}
330
43
100
AcDbMaterial
  1
Global
 72
     1
 94
      127
  0
MLEADERSTYLE
  5
6C
102
{ACAD_REACTORS
330
6B
102
}
330
6B
100
AcDbMLeaderStyle
179
     2
170
     2
171
     1
172
     0
 90
        2
 40
0.0
 41
0.0
173
     1
 91
-1056964608
340
14
 92
       -2
290
     1
 42
2.0
291
     1
 43
8.0
  3
Standard
341
0
 44
4.0
300

342
11
174
     1
178
     6
175
     1
176
     0
 93
-1056964608
 45
4.0
292
     0
297
     0
 46
4.0
343
0
 94
-1056964608
 47
1.0
 49
1.0
140
1.0
293
     1
141
0.0
294
     1
177
     0
142
1.0
295
     0
296
     0
143
3.75
271
     0
272
     9
273
     9
  0
MLINESTYLE
  5
18
102
{ACAD_REACTORS
330
17
102
}
330
17
100
AcDbMlineStyle
  2
Standard
 70
     0
  3

 62
   256
 51
90.0
 52
90.0
 71
     2
 49
0.5
 62
   256
  6
BYLAYER
 49
-0.5
 62
   256
  6
BYLAYER
  0
ACDBPLACEHOLDER
  5
F
102
{ACAD_REACTORS
330
E
102
}
330
E
  0
SCALE
  5
48
102
{ACAD_REACTORS
330
47
102
}
330
47
100
AcDbScale
 70
     0
300
1:1
140
1.0
141
1.0
290
     1
  0
SCALE
  5
49
102
{ACAD_REACTORS
330
47
102
}
330
47
100
AcDbScale
 70
     0
300
1:2
140
1.0
141
2.0
290
     0
  0
SCALE
  5
4A
102
{ACAD_REACTORS
330
47
102
}
330
47
100
AcDbScale
 70
     0
300
1:4
140
1.0
141
4.0
290
     0
  0
SCALE
  5
4B
102
{ACAD_REACTORS
330
47
102
}
330
47
100
AcDbScale
 70
     0
300
1:5
140
1.0
141
5.0
290
     0
  0
SCALE
  5
4C
102
{ACAD_REACTORS
330
47
102
}
330
47
100
AcDbScale
 70
     0
300
1:8
140
1.0
141
8.0
290
     0
  0
SCALE
  5
4D
102
{ACAD_REACTORS
330
47
102
}
330
47
100
AcDbScale
 70
     0
300
1:10
140
1.0
141
10.0
290
     0
  0
SCALE
  5
4E
102
{ACAD_REACTORS
330
47
102
}
330
47
100
AcDbScale
 70
     0
300
1:16
140
1.0
141
16.0
290
     0
  0
SCALE
  5
4F
102
{ACAD_REACTORS
330
47
102
}
330
47
100
AcDbScale
 70
     0
300
1:20
140
1.0
141
20.0
290
     0
  0
SCALE
  5
50
102
{ACAD_REACTORS
330
47
102
}
330
47
100
AcDbScale
 70
     0
300
1:30
140
1.0
141
30.0
290
     0
  0
SCALE
  5
51
102
{ACAD_REACTORS
330
47
102
}
330
47
100
AcDbScale
 70
     0
300
1:40
140
1.0
141
40.0
290
     0
  0
SCALE
  5
52
102
{ACAD_REACTORS
330
47
102
}
330
47
100
AcDbScale
 70
     0
300
1:50
140
1.0
141
50.0
290
     0
  0
SCALE
  5
53
102
{ACAD_REACTORS
330
47
102
}
330
47
100
AcDbScale
 70
     0
300
1:100
140
1.0
141
100.0
290
     0
  0
SCALE
  5
54
102
{ACAD_REACTORS
330
47
102
}
330
47
100
AcDbScale
 70
     0
300
2:1
140
2.0
141
1.0
290
     0
  0
SCALE
  5
55
102
{ACAD_REACTORS
330
47
102
}
330
47
100
AcDbScale
 70
     0
300
4:1
140
4.0
141
1.0
290
     0
  0
SCALE
  5
56
102
{ACAD_REACTORS
330
47
102
}
330
47
100
AcDbScale
 70
     0
300
8:1
140
8.0
141
1.0
290
     0
  0
SCALE
  5
57
102
{ACAD_REACTORS
330
47
102
}
330
47
100
AcDbScale
 70
     0
300
10:1
140
10.0
141
1.0
290
     0
  0
SCALE
  5
58
102
{ACAD_REACTORS
330
47
102
}
330
47
100
AcDbScale
 70
     0
300
100:1
140
100.0
141
1.0
290
     0
  0
SCALE
  5
59
102
{ACAD_REACTORS
330
47
102
}
330
47
100
AcDbScale
 70
     0
300
1/128" = 1'-0"
140
0.0078125
141
12.0
290
     0
  0
SCALE
  5
5A
102
{ACAD_REACTORS
330
47
102
}
330
47
100
AcDbScale
 70
     0
300
1/64" = 1'-0"
140
0.015625
141
12.0
290
     0
  0
SCALE
  5
5B
102
{ACAD_REACTORS
330
47
102
}
330
47
100
AcDbScale
 70
     0
300
1/32" = 1'-0"
140
0.03125
141
12.0
290
     0
  0
SCALE
  5
5C
102
{ACAD_REACTORS
330
47
102
}
330
47
100
AcDbScale
 70
     0
300
1/16" = 1'-0"
140
0.0625
141
12.0
290
     0
  0
SCALE
  5
5D
102
{ACAD_REACTORS
330
47
102
}
330
47
100
AcDbScale
 70
     0
300
3/32" = 1'-0"
140
0.09375
141
12.0
290
     0
  0
SCALE
  5
5E
102
{ACAD_REACTORS
330
47
102
}
330
47
100
AcDbScale
 70
     0
300
1/8" = 1'-0"
140
0.125
141
12.0
290
     0
  0
SCALE
  5
5F
102
{ACAD_REACTORS
330
47
102
}
330
47
100
AcDbScale
 70
     0
300
3/16" = 1'-0"
140
0.1875
141
12.0
290
     0
  0
SCALE
  5
60
102
{ACAD_REACTORS
330
47
102
}
330
47
100
AcDbScale
 70
     0
300
1/4" = 1'-0"
140
0.25
141
12.0
290
     0
  0
SCALE
  5
61
102
{ACAD_REACTORS
330
47
102
}
330
47
100
AcDbScale
 70
     0
300
3/8" = 1'-0"
140
0.375
141
12.0
290
     0
  0
SCALE
  5
62
102
{ACAD_REACTORS
330
47
102
}
330
47
100
AcDbScale
 70
     0
300
1/2" = 1'-0"
140
0.5
141
12.0
290
     0
  0
SCALE
  5
63
102
{ACAD_REACTORS
330
47
102
}
330
47
100
AcDbScale
 70
     0
300
3/4" = 1'-0"
140
0.75
141
12.0
290
     0
  0
SCALE
  5
64
102
{ACAD_REACTORS
330
47
102
}
330
47
100
AcDbScale
 70
     0
300
1" = 1'-0"
140
1.0
141
12.0
290
     0
  0
SCALE
  5
65
102
{ACAD_REACTORS
330
47
102
}
330
47
100
AcDbScale
 70
     0
300
1-1/2" = 1'-0"
140
1.5
141
12.0
290
     0
  0
SCALE
  5
66
102
{ACAD_REACTORS
330
47
102
}
330
47
100
AcDbScale
 70
     0
300
3" = 1'-0"
140
3.0
141
12.0
290
     0
  0
SCALE
  5
67
102
{ACAD_REACTORS
330
47
102
}
330
47
100
AcDbScale
 70
     0
300
6" = 1'-0"
140
6.0
141
12.0
290
     0
  0
SCALE
  5
68
102
{ACAD_REACTORS
330
47
102
}
330
47
100
AcDbScale
 70
     0
300
1'-0" = 1'-0"
140
12.0
141
12.0
290
     0
  0
TABLESTYLE
  5
6A
102
{ACAD_REACTORS
330
69
102
}
102
{ACAD_XDICTIONARY
360
351
102
}
330
69
100
AcDbTableStyle
  3
Standard
 70
     0
 71
     0
 40
0.06
 41
0.06
280
     0
281
     0
  7
Standard
140
4.5
170
     2
 62
     0
 63
   257
283
     0
 90
        4
 91
        0
  1

274
    -2
284
     1
 64
     0
275
    -2
285
     1
 65
     0
276
    -2
286
     1
 66
     0
277
    -2
287
     1
 67
     0
278
    -2
288
     1
 68
     0
279
    -2
289
     1
 69
     0
  7
Standard
140
6.0
170
     5
 62
     0
 63
   257
283
     0
 90
        4
 91
        0
  1

274
    -2
284
     1
 64
     0
275
    -2
285
     1
 65
     0
276
    -2
286
     1
 66
     0
277
    -2
287
     1
 67
     0
278
    -2
288
     1
 68
     0
279
    -2
289
     1
 69
     0
  7
Standard
140
4.5
170
     5
 62
     0
 63
   257
283
     0
 90
        4
 91
        0
  1

274
    -2
284
     1
 64
     0
275
    -2
285
     1
 65
     0
276
    -2
286
     1
 66
     0
277
    -2
287
     1
 67
     0
278
    -2
288
     1
 68
     0
279
    -2
289
     1
 69
     0
  0
VISUALSTYLE
  5
2F
102
{ACAD_REACTORS
330
2A
102
}
102
{ACAD_XDICTIONARY
360
329
102
}
330
2A
100
AcDbVisualStyle
  2
2dWireframe
 70
     4
177
     2
291
     0
 71
     0
176
     1
 72
     2
176
     1
 73
     0
176
     1
 90
        0
176
     1
 40
0.6
176
     1
 41
30.0
176
     1
 62
     5
 63
     7
421
 16777215
176
     1
 74
     1
176
     1
 91
        4
176
     1
 64
     7
176
     1
 65
   257
176
     1
 75
     1
176
     1
175
     1
176
     1
 42
1.0
176
     1
 92
        0
176
     1
 66
   257
176
     1
 43
1.0
176
     1
 76
     1
176
     1
 77
     6
176
     1
 78
     2
176
     1
 67
     7
176
     1
 79
     5
176
     1
170
     0
176
     1
171
     0
176
     1
290
     0
176
     1
 93
        1
176
     1
 44
0.0
176
     1
173
     0
176
     1
  0
VISUALSTYLE
  5
32
102
{ACAD_REACTORS
330
2A
102
}
102
{ACAD_XDICTIONARY
360
32F
102
}
330
2A
100
AcDbVisualStyle
  2
Basic
 70
     7
177
     2
291
     1
 71
     1
176
     1
 72
     0
176
     1
 73
     1
176
     1
 90
        0
176
     1
 40
0.6
176
     1
 41
30.0
176
     1
 62
     5
 63
     7
421
 16777215
176
     1
 74
     0
176
     1
 91
        4
176
     1
 64
     7
176
     1
 65
   257
176
     1
 75
     1
176
     1
175
     1
176
     1
 42
1.0
176
     1
 92
        8
176
     1
 66
     7
176
     1
 43
1.0
176
     1
 76
     1
176
     1
 77
     6
176
     1
 78
     2
176
     1
 67
     7
176
     1
 79
     5
176
     1
170
     0
176
     1
171
     0
176
     1
290
     0
176
     1
 93
        1
176
     1
 44
0.0
176
     1
173
     0
176
     1
  0
VISUALSTYLE
  5
36
102
{ACAD_REACTORS
330
2A
102
}
102
{ACAD_XDICTIONARY
360
337
102
}
330
2A
100
AcDbVisualStyle
  2
Brighten
 70
    12
177
     2
291
     1
 71
     2
176
     1
 72
     2
176
     1
 73
     0
176
     1
 90
        0
176
     1
 40
0.6
176
     1
 41
30.0
176
     1
 62
     5
 63
     7
421
 16777215
176
     1
 74
     1
176
     1
 91
        4
176
     1
 64
     7
176
     1
 65
   257
176
     1
 75
     1
176
     1
175
     1
176
     1
 42
1.0
176
     1
 92
        8
176
     1
 66
     7
176
     1
 43
1.0
176
     1
 76
     1
176
     1
 77
     6
176
     1
 78
     2
176
     1
 67
     7
176
     1
 79
     5
176
     1
170
     0
176
     1
171
     0
176
     1
290
     0
176
     1
 93
        1
176
     1
 44
50.0
176
     1
173
     0
176
     1
  0
VISUALSTYLE
  5
3A
102
{ACAD_REACTORS
330
2A
102
}
102
{ACAD_XDICTIONARY
360
33F
102
}
330
2A
100
AcDbVisualStyle
  2
ColorChange
 70
    16
177
     2
291
     1
 71
     2
176
     1
 72
     2
176
     1
 73
     3
176
     1
 90
        0
176
     1
 40
0.6
176
     1
 41
30.0
176
     1
 62
     5
 63
     8
421
  8421504
176
     1
 74
     1
176
     1
 91
        4
176
     1
 64
     7
176
     1
 65
   257
176
     1
 75
     1
176
     1
175
     1
176
     1
 42
1.0
176
     1
 92
        8
176
     1
 66
     8
424
  8421504
176
     1
 43
1.0
176
     1
 76
     1
176
     1
 77
     6
176
     1
 78
     2
176
     1
 67
     7
176
     1
 79
     5
176
     1
170
     0
176
     1
171
     0
176
     1
290
     0
176
     1
 93
        1
176
     1
 44
0.0
176
     1
173
     0
176
     1
  0
VISUALSTYLE
  5
34
102
{ACAD_REACTORS
330
2A
102
}
102
{ACAD_XDICTIONARY
360
333
102
}
330
2A
100
AcDbVisualStyle
  2
Conceptual
 70
     9
177
     2
291
     0
 71
     3
176
     1
 72
     2
176
     1
 73
     0
176
     1
 90
        0
176
     1
 40
0.6
176
     1
 41
30.0
176
     1
 62
     5
 63
     7
421
 16777215
176
     1
 74
     2
176
     1
 91
        2
176
     1
 64
     7
176
     1
 65
   257
176
     1
 75
     1
176
     1
175
     1
176
     1
 42
179.0
176
     1
 92
        8
176
     1
 66
     7
176
     1
 43
1.0
176
     1
 76
     1
176
     1
 77
     6
176
     1
 78
     2
176
     1
 67
     7
176
     1
 79
     3
176
     1
170
     0
176
     1
171
     0
176
     1
290
     0
176
     1
 93
        1
176
     1
 44
0.0
176
     1
173
     0
176
     1
  0
VISUALSTYLE
  5
35
102
{ACAD_REACTORS
330
2A
102
}
102
{ACAD_XDICTIONARY
360
335
102
}
330
2A
100
AcDbVisualStyle
  2
Dim
 70
    11
177
     2
291
     1
 71
     2
176
     1
 72
     2
176
     1
 73
     0
176
     1
 90
        0
176
     1
 40
0.6
176
     1
 41
30.0
176
     1
 62
     5
 63
     7
421
 16777215
176
     1
 74
     1
176
     1
 91
        4
176
     1
 64
     7
176
     1
 65
   257
176
     1
 75
     1
176
     1
175
     1
176
     1
 42
1.0
176
     1
 92
        8
176
     1
 66
     7
176
     1
 43
1.0
176
     1
 76
     1
176
     1
 77
     6
176
     1
 78
     2
176
     1
 67
     7
176
     1
 79
     5
176
     1
170
     0
176
     1
171
     0
176
     1
290
     0
176
     1
 93
        1
176
     1
 44
-50.0
176
     1
173
     0
176
     1
  0
VISUALSTYLE
  5
3D
102
{ACAD_REACTORS
330
2A
102
}
102
{ACAD_XDICTIONARY
360
345
102
}
330
2A
100
AcDbVisualStyle
  2
EdgeColorOff
 70
    22
177
     2
291
     1
 71
     2
176
     0
 72
     2
176
     0
 73
     0
176
     0
 90
        0
176
     0
 40
0.6
176
     0
 41
30.0
176
     0
 62
     5
 63
     7
421
 16777215
176
     0
 74
     1
176
     0
 91
        4
176
     0
 64
     7
176
     0
 65
   257
176
     0
 75
     1
176
     0
175
     1
176
     0
 42
1.0
176
     0
 92
        8
176
     2
 66
     7
176
     0
 43
1.0
176
     0
 76
     1
176
     0
 77
     6
176
     0
 78
     2
176
     0
 67
     7
176
     0
 79
     5
176
     0
170
     0
176
     0
171
     0
176
     0
290
     0
176
     0
 93
        1
176
     0
 44
0.0
176
     0
173
     0
176
     0
  0
VISUALSTYLE
  5
39
102
{ACAD_REACTORS
330
2A
102
}
102
{ACAD_XDICTIONARY
360
33D
102
}
330
2A
100
AcDbVisualStyle
  2
Facepattern
 70
    15
177
     2
291
     1
 71
     2
176
     1
 72
     2
176
     1
 73
     0
176
     1
 90
        0
176
     1
 40
0.6
176
     1
 41
30.0
176
     1
 62
     5
 63
     7
421
 16777215
176
     1
 74
     1
176
     1
 91
        4
176
     1
 64
     7
176
     1
 65
   257
176
     1
 75
     1
176
     1
175
     1
176
     1
 42
1.0
176
     1
 92
        8
176
     1
 66
     7
176
     1
 43
1.0
176
     1
 76
     1
176
     1
 77
     6
176
     1
 78
     2
176
     1
 67
     7
176
     1
 79
     5
176
     1
170
     0
176
     1
171
     0
176
     1
290
     0
176
     1
 93
        1
176
     1
 44
0.0
176
     1
173
     0
176
     1
  0
VISUALSTYLE
  5
2B
102
{ACAD_REACTORS
330
2A
102
}
102
{ACAD_XDICTIONARY
360
321
102
}
330
2A
100
AcDbVisualStyle
  2
Flat
 70
     0
177
     2
291
     1
 71
     2
176
     1
 72
     1
176
     1
 73
     1
176
     1
 90
        2
176
     1
 40
0.6
176
     1
 41
30.0
176
     1
 62
     5
 63
     7
421
 16777215
176
     1
 74
     0
176
     1
 91
        0
176
     1
 64
     7
176
     1
 65
   257
176
     1
 75
     1
176
     1
175
     1
176
     1
 42
1.0
176
     1
 92
        8
176
     1
 66
     7
176
     1
 43
1.0
176
     1
 76
     1
176
     1
 77
     6
176
     1
 78
     2
176
     1
 67
     7
176
     1
 79
     5
176
     1
170
     0
176
     1
171
     0
176
     1
290
     0
176
     1
 93
       13
176
     1
 44
0.0
176
     1
173
     0
176
     1
  0
VISUALSTYLE
  5
2C
102
{ACAD_REACTORS
330
2A
102
}
102
{ACAD_XDICTIONARY
360
323
102
}
330
2A
100
AcDbVisualStyle
  2
FlatWithEdges
 70
     1
177
     2
291
     1
 71
     2
176
     1
 72
     1
176
     1
 73
     1
176
     1
 90
        2
176
     1
 40
0.6
176
     1
 41
30.0
176
     1
 62
     5
 63
     7
421
 16777215
176
     1
 74
     1
176
     1
 91
        0
176
     1
 64
     7
176
     1
 65
   257
176
     1
 75
     1
176
     1
175
     1
176
     1
 42
1.0
176
     1
 92
        0
176
     1
 66
   257
176
     1
 43
1.0
176
     1
 76
     1
176
     1
 77
     6
176
     1
 78
     2
176
     1
 67
     7
176
     1
 79
     5
176
     1
170
     0
176
     1
171
     0
176
     1
290
     0
176
     1
 93
       13
176
     1
 44
0.0
176
     1
173
     0
176
     1
  0
VISUALSTYLE
  5
2D
102
{ACAD_REACTORS
330
2A
102
}
102
{ACAD_XDICTIONARY
360
325
102
}
330
2A
100
AcDbVisualStyle
  2
Gouraud
 70
     2
177
     2
291
     1
 71
     2
176
     1
 72
     2
176
     1
 73
     1
176
     1
 90
        2
176
     1
 40
0.6
176
     1
 41
30.0
176
     1
 62
     5
 63
     7
421
 16777215
176
     1
 74
     0
176
     1
 91
        0
176
     1
 64
     7
176
     1
 65
   257
176
     1
 75
     1
176
     1
175
     1
176
     1
 42
1.0
176
     1
 92
        0
176
     1
 66
     7
176
     1
 43
1.0
176
     1
 76
     1
176
     1
 77
     6
176
     1
 78
     2
176
     1
 67
     7
176
     1
 79
     5
176
     1
170
     0
176
     1
171
     0
176
     1
290
     0
176
     1
 93
       13
176
     1
 44
0.0
176
     1
173
     0
176
     1
  0
VISUALSTYLE
  5
2E
102
{ACAD_REACTORS
330
2A
102
}
102
{ACAD_XDICTIONARY
360
327
102
}
330
2A
100
AcDbVisualStyle
  2
GouraudWithEdges
 70
     3
177
     2
291
     1
 71
     2
176
     1
 72
     2
176
     1
 73
     1
176
     1
 90
        2
176
     1
 40
0.6
176
     1
 41
30.0
176
     1
 62
     5
 63
     7
421
 16777215
176
     1
 74
     1
176
     1
 91
        0
176
     1
 64
     7
176
     1
 65
   257
176
     1
 75
     1
176
     1
175
     1
176
     1
 42
1.0
176
     1
 92
        0
176
     1
 66
   257
176
     1
 43
1.0
176
     1
 76
     1
176
     1
 77
     6
176
     1
 78
     2
176
     1
 67
     7
176
     1
 79
     5
176
     1
170
     0
176
     1
171
     0
176
     1
290
     0
176
     1
 93
       13
176
     1
 44
0.0
176
     1
173
     0
176
     1
  0
VISUALSTYLE
  5
31
102
{ACAD_REACTORS
330
2A
102
}
102
{ACAD_XDICTIONARY
360
32D
102
}
330
2A
100
AcDbVisualStyle
  2
Hidden
 70
     6
177
     2
291
     0
 71
     1
176
     1
 72
     2
176
     1
 73
     2
176
     1
 90
        0
176
     1
 40
0.6
176
     1
 41
30.0
176
     1
 62
     5
 63
     7
421
 16777215
176
     1
 74
     2
176
     1
 91
        2
176
     1
 64
     7
176
     1
 65
   257
176
     1
 75
     2
176
     1
175
     1
176
     1
 42
40.0
176
     1
 92
        0
176
     1
 66
   257
176
     1
 43
1.0
176
     1
 76
     1
176
     1
 77
     6
176
     1
 78
     2
176
     1
 67
     7
176
     1
 79
     3
176
     1
170
     0
176
     1
171
     0
176
     1
290
     0
176
     1
 93
        1
176
     1
 44
0.0
176
     1
173
     0
176
     1
  0
VISUALSTYLE
  5
3B
102
{ACAD_REACTORS
330
2A
102
}
102
{ACAD_XDICTIONARY
360
341
102
}
330
2A
100
AcDbVisualStyle
  2
JitterOff
 70
    20
177
     2
291
     1
 71
     2
176
     0
 72
     2
176
     0
 73
     0
176
     0
 90
        0
176
     0
 40
0.6
176
     0
 41
30.0
176
     0
 62
     5
 63
     7
421
 16777215
176
     0
 74
     1
176
     0
 91
        4
176
     0
 64
     7
176
     0
 65
   257
176
     0
 75
     1
176
     0
175
     1
176
     0
 42
1.0
176
     0
 92
       10
176
     2
 66
     7
176
     0
 43
1.0
176
     0
 76
     1
176
     0
 77
     6
176
     0
 78
     2
176
     0
 67
     7
176
     0
 79
     5
176
     0
170
     0
176
     0
171
     0
176
     0
290
     0
176
     0
 93
        1
176
     0
 44
0.0
176
     0
173
     0
176
     0
  0
VISUALSTYLE
  5
38
102
{ACAD_REACTORS
330
2A
102
}
102
{ACAD_XDICTIONARY
360
33B
102
}
330
2A
100
AcDbVisualStyle
  2
Linepattern
 70
    14
177
     2
291
     1
 71
     2
176
     1
 72
     2
176
     1
 73
     0
176
     1
 90
        0
176
     1
 40
0.6
176
     1
 41
30.0
176
     1
 62
     5
 63
     7
421
 16777215
176
     1
 74
     1
176
     1
 91
        4
176
     1
 64
     7
176
     1
 65
   257
176
     1
 75
     7
176
     1
175
     7
176
     1
 42
1.0
176
     1
 92
        8
176
     1
 66
     7
176
     1
 43
1.0
176
     1
 76
     1
176
     1
 77
     6
176
     1
 78
     2
176
     1
 67
     7
176
     1
 79
     5
176
     1
170
     0
176
     1
171
     0
176
     1
290
     0
176
     1
 93
        1
176
     1
 44
0.0
176
     1
173
     0
176
     1
  0
VISUALSTYLE
  5
3C
102
{ACAD_REACTORS
330
2A
102
}
102
{ACAD_XDICTIONARY
360
343
102
}
330
2A
100
AcDbVisualStyle
  2
OverhangOff
 70
    21
177
     2
291
     1
 71
     2
176
     0
 72
     2
176
     0
 73
     0
176
     0
 90
        0
176
     0
 40
0.6
176
     0
 41
30.0
176
     0
 62
     5
 63
     7
421
 16777215
176
     0
 74
     1
176
     0
 91
        4
176
     0
 64
     7
176
     0
 65
   257
176
     0
 75
     1
176
     0
175
     1
176
     0
 42
1.0
176
     0
 92
        9
176
     2
 66
     7
176
     0
 43
1.0
176
     0
 76
     1
176
     0
 77
     6
176
     0
 78
     2
176
     0
 67
     7
176
     0
 79
     5
176
     0
170
     0
176
     0
171
     0
176
     0
290
     0
176
     0
 93
        1
176
     0
 44
0.0
176
     0
173
     0
176
     0
  0
VISUALSTYLE
  5
33
102
{ACAD_REACTORS
330
2A
102
}
102
{ACAD_XDICTIONARY
360
331
102
}
330
2A
100
AcDbVisualStyle
  2
Realistic
 70
     8
177
     2
291
     0
 71
     2
176
     1
 72
     3
176
     1
 73
     0
176
     1
 90
        2
176
     1
 40
0.6
176
     1
 41
30.0
176
     1
 62
     5
 63
     7
421
 16777215
176
     1
 74
     0
176
     1
 91
        0
176
     1
 64
     7
176
     1
 65
   257
176
     1
 75
     1
176
     1
175
     1
176
     1
 42
1.0
176
     1
 92
        8
176
     1
 66
   257
176
     1
 43
1.0
176
     1
 76
     1
176
     1
 77
     6
176
     1
 78
     2
176
     1
 67
     7
176
     1
 79
     3
176
     1
170
     0
176
     1
171
     0
176
     1
290
     0
176
     1
 93
       13
176
     1
 44
0.0
176
     1
173
     0
176
     1
  0
VISUALSTYLE
  5
42
102
{ACAD_REACTORS
330
2A
102
}
102
{ACAD_XDICTIONARY
360
34F
102
}
330
2A
100
AcDbVisualStyle
  2
Shaded
 70
    27
177
     2
291
     0
 71
     2
176
     1
 72
     2
176
     1
 73
     1
176
     1
 90
        2
176
     1
 40
0.6
176
     1
 41
30.0
176
     1
 62
     5
 63
     7
421
 16777215
176
     1
 74
     0
176
     1
 91
        4
176
     1
 64
     7
176
     1
 65
   257
176
     1
 75
     1
176
     1
175
     1
176
     1
 42
1.0
176
     1
 92
        8
176
     1
 66
   257
176
     1
 43
1.0
176
     1
 76
     1
176
     1
 77
     6
176
     1
 78
     2
176
     1
 67
     8
425
  7895160
176
     1
 79
     3
176
     1
170
     0
176
     1
171
     0
176
     1
290
     0
176
     1
 93
        5
176
     1
 44
0.0
176
     1
173
     0
176
     1
  0
VISUALSTYLE
  5
41
102
{ACAD_REACTORS
330
2A
102
}
102
{ACAD_XDICTIONARY
360
34D
102
}
330
2A
100
AcDbVisualStyle
  2
Shaded with edges
 70
    26
177
     2
291
     0
 71
     2
176
     1
 72
     2
176
     1
 73
     1
176
     1
 90
        2
176
     1
 40
0.6
176
     1
 41
30.0
176
     1
 62
     5
 63
     7
421
 16777215
176
     1
 74
     1
176
     1
 91
       10
176
     1
 64
     7
176
     1
 65
   257
176
     1
 75
     2
176
     1
175
     1
176
     1
 42
1.0
176
     1
 92
        8
176
     1
 66
   257
176
     1
 43
1.0
176
     1
 76
     1
176
     1
 77
     6
176
     1
 78
     2
176
     1
 67
     7
176
     1
 79
     3
176
     1
170
     0
176
     1
171
     0
176
     1
290
     0
176
     1
 93
        5
176
     1
 44
0.0
176
     1
173
     0
176
     1
  0
VISUALSTYLE
  5
3E
102
{ACAD_REACTORS
330
2A
102
}
102
{ACAD_XDICTIONARY
360
347
102
}
330
2A
100
AcDbVisualStyle
  2
Shades of Gray
 70
    23
177
     2
291
     0
 71
     2
176
     1
 72
     2
176
     1
 73
     3
176
     1
 90
        0
176
     1
 40
0.6
176
     1
 41
30.0
176
     1
 62
     5
 63
     7
421
 16777215
176
     1
 74
     2
176
     1
 91
        2
176
     1
 64
     7
176
     1
 65
     7
176
     1
 75
     1
176
     1
175
     1
176
     1
 42
40.0
176
     1
 92
        8
176
     1
 66
     7
176
     1
 43
1.0
176
     1
 76
     1
176
     1
 77
     6
176
     1
 78
     2
176
     1
 67
     7
176
     1
 79
     3
176
     1
170
     0
176
     1
171
     0
176
     1
290
     0
176
     1
 93
        1
176
     1
 44
0.0
176
     1
173
     0
176
     1
  0
VISUALSTYLE
  5
3F
102
{ACAD_REACTORS
330
2A
102
}
102
{ACAD_XDICTIONARY
360
349
102
}
330
2A
100
AcDbVisualStyle
  2
Sketchy
 70
    24
177
     2
291
     0
 71
     1
176
     1
 72
     2
176
     1
 73
     2
176
     1
 90
        0
176
     1
 40
0.6
176
     1
 41
30.0
176
     1
 62
     5
 63
     7
421
 16777215
176
     1
 74
     2
176
     1
 91
        2
176
     1
 64
     7
176
     1
 65
     7
176
     1
 75
     1
176
     1
175
     1
176
     1
 42
40.0
176
     1
 92
       11
176
     1
 66
     7
176
     1
 43
1.0
176
     1
 76
     1
176
     1
 77
     6
176
     1
 78
     2
176
     1
 67
     7
176
     1
 79
     6
176
     1
170
     0
176
     1
171
     0
176
     1
290
     0
176
     1
 93
        1
176
     1
 44
0.0
176
     1
173
     0
176
     1
  0
VISUALSTYLE
  5
37
102
{ACAD_REACTORS
330
2A
102
}
102
{ACAD_XDICTIONARY
360
339
102
}
330
2A
100
AcDbVisualStyle
  2
Thicken
 70
    13
177
     2
291
     1
 71
     2
176
     1
 72
     2
176
     1
 73
     0
176
     1
 90
        0
176
     1
 40
0.6
176
     1
 41
30.0
176
     1
 62
     5
 63
     7
421
 16777215
176
     1
 74
     1
176
     1
 91
        4
176
     1
 64
     7
176
     1
 65
   257
176
     1
 75
     1
176
     1
175
     1
176
     1
 42
1.0
176
     1
 92
       12
176
     1
 66
     7
176
     1
 43
1.0
176
     1
 76
     1
176
     1
 77
     6
176
     1
 78
     2
176
     1
 67
     7
176
     1
 79
     5
176
     1
170
     0
176
     1
171
     0
176
     1
290
     0
176
     1
 93
        1
176
     1
 44
0.0
176
     1
173
     0
176
     1
  0
VISUALSTYLE
  5
30
102
{ACAD_REACTORS
330
2A
102
}
102
{ACAD_XDICTIONARY
360
32B
102
}
330
2A
100
AcDbVisualStyle
  2
Wireframe
 70
     5
177
     2
291
     0
 71
     0
176
     1
 72
     2
176
     1
 73
     0
176
     1
 90
        0
176
     1
 40
0.6
176
     1
 41
30.0
176
     1
 62
     5
 63
     7
421
 16777215
176
     1
 74
     1
176
     1
 91
        4
176
     1
 64
     7
176
     1
 65
   257
176
     1
 75
     1
176
     1
175
     1
176
     1
 42
1.0
176
     1
 92
        0
176
     1
 66
   257
176
     1
 43
1.0
176
     1
 76
     1
176
     1
 77
     6
176
     1
 78
     2
176
     1
 67
     7
176
     1
 79
     3
176
     1
170
     0
176
     1
171
     0
176
     1
290
     0
176
     1
 93
        1
176
     1
 44
0.0
176
     1
173
     0
176
     1
  0
VISUALSTYLE
  5
40
102
{ACAD_REACTORS
330
2A
102
}
102
{ACAD_XDICTIONARY
360
34B
102
}
330
2A
100
AcDbVisualStyle
  2
X-Ray
 70
    25
177
     2
291
     0
 71
     2
176
     1
 72
     2
176
     1
 73
     1
176
     1
 90
        1
176
     1
 40
0.5
176
     1
 41
30.0
176
     1
 62
     5
 63
     7
421
 16777215
176
     1
 74
     1
176
     1
 91
        0
176
     1
 64
     7
176
     1
 65
   257
176
     1
 75
     1
176
     1
175
     1
176
     1
 42
1.0
176
     1
 92
        8
176
     1
 66
     7
176
     1
 43
1.0
176
     1
 76
     1
176
     1
 77
     6
176
     1
 78
     2
176
     1
 67
     7
176
     1
 79
     3
176
     1
170
     0
176
     1
171
     0
176
     1
290
     0
176
     1
 93
       13
176
     1
 44
0.0
176
     1
173
     0
176
     1
  0
DICTIONARYVAR
  5
320
102
{ACAD_REACTORS
330
31F
102
}
330
31F
100
DictionaryVariables
280
     0
  1
1:1
  0
DICTIONARYVAR
  5
358
102
{ACAD_REACTORS
330
31F
102
}
330
31F
100
DictionaryVariables
280
     0
  1
3.500000
  0
DICTIONARYVAR
  5
359
102
{ACAD_REACTORS
330
31F
102
}
330
31F
100
DictionaryVariables
280
     0
  1
acadiso.lin
  0
DICTIONARYVAR
  5
355
102
{ACAD_REACTORS
330
31F
102
}
330
31F
100
DictionaryVariables
280
     0
  1
Standard
  0
DICTIONARYVAR
  5
354
102
{ACAD_REACTORS
330
31F
102
}
330
31F
100
DictionaryVariables
280
     0
  1
Standard
  0
DICTIONARY
  5
351
330
6A
100
AcDbDictionary
280
     1
281
     1
  3
ACAD_ROUNDTRIP_2008_TABLESTYLE_CELLSTYLEMAP
360
352
  0
DICTIONARY
  5
329
330
2F
100
AcDbDictionary
280
     1
281
     1
  3
ACAD_XREC_ROUNDTRIP
360
32A
  0
DICTIONARY
  5
32F
330
32
100
AcDbDictionary
280
     1
281
     1
  3
ACAD_XREC_ROUNDTRIP
360
330
  0
DICTIONARY
  5
337
330
36
100
AcDbDictionary
280
     1
281
     1
  3
ACAD_XREC_ROUNDTRIP
360
338
  0
DICTIONARY
  5
33F
330
3A
100
AcDbDictionary
280
     1
281
     1
  3
ACAD_XREC_ROUNDTRIP
360
340
  0
DICTIONARY
  5
333
330
34
100
AcDbDictionary
280
     1
281
     1
  3
ACAD_XREC_ROUNDTRIP
360
334
  0
DICTIONARY
  5
335
330
35
100
AcDbDictionary
280
     1
281
     1
  3
ACAD_XREC_ROUNDTRIP
360
336
  0
DICTIONARY
  5
345
330
3D
100
AcDbDictionary
280
     1
281
     1
  3
ACAD_XREC_ROUNDTRIP
360
346
  0
DICTIONARY
  5
33D
330
39
100
AcDbDictionary
280
     1
281
     1
  3
ACAD_XREC_ROUNDTRIP
360
33E
  0
DICTIONARY
  5
321
330
2B
100
AcDbDictionary
280
     1
281
     1
  3
ACAD_XREC_ROUNDTRIP
360
322
  0
DICTIONARY
  5
323
330
2C
100
AcDbDictionary
280
     1
281
     1
  3
ACAD_XREC_ROUNDTRIP
360
324
  0
DICTIONARY
  5
325
330
2D
100
AcDbDictionary
280
     1
281
     1
  3
ACAD_XREC_ROUNDTRIP
360
326
  0
DICTIONARY
  5
327
330
2E
100
AcDbDictionary
280
     1
281
     1
  3
ACAD_XREC_ROUNDTRIP
360
328
  0
DICTIONARY
  5
32D
330
31
100
AcDbDictionary
280
     1
281
     1
  3
ACAD_XREC_ROUNDTRIP
360
32E
  0
DICTIONARY
  5
341
330
3B
100
AcDbDictionary
280
     1
281
     1
  3
ACAD_XREC_ROUNDTRIP
360
342
  0
DICTIONARY
  5
33B
330
38
100
AcDbDictionary
280
     1
281
     1
  3
ACAD_XREC_ROUNDTRIP
360
33C
  0
DICTIONARY
  5
343
330
3C
100
AcDbDictionary
280
     1
281
     1
  3
ACAD_XREC_ROUNDTRIP
360
344
  0
DICTIONARY
  5
331
330
33
100
AcDbDictionary
280
     1
281
     1
  3
ACAD_XREC_ROUNDTRIP
360
332
  0
DICTIONARY
  5
34F
330
42
100
AcDbDictionary
280
     1
281
     1
  3
ACAD_XREC_ROUNDTRIP
360
350
  0
DICTIONARY
  5
34D
330
41
100
AcDbDictionary
280
     1
281
     1
  3
ACAD_XREC_ROUNDTRIP
360
34E
  0
DICTIONARY
  5
347
330
3E
100
AcDbDictionary
280
     1
281
     1
  3
ACAD_XREC_ROUNDTRIP
360
348
  0
DICTIONARY
  5
349
330
3F
100
AcDbDictionary
280
     1
281
     1
  3
ACAD_XREC_ROUNDTRIP
360
34A
  0
DICTIONARY
  5
339
330
37
100
AcDbDictionary
280
     1
281
     1
  3
ACAD_XREC_ROUNDTRIP
360
33A
  0
DICTIONARY
  5
32B
330
30
100
AcDbDictionary
280
     1
281
     1
  3
ACAD_XREC_ROUNDTRIP
360
32C
  0
DICTIONARY
  5
34B
330
40
100
AcDbDictionary
280
     1
281
     1
  3
ACAD_XREC_ROUNDTRIP
360
34C
  0
CELLSTYLEMAP
  5
352
102
{ACAD_REACTORS
330
351
102
}
330
351
100
AcDbCellStyleMap
 90
        3
300
CELLSTYLE
  1
TABLEFORMAT_BEGIN
 90
        5
170
     1
 91
        0
 92
    32768
 62
   257
 93
        1
300
CONTENTFORMAT
  1
CONTENTFORMAT_BEGIN
 90
        0
 91
        0
 92
        4
 93
        0
300

 40
0.0
140
1.0
 94
        5
 62
     0
340
11
144
6.0
309
CONTENTFORMAT_END
171
     1
301
MARGIN
  1
CELLMARGIN_BEGIN
 40
1.5
 40
1.5
 40
1.5
 40
1.5
 40
1.5
 40
1.5
309
CELLMARGIN_END
 94
        6
 95
        1
302
GRIDFORMAT
  1
GRIDFORMAT_BEGIN
 90
        0
 91
        1
 62
     0
 92
       -2
340
14
 93
        0
 40
0.045
309
GRIDFORMAT_END
 95
        2
302
GRIDFORMAT
  1
GRIDFORMAT_BEGIN
 90
        0
 91
        1
 62
     0
 92
       -2
340
14
 93
        0
 40
0.045
309
GRIDFORMAT_END
 95
        4
302
GRIDFORMAT
  1
GRIDFORMAT_BEGIN
 90
        0
 91
        1
 62
     0
 92
       -2
340
14
 93
        0
 40
0.045
309
GRIDFORMAT_END
 95
        8
302
GRIDFORMAT
  1
GRIDFORMAT_BEGIN
 90
        0
 91
        1
 62
     0
 92
       -2
340
14
 93
        0
 40
0.045
309
GRIDFORMAT_END
 95
       16
302
GRIDFORMAT
  1
GRIDFORMAT_BEGIN
 90
        0
 91
        1
 62
     0
 92
       -2
340
14
 93
        0
 40
0.045
309
GRIDFORMAT_END
 95
       32
302
GRIDFORMAT
  1
GRIDFORMAT_BEGIN
 90
        0
 91
        1
 62
     0
 92
       -2
340
14
 93
        0
 40
0.045
309
GRIDFORMAT_END
309
TABLEFORMAT_END
  1
CELLSTYLE_BEGIN
 90
        1
 91
        1
300
_TITLE
309
CELLSTYLE_END
300
CELLSTYLE
  1
TABLEFORMAT_BEGIN
 90
        5
170
     1
 91
        0
 92
        0
 62
   257
 93
        1
300
CONTENTFORMAT
  1
CONTENTFORMAT_BEGIN
 90
        0
 91
        0
 92
        4
 93
        0
300

 40
0.0
140
1.0
 94
        5
 62
     0
340
11
144
4.5
309
CONTENTFORMAT_END
171
     1
301
MARGIN
  1
CELLMARGIN_BEGIN
 40
1.5
 40
1.5
 40
1.5
 40
1.5
 40
1.5
 40
1.5
309
CELLMARGIN_END
 94
        6
 95
        1
302
GRIDFORMAT
  1
GRIDFORMAT_BEGIN
 90
        0
 91
        1
 62
     0
 92
       -2
340
14
 93
        0
 40
0.045
309
GRIDFORMAT_END
 95
        2
302
GRIDFORMAT
  1
GRIDFORMAT_BEGIN
 90
        0
 91
        1
 62
     0
 92
       -2
340
14
 93
        0
 40
0.045
309
GRIDFORMAT_END
 95
        4
302
GRIDFORMAT
  1
GRIDFORMAT_BEGIN
 90
        0
 91
        1
 62
     0
 92
       -2
340
14
 93
        0
 40
0.045
309
GRIDFORMAT_END
 95
        8
302
GRIDFORMAT
  1
GRIDFORMAT_BEGIN
 90
        0
 91
        1
 62
     0
 92
       -2
340
14
 93
        0
 40
0.045
309
GRIDFORMAT_END
 95
       16
302
GRIDFORMAT
  1
GRIDFORMAT_BEGIN
 90
        0
 91
        1
 62
     0
 92
       -2
340
14
 93
        0
 40
0.045
309
GRIDFORMAT_END
 95
       32
302
GRIDFORMAT
  1
GRIDFORMAT_BEGIN
 90
        0
 91
        1
 62
     0
 92
       -2
340
14
 93
        0
 40
0.045
309
GRIDFORMAT_END
309
TABLEFORMAT_END
  1
CELLSTYLE_BEGIN
 90
        2
 91
        1
300
_HEADER
309
CELLSTYLE_END
300
CELLSTYLE
  1
TABLEFORMAT_BEGIN
 90
        5
170
     1
 91
        0
 92
        0
 62
   257
 93
        1
300
CONTENTFORMAT
  1
CONTENTFORMAT_BEGIN
 90
        0
 91
        0
 92
        4
 93
        0
300

 40
0.0
140
1.0
 94
        2
 62
     0
340
11
144
4.5
309
CONTENTFORMAT_END
171
     1
301
MARGIN
  1
CELLMARGIN_BEGIN
 40
1.5
 40
1.5
 40
1.5
 40
1.5
 40
1.5
 40
1.5
309
CELLMARGIN_END
 94
        6
 95
        1
302
GRIDFORMAT
  1
GRIDFORMAT_BEGIN
 90
        0
 91
        1
 62
     0
 92
       -2
340
14
 93
        0
 40
0.045
309
GRIDFORMAT_END
 95
        2
302
GRIDFORMAT
  1
GRIDFORMAT_BEGIN
 90
        0
 91
        1
 62
     0
 92
       -2
340
14
 93
        0
 40
0.045
309
GRIDFORMAT_END
 95
        4
302
GRIDFORMAT
  1
GRIDFORMAT_BEGIN
 90
        0
 91
        1
 62
     0
 92
       -2
340
14
 93
        0
 40
0.045
309
GRIDFORMAT_END
 95
        8
302
GRIDFORMAT
  1
GRIDFORMAT_BEGIN
 90
        0
 91
        1
 62
     0
 92
       -2
340
14
 93
        0
 40
0.045
309
GRIDFORMAT_END
 95
       16
302
GRIDFORMAT
  1
GRIDFORMAT_BEGIN
 90
        0
 91
        1
 62
     0
 92
       -2
340
14
 93
        0
 40
0.045
309
GRIDFORMAT_END
 95
       32
302
GRIDFORMAT
  1
GRIDFORMAT_BEGIN
 90
        0
 91
        1
 62
     0
 92
       -2
340
14
 93
        0
 40
0.045
309
GRIDFORMAT_END
309
TABLEFORMAT_END
  1
CELLSTYLE_BEGIN
 90
        3
 91
        2
300
_DATA
309
CELLSTYLE_END
  0
XRECORD
  5
32A
102
{ACAD_REACTORS
330
329
102
}
330
329
100
AcDbXrecord
280
     1
102
RTVSPost2010Prop28
280
     1
102
RTVSPost2010PropOp28
 70
     1
102
RTVSPost2010Prop29
280
     1
102
RTVSPost2010PropOp29
 70
     1
102
RTVSPost2010Prop30
280
     0
102
RTVSPost2010PropOp30
 70
     1
102
RTVSPost2010Prop31
280
     0
102
RTVSPost2010PropOp31
 70
     1
102
RTVSPost2010Prop32
280
     0
102
RTVSPost2010PropOp32
 70
     1
102
RTVSPost2010Prop33
280
     0
102
RTVSPost2010PropOp33
 70
     1
102
RTVSPost2010Prop34
280
     0
102
RTVSPost2010PropOp34
 70
     1
102
RTVSPost2010Prop35
280
     0
102
RTVSPost2010PropOp35
 70
     1
102
RTVSPost2010Prop36
280
     0
102
RTVSPost2010PropOp36
 70
     1
102
RTVSPost2010Prop37
 90
       50
102
RTVSPost2010PropOp37
 70
     1
102
RTVSPost2010Prop38
140
0.0
102
RTVSPost2010PropOp38
 70
     1
102
RTVSPost2010Prop39
140
1.0
102
RTVSPost2010PropOp39
 70
     1
102
RTVSPost2010Prop40
 90
        0
102
RTVSPost2010PropOp40
 70
     1
102
RTVSPost2010Prop41ColorIndex
 90
       18
102
RTVSPost2010Prop41ColorRGB
 90
        0
102
RTVSPost2010PropOp41
 70
     1
102
RTVSPost2010Prop42
 90
       50
102
RTVSPost2010PropOp42
 70
     1
102
RTVSPost2010Prop43
 90
        3
102
RTVSPost2010PropOp43
 70
     1
102
RTVSPost2010Prop44ColorIndex
 90
        5
102
RTVSPost2010Prop44ColorRGB
 90
      255
102
RTVSPost2010PropOp44
 70
     1
102
RTVSPost2010Prop45
280
     0
102
RTVSPost2010PropOp45
 70
     1
102
RTVSPost2010Prop46
 90
       50
102
RTVSPost2010PropOp46
 70
     1
102
RTVSPost2010Prop47
 90
       50
102
RTVSPost2010PropOp47
 70
     1
102
RTVSPost2010Prop48
 90
       50
102
RTVSPost2010PropOp48
 70
     1
102
RTVSPost2010Prop49
280
     0
102
RTVSPost2010PropOp49
 70
     1
102
RTVSPost2010Prop50
 90
       50
102
RTVSPost2010PropOp50
 70
     1
102
RTVSPost2010Prop51ColorIndex
 90
      256
102
RTVSPost2010Prop51ColorRGB
 90
-16777216
102
RTVSPost2010PropOp51
 70
     0
102
RTVSPost2010Prop52
140
1.0
102
RTVSPost2010PropOp52
 70
     0
102
RTVSPost2010Prop53
 90
        2
102
RTVSPost2010PropOp53
 70
     1
102
RTVSPost2010Prop54
  1
strokes_ogs.tif
102
RTVSPost2010PropOp54
 70
     1
102
RTVSPost2010Prop55
280
     0
102
RTVSPost2010PropOp55
 70
     1
102
RTVSPost2010Prop56
140
1.0
102
RTVSPost2010PropOp56
 70
     1
102
RTVSPost2010Prop57
140
1.0
102
RTVSPost2010PropOp57
 70
     1
  0
XRECORD
  5
330
102
{ACAD_REACTORS
330
32F
102
}
330
32F
100
AcDbXrecord
280
     1
102
RTVSPost2010Prop28
280
     0
102
RTVSPost2010PropOp28
 70
     1
102
RTVSPost2010Prop29
280
     1
102
RTVSPost2010PropOp29
 70
     1
102
RTVSPost2010Prop30
280
     1
102
RTVSPost2010PropOp30
 70
     1
102
RTVSPost2010Prop31
280
     0
102
RTVSPost2010PropOp31
 70
     1
102
RTVSPost2010Prop32
280
     0
102
RTVSPost2010PropOp32
 70
     1
102
RTVSPost2010Prop33
280
     0
102
RTVSPost2010PropOp33
 70
     1
102
RTVSPost2010Prop34
280
     0
102
RTVSPost2010PropOp34
 70
     1
102
RTVSPost2010Prop35
280
     0
102
RTVSPost2010PropOp35
 70
     1
102
RTVSPost2010Prop36
280
     0
102
RTVSPost2010PropOp36
 70
     1
102
RTVSPost2010Prop37
 90
       50
102
RTVSPost2010PropOp37
 70
     1
102
RTVSPost2010Prop38
140
0.0
102
RTVSPost2010PropOp38
 70
     1
102
RTVSPost2010Prop39
140
1.0
102
RTVSPost2010PropOp39
 70
     1
102
RTVSPost2010Prop40
 90
        0
102
RTVSPost2010PropOp40
 70
     1
102
RTVSPost2010Prop41ColorIndex
 90
       18
102
RTVSPost2010Prop41ColorRGB
 90
        0
102
RTVSPost2010PropOp41
 70
     1
102
RTVSPost2010Prop42
 90
       50
102
RTVSPost2010PropOp42
 70
     1
102
RTVSPost2010Prop43
 90
        3
102
RTVSPost2010PropOp43
 70
     1
102
RTVSPost2010Prop44ColorIndex
 90
        5
102
RTVSPost2010Prop44ColorRGB
 90
      255
102
RTVSPost2010PropOp44
 70
     1
102
RTVSPost2010Prop45
280
     0
102
RTVSPost2010PropOp45
 70
     1
102
RTVSPost2010Prop46
 90
       50
102
RTVSPost2010PropOp46
 70
     1
102
RTVSPost2010Prop47
 90
       50
102
RTVSPost2010PropOp47
 70
     1
102
RTVSPost2010Prop48
 90
       50
102
RTVSPost2010PropOp48
 70
     1
102
RTVSPost2010Prop49
280
     0
102
RTVSPost2010PropOp49
 70
     1
102
RTVSPost2010Prop50
 90
       50
102
RTVSPost2010PropOp50
 70
     1
102
RTVSPost2010Prop51ColorIndex
 90
      256
102
RTVSPost2010Prop51ColorRGB
 90
-16777216
102
RTVSPost2010PropOp51
 70
     0
102
RTVSPost2010Prop52
140
1.0
102
RTVSPost2010PropOp52
 70
     0
102
RTVSPost2010Prop53
 90
        2
102
RTVSPost2010PropOp53
 70
     1
102
RTVSPost2010Prop54
  1
strokes_ogs.tif
102
RTVSPost2010PropOp54
 70
     1
102
RTVSPost2010Prop55
280
     0
102
RTVSPost2010PropOp55
 70
     1
102
RTVSPost2010Prop56
140
1.0
102
RTVSPost2010PropOp56
 70
     1
102
RTVSPost2010Prop57
140
1.0
102
RTVSPost2010PropOp57
 70
     1
  0
XRECORD
  5
338
102
{ACAD_REACTORS
330
337
102
}
330
337
100
AcDbXrecord
280
     1
102
RTVSPost2010Prop28
280
     0
102
RTVSPost2010PropOp28
 70
     1
102
RTVSPost2010Prop29
280
     1
102
RTVSPost2010PropOp29
 70
     1
102
RTVSPost2010Prop30
280
     1
102
RTVSPost2010PropOp30
 70
     1
102
RTVSPost2010Prop31
280
     0
102
RTVSPost2010PropOp31
 70
     1
102
RTVSPost2010Prop32
280
     0
102
RTVSPost2010PropOp32
 70
     1
102
RTVSPost2010Prop33
280
     0
102
RTVSPost2010PropOp33
 70
     1
102
RTVSPost2010Prop34
280
     0
102
RTVSPost2010PropOp34
 70
     1
102
RTVSPost2010Prop35
280
     0
102
RTVSPost2010PropOp35
 70
     1
102
RTVSPost2010Prop36
280
     0
102
RTVSPost2010PropOp36
 70
     1
102
RTVSPost2010Prop37
 90
       50
102
RTVSPost2010PropOp37
 70
     1
102
RTVSPost2010Prop38
140
0.0
102
RTVSPost2010PropOp38
 70
     1
102
RTVSPost2010Prop39
140
1.0
102
RTVSPost2010PropOp39
 70
     1
102
RTVSPost2010Prop40
 90
        0
102
RTVSPost2010PropOp40
 70
     1
102
RTVSPost2010Prop41ColorIndex
 90
       18
102
RTVSPost2010Prop41ColorRGB
 90
        0
102
RTVSPost2010PropOp41
 70
     1
102
RTVSPost2010Prop42
 90
       50
102
RTVSPost2010PropOp42
 70
     1
102
RTVSPost2010Prop43
 90
        3
102
RTVSPost2010PropOp43
 70
     1
102
RTVSPost2010Prop44ColorIndex
 90
        5
102
RTVSPost2010Prop44ColorRGB
 90
      255
102
RTVSPost2010PropOp44
 70
     1
102
RTVSPost2010Prop45
280
     0
102
RTVSPost2010PropOp45
 70
     1
102
RTVSPost2010Prop46
 90
       50
102
RTVSPost2010PropOp46
 70
     1
102
RTVSPost2010Prop47
 90
       50
102
RTVSPost2010PropOp47
 70
     1
102
RTVSPost2010Prop48
 90
       50
102
RTVSPost2010PropOp48
 70
     1
102
RTVSPost2010Prop49
280
     0
102
RTVSPost2010PropOp49
 70
     1
102
RTVSPost2010Prop50
 90
       50
102
RTVSPost2010PropOp50
 70
     1
102
RTVSPost2010Prop51ColorIndex
 90
      256
102
RTVSPost2010Prop51ColorRGB
 90
-16777216
102
RTVSPost2010PropOp51
 70
     0
102
RTVSPost2010Prop52
140
1.0
102
RTVSPost2010PropOp52
 70
     0
102
RTVSPost2010Prop53
 90
        2
102
RTVSPost2010PropOp53
 70
     1
102
RTVSPost2010Prop54
  1
strokes_ogs.tif
102
RTVSPost2010PropOp54
 70
     1
102
RTVSPost2010Prop55
280
     0
102
RTVSPost2010PropOp55
 70
     1
102
RTVSPost2010Prop56
140
1.0
102
RTVSPost2010PropOp56
 70
     1
102
RTVSPost2010Prop57
140
1.0
102
RTVSPost2010PropOp57
 70
     1
  0
XRECORD
  5
340
102
{ACAD_REACTORS
330
33F
102
}
330
33F
100
AcDbXrecord
280
     1
102
RTVSPost2010Prop28
280
     0
102
RTVSPost2010PropOp28
 70
     1
102
RTVSPost2010Prop29
280
     1
102
RTVSPost2010PropOp29
 70
     1
102
RTVSPost2010Prop30
280
     1
102
RTVSPost2010PropOp30
 70
     1
102
RTVSPost2010Prop31
280
     0
102
RTVSPost2010PropOp31
 70
     1
102
RTVSPost2010Prop32
280
     0
102
RTVSPost2010PropOp32
 70
     1
102
RTVSPost2010Prop33
280
     0
102
RTVSPost2010PropOp33
 70
     1
102
RTVSPost2010Prop34
280
     0
102
RTVSPost2010PropOp34
 70
     1
102
RTVSPost2010Prop35
280
     0
102
RTVSPost2010PropOp35
 70
     1
102
RTVSPost2010Prop36
280
     0
102
RTVSPost2010PropOp36
 70
     1
102
RTVSPost2010Prop37
 90
       50
102
RTVSPost2010PropOp37
 70
     1
102
RTVSPost2010Prop38
140
0.0
102
RTVSPost2010PropOp38
 70
     1
102
RTVSPost2010Prop39
140
1.0
102
RTVSPost2010PropOp39
 70
     1
102
RTVSPost2010Prop40
 90
        0
102
RTVSPost2010PropOp40
 70
     1
102
RTVSPost2010Prop41ColorIndex
 90
       18
102
RTVSPost2010Prop41ColorRGB
 90
        0
102
RTVSPost2010PropOp41
 70
     1
102
RTVSPost2010Prop42
 90
       50
102
RTVSPost2010PropOp42
 70
     1
102
RTVSPost2010Prop43
 90
        3
102
RTVSPost2010PropOp43
 70
     1
102
RTVSPost2010Prop44ColorIndex
 90
        5
102
RTVSPost2010Prop44ColorRGB
 90
      255
102
RTVSPost2010PropOp44
 70
     1
102
RTVSPost2010Prop45
280
     0
102
RTVSPost2010PropOp45
 70
     1
102
RTVSPost2010Prop46
 90
       50
102
RTVSPost2010PropOp46
 70
     1
102
RTVSPost2010Prop47
 90
       50
102
RTVSPost2010PropOp47
 70
     1
102
RTVSPost2010Prop48
 90
       50
102
RTVSPost2010PropOp48
 70
     1
102
RTVSPost2010Prop49
280
     0
102
RTVSPost2010PropOp49
 70
     1
102
RTVSPost2010Prop50
 90
       50
102
RTVSPost2010PropOp50
 70
     1
102
RTVSPost2010Prop51ColorIndex
 90
      256
102
RTVSPost2010Prop51ColorRGB
 90
-16777216
102
RTVSPost2010PropOp51
 70
     0
102
RTVSPost2010Prop52
140
1.0
102
RTVSPost2010PropOp52
 70
     0
102
RTVSPost2010Prop53
 90
        2
102
RTVSPost2010PropOp53
 70
     1
102
RTVSPost2010Prop54
  1
strokes_ogs.tif
102
RTVSPost2010PropOp54
 70
     1
102
RTVSPost2010Prop55
280
     0
102
RTVSPost2010PropOp55
 70
     1
102
RTVSPost2010Prop56
140
1.0
102
RTVSPost2010PropOp56
 70
     1
102
RTVSPost2010Prop57
140
1.0
102
RTVSPost2010PropOp57
 70
     1
  0
XRECORD
  5
334
102
{ACAD_REACTORS
330
333
102
}
330
333
100
AcDbXrecord
280
     1
102
RTVSPost2010Prop28
280
     0
102
RTVSPost2010PropOp28
 70
     1
102
RTVSPost2010Prop29
280
     1
102
RTVSPost2010PropOp29
 70
     1
102
RTVSPost2010Prop30
280
     1
102
RTVSPost2010PropOp30
 70
     1
102
RTVSPost2010Prop31
280
     0
102
RTVSPost2010PropOp31
 70
     1
102
RTVSPost2010Prop32
280
     0
102
RTVSPost2010PropOp32
 70
     1
102
RTVSPost2010Prop33
280
     0
102
RTVSPost2010PropOp33
 70
     1
102
RTVSPost2010Prop34
280
     0
102
RTVSPost2010PropOp34
 70
     1
102
RTVSPost2010Prop35
280
     0
102
RTVSPost2010PropOp35
 70
     1
102
RTVSPost2010Prop36
280
     0
102
RTVSPost2010PropOp36
 70
     1
102
RTVSPost2010Prop37
 90
       50
102
RTVSPost2010PropOp37
 70
     1
102
RTVSPost2010Prop38
140
0.0
102
RTVSPost2010PropOp38
 70
     1
102
RTVSPost2010Prop39
140
1.0
102
RTVSPost2010PropOp39
 70
     1
102
RTVSPost2010Prop40
 90
        0
102
RTVSPost2010PropOp40
 70
     1
102
RTVSPost2010Prop41ColorIndex
 90
       18
102
RTVSPost2010Prop41ColorRGB
 90
        0
102
RTVSPost2010PropOp41
 70
     1
102
RTVSPost2010Prop42
 90
       50
102
RTVSPost2010PropOp42
 70
     1
102
RTVSPost2010Prop43
 90
        3
102
RTVSPost2010PropOp43
 70
     1
102
RTVSPost2010Prop44ColorIndex
 90
        5
102
RTVSPost2010Prop44ColorRGB
 90
      255
102
RTVSPost2010PropOp44
 70
     1
102
RTVSPost2010Prop45
280
     0
102
RTVSPost2010PropOp45
 70
     1
102
RTVSPost2010Prop46
 90
       50
102
RTVSPost2010PropOp46
 70
     1
102
RTVSPost2010Prop47
 90
       50
102
RTVSPost2010PropOp47
 70
     1
102
RTVSPost2010Prop48
 90
       50
102
RTVSPost2010PropOp48
 70
     1
102
RTVSPost2010Prop49
280
     0
102
RTVSPost2010PropOp49
 70
     1
102
RTVSPost2010Prop50
 90
       50
102
RTVSPost2010PropOp50
 70
     1
102
RTVSPost2010Prop51ColorIndex
 90
      256
102
RTVSPost2010Prop51ColorRGB
 90
-16777216
102
RTVSPost2010PropOp51
 70
     0
102
RTVSPost2010Prop52
140
1.0
102
RTVSPost2010PropOp52
 70
     0
102
RTVSPost2010Prop53
 90
        2
102
RTVSPost2010PropOp53
 70
     1
102
RTVSPost2010Prop54
  1
strokes_ogs.tif
102
RTVSPost2010PropOp54
 70
     1
102
RTVSPost2010Prop55
280
     0
102
RTVSPost2010PropOp55
 70
     1
102
RTVSPost2010Prop56
140
1.0
102
RTVSPost2010PropOp56
 70
     1
102
RTVSPost2010Prop57
140
1.0
102
RTVSPost2010PropOp57
 70
     1
  0
XRECORD
  5
336
102
{ACAD_REACTORS
330
335
102
}
330
335
100
AcDbXrecord
280
     1
102
RTVSPost2010Prop28
280
     0
102
RTVSPost2010PropOp28
 70
     1
102
RTVSPost2010Prop29
280
     1
102
RTVSPost2010PropOp29
 70
     1
102
RTVSPost2010Prop30
280
     1
102
RTVSPost2010PropOp30
 70
     1
102
RTVSPost2010Prop31
280
     0
102
RTVSPost2010PropOp31
 70
     1
102
RTVSPost2010Prop32
280
     0
102
RTVSPost2010PropOp32
 70
     1
102
RTVSPost2010Prop33
280
     0
102
RTVSPost2010PropOp33
 70
     1
102
RTVSPost2010Prop34
280
     0
102
RTVSPost2010PropOp34
 70
     1
102
RTVSPost2010Prop35
280
     0
102
RTVSPost2010PropOp35
 70
     1
102
RTVSPost2010Prop36
280
     0
102
RTVSPost2010PropOp36
 70
     1
102
RTVSPost2010Prop37
 90
       50
102
RTVSPost2010PropOp37
 70
     1
102
RTVSPost2010Prop38
140
0.0
102
RTVSPost2010PropOp38
 70
     1
102
RTVSPost2010Prop39
140
1.0
102
RTVSPost2010PropOp39
 70
     1
102
RTVSPost2010Prop40
 90
        0
102
RTVSPost2010PropOp40
 70
     1
102
RTVSPost2010Prop41ColorIndex
 90
       18
102
RTVSPost2010Prop41ColorRGB
 90
        0
102
RTVSPost2010PropOp41
 70
     1
102
RTVSPost2010Prop42
 90
       50
102
RTVSPost2010PropOp42
 70
     1
102
RTVSPost2010Prop43
 90
        3
102
RTVSPost2010PropOp43
 70
     1
102
RTVSPost2010Prop44ColorIndex
 90
        5
102
RTVSPost2010Prop44ColorRGB
 90
      255
102
RTVSPost2010PropOp44
 70
     1
102
RTVSPost2010Prop45
280
     0
102
RTVSPost2010PropOp45
 70
     1
102
RTVSPost2010Prop46
 90
       50
102
RTVSPost2010PropOp46
 70
     1
102
RTVSPost2010Prop47
 90
       50
102
RTVSPost2010PropOp47
 70
     1
102
RTVSPost2010Prop48
 90
       50
102
RTVSPost2010PropOp48
 70
     1
102
RTVSPost2010Prop49
280
     0
102
RTVSPost2010PropOp49
 70
     1
102
RTVSPost2010Prop50
 90
       50
102
RTVSPost2010PropOp50
 70
     1
102
RTVSPost2010Prop51ColorIndex
 90
      256
102
RTVSPost2010Prop51ColorRGB
 90
-16777216
102
RTVSPost2010PropOp51
 70
     0
102
RTVSPost2010Prop52
140
1.0
102
RTVSPost2010PropOp52
 70
     0
102
RTVSPost2010Prop53
 90
        2
102
RTVSPost2010PropOp53
 70
     1
102
RTVSPost2010Prop54
  1
strokes_ogs.tif
102
RTVSPost2010PropOp54
 70
     1
102
RTVSPost2010Prop55
280
     0
102
RTVSPost2010PropOp55
 70
     1
102
RTVSPost2010Prop56
140
1.0
102
RTVSPost2010PropOp56
 70
     1
102
RTVSPost2010Prop57
140
1.0
102
RTVSPost2010PropOp57
 70
     1
  0
XRECORD
  5
346
102
{ACAD_REACTORS
330
345
102
}
330
345
100
AcDbXrecord
280
     1
102
RTVSPost2010Prop28
280
     0
102
RTVSPost2010PropOp28
 70
     0
102
RTVSPost2010Prop29
280
     1
102
RTVSPost2010PropOp29
 70
     0
102
RTVSPost2010Prop30
280
     1
102
RTVSPost2010PropOp30
 70
     0
102
RTVSPost2010Prop31
280
     0
102
RTVSPost2010PropOp31
 70
     0
102
RTVSPost2010Prop32
280
     0
102
RTVSPost2010PropOp32
 70
     0
102
RTVSPost2010Prop33
280
     0
102
RTVSPost2010PropOp33
 70
     0
102
RTVSPost2010Prop34
280
     0
102
RTVSPost2010PropOp34
 70
     0
102
RTVSPost2010Prop35
280
     0
102
RTVSPost2010PropOp35
 70
     0
102
RTVSPost2010Prop36
280
     0
102
RTVSPost2010PropOp36
 70
     0
102
RTVSPost2010Prop37
 90
       50
102
RTVSPost2010PropOp37
 70
     0
102
RTVSPost2010Prop38
140
0.0
102
RTVSPost2010PropOp38
 70
     0
102
RTVSPost2010Prop39
140
1.0
102
RTVSPost2010PropOp39
 70
     0
102
RTVSPost2010Prop40
 90
        0
102
RTVSPost2010PropOp40
 70
     0
102
RTVSPost2010Prop41ColorIndex
 90
       18
102
RTVSPost2010Prop41ColorRGB
 90
        0
102
RTVSPost2010PropOp41
 70
     0
102
RTVSPost2010Prop42
 90
       50
102
RTVSPost2010PropOp42
 70
     0
102
RTVSPost2010Prop43
 90
        3
102
RTVSPost2010PropOp43
 70
     0
102
RTVSPost2010Prop44ColorIndex
 90
        5
102
RTVSPost2010Prop44ColorRGB
 90
      255
102
RTVSPost2010PropOp44
 70
     0
102
RTVSPost2010Prop45
280
     0
102
RTVSPost2010PropOp45
 70
     0
102
RTVSPost2010Prop46
 90
       50
102
RTVSPost2010PropOp46
 70
     0
102
RTVSPost2010Prop47
 90
       50
102
RTVSPost2010PropOp47
 70
     0
102
RTVSPost2010Prop48
 90
       50
102
RTVSPost2010PropOp48
 70
     0
102
RTVSPost2010Prop49
280
     0
102
RTVSPost2010PropOp49
 70
     0
102
RTVSPost2010Prop50
 90
       50
102
RTVSPost2010PropOp50
 70
     0
102
RTVSPost2010Prop51ColorIndex
 90
      256
102
RTVSPost2010Prop51ColorRGB
 90
-16777216
102
RTVSPost2010PropOp51
 70
     0
102
RTVSPost2010Prop52
140
1.0
102
RTVSPost2010PropOp52
 70
     0
102
RTVSPost2010Prop53
 90
        2
102
RTVSPost2010PropOp53
 70
     0
102
RTVSPost2010Prop54
  1
strokes_ogs.tif
102
RTVSPost2010PropOp54
 70
     0
102
RTVSPost2010Prop55
280
     0
102
RTVSPost2010PropOp55
 70
     0
102
RTVSPost2010Prop56
140
1.0
102
RTVSPost2010PropOp56
 70
     0
102
RTVSPost2010Prop57
140
1.0
102
RTVSPost2010PropOp57
 70
     0
  0
XRECORD
  5
33E
102
{ACAD_REACTORS
330
33D
102
}
330
33D
100
AcDbXrecord
280
     1
102
RTVSPost2010Prop28
280
     0
102
RTVSPost2010PropOp28
 70
     1
102
RTVSPost2010Prop29
280
     1
102
RTVSPost2010PropOp29
 70
     1
102
RTVSPost2010Prop30
280
     1
102
RTVSPost2010PropOp30
 70
     1
102
RTVSPost2010Prop31
280
     0
102
RTVSPost2010PropOp31
 70
     1
102
RTVSPost2010Prop32
280
     0
102
RTVSPost2010PropOp32
 70
     1
102
RTVSPost2010Prop33
280
     0
102
RTVSPost2010PropOp33
 70
     1
102
RTVSPost2010Prop34
280
     0
102
RTVSPost2010PropOp34
 70
     1
102
RTVSPost2010Prop35
280
     0
102
RTVSPost2010PropOp35
 70
     1
102
RTVSPost2010Prop36
280
     0
102
RTVSPost2010PropOp36
 70
     1
102
RTVSPost2010Prop37
 90
       50
102
RTVSPost2010PropOp37
 70
     1
102
RTVSPost2010Prop38
140
0.0
102
RTVSPost2010PropOp38
 70
     1
102
RTVSPost2010Prop39
140
1.0
102
RTVSPost2010PropOp39
 70
     1
102
RTVSPost2010Prop40
 90
        0
102
RTVSPost2010PropOp40
 70
     1
102
RTVSPost2010Prop41ColorIndex
 90
       18
102
RTVSPost2010Prop41ColorRGB
 90
        0
102
RTVSPost2010PropOp41
 70
     1
102
RTVSPost2010Prop42
 90
       50
102
RTVSPost2010PropOp42
 70
     1
102
RTVSPost2010Prop43
 90
        3
102
RTVSPost2010PropOp43
 70
     1
102
RTVSPost2010Prop44ColorIndex
 90
        5
102
RTVSPost2010Prop44ColorRGB
 90
      255
102
RTVSPost2010PropOp44
 70
     1
102
RTVSPost2010Prop45
280
     0
102
RTVSPost2010PropOp45
 70
     1
102
RTVSPost2010Prop46
 90
       50
102
RTVSPost2010PropOp46
 70
     1
102
RTVSPost2010Prop47
 90
       50
102
RTVSPost2010PropOp47
 70
     1
102
RTVSPost2010Prop48
 90
       50
102
RTVSPost2010PropOp48
 70
     1
102
RTVSPost2010Prop49
280
     0
102
RTVSPost2010PropOp49
 70
     1
102
RTVSPost2010Prop50
 90
       50
102
RTVSPost2010PropOp50
 70
     1
102
RTVSPost2010Prop51ColorIndex
 90
      256
102
RTVSPost2010Prop51ColorRGB
 90
-16777216
102
RTVSPost2010PropOp51
 70
     0
102
RTVSPost2010Prop52
140
1.0
102
RTVSPost2010PropOp52
 70
     0
102
RTVSPost2010Prop53
 90
        2
102
RTVSPost2010PropOp53
 70
     1
102
RTVSPost2010Prop54
  1
strokes_ogs.tif
102
RTVSPost2010PropOp54
 70
     1
102
RTVSPost2010Prop55
280
     0
102
RTVSPost2010PropOp55
 70
     1
102
RTVSPost2010Prop56
140
1.0
102
RTVSPost2010PropOp56
 70
     1
102
RTVSPost2010Prop57
140
1.0
102
RTVSPost2010PropOp57
 70
     1
  0
XRECORD
  5
322
102
{ACAD_REACTORS
330
321
102
}
330
321
100
AcDbXrecord
280
     1
102
RTVSPost2010Prop28
280
     0
102
RTVSPost2010PropOp28
 70
     1
102
RTVSPost2010Prop29
280
     1
102
RTVSPost2010PropOp29
 70
     1
102
RTVSPost2010Prop30
280
     1
102
RTVSPost2010PropOp30
 70
     1
102
RTVSPost2010Prop31
280
     0
102
RTVSPost2010PropOp31
 70
     1
102
RTVSPost2010Prop32
280
     0
102
RTVSPost2010PropOp32
 70
     1
102
RTVSPost2010Prop33
280
     0
102
RTVSPost2010PropOp33
 70
     1
102
RTVSPost2010Prop34
280
     0
102
RTVSPost2010PropOp34
 70
     1
102
RTVSPost2010Prop35
280
     0
102
RTVSPost2010PropOp35
 70
     1
102
RTVSPost2010Prop36
280
     0
102
RTVSPost2010PropOp36
 70
     1
102
RTVSPost2010Prop37
 90
       50
102
RTVSPost2010PropOp37
 70
     1
102
RTVSPost2010Prop38
140
0.0
102
RTVSPost2010PropOp38
 70
     1
102
RTVSPost2010Prop39
140
1.0
102
RTVSPost2010PropOp39
 70
     1
102
RTVSPost2010Prop40
 90
        0
102
RTVSPost2010PropOp40
 70
     1
102
RTVSPost2010Prop41ColorIndex
 90
       18
102
RTVSPost2010Prop41ColorRGB
 90
        0
102
RTVSPost2010PropOp41
 70
     1
102
RTVSPost2010Prop42
 90
       50
102
RTVSPost2010PropOp42
 70
     1
102
RTVSPost2010Prop43
 90
        3
102
RTVSPost2010PropOp43
 70
     1
102
RTVSPost2010Prop44ColorIndex
 90
        5
102
RTVSPost2010Prop44ColorRGB
 90
      255
102
RTVSPost2010PropOp44
 70
     1
102
RTVSPost2010Prop45
280
     0
102
RTVSPost2010PropOp45
 70
     1
102
RTVSPost2010Prop46
 90
       50
102
RTVSPost2010PropOp46
 70
     1
102
RTVSPost2010Prop47
 90
       50
102
RTVSPost2010PropOp47
 70
     1
102
RTVSPost2010Prop48
 90
       50
102
RTVSPost2010PropOp48
 70
     1
102
RTVSPost2010Prop49
280
     0
102
RTVSPost2010PropOp49
 70
     1
102
RTVSPost2010Prop50
 90
       50
102
RTVSPost2010PropOp50
 70
     1
102
RTVSPost2010Prop51ColorIndex
 90
      256
102
RTVSPost2010Prop51ColorRGB
 90
-16777216
102
RTVSPost2010PropOp51
 70
     0
102
RTVSPost2010Prop52
140
1.0
102
RTVSPost2010PropOp52
 70
     0
102
RTVSPost2010Prop53
 90
        2
102
RTVSPost2010PropOp53
 70
     1
102
RTVSPost2010Prop54
  1
strokes_ogs.tif
102
RTVSPost2010PropOp54
 70
     1
102
RTVSPost2010Prop55
280
     0
102
RTVSPost2010PropOp55
 70
     1
102
RTVSPost2010Prop56
140
1.0
102
RTVSPost2010PropOp56
 70
     1
102
RTVSPost2010Prop57
140
1.0
102
RTVSPost2010PropOp57
 70
     1
  0
XRECORD
  5
324
102
{ACAD_REACTORS
330
323
102
}
330
323
100
AcDbXrecord
280
     1
102
RTVSPost2010Prop28
280
     0
102
RTVSPost2010PropOp28
 70
     1
102
RTVSPost2010Prop29
280
     1
102
RTVSPost2010PropOp29
 70
     1
102
RTVSPost2010Prop30
280
     1
102
RTVSPost2010PropOp30
 70
     1
102
RTVSPost2010Prop31
280
     0
102
RTVSPost2010PropOp31
 70
     1
102
RTVSPost2010Prop32
280
     0
102
RTVSPost2010PropOp32
 70
     1
102
RTVSPost2010Prop33
280
     0
102
RTVSPost2010PropOp33
 70
     1
102
RTVSPost2010Prop34
280
     0
102
RTVSPost2010PropOp34
 70
     1
102
RTVSPost2010Prop35
280
     0
102
RTVSPost2010PropOp35
 70
     1
102
RTVSPost2010Prop36
280
     0
102
RTVSPost2010PropOp36
 70
     1
102
RTVSPost2010Prop37
 90
       50
102
RTVSPost2010PropOp37
 70
     1
102
RTVSPost2010Prop38
140
0.0
102
RTVSPost2010PropOp38
 70
     1
102
RTVSPost2010Prop39
140
1.0
102
RTVSPost2010PropOp39
 70
     1
102
RTVSPost2010Prop40
 90
        0
102
RTVSPost2010PropOp40
 70
     1
102
RTVSPost2010Prop41ColorIndex
 90
       18
102
RTVSPost2010Prop41ColorRGB
 90
        0
102
RTVSPost2010PropOp41
 70
     1
102
RTVSPost2010Prop42
 90
       50
102
RTVSPost2010PropOp42
 70
     1
102
RTVSPost2010Prop43
 90
        3
102
RTVSPost2010PropOp43
 70
     1
102
RTVSPost2010Prop44ColorIndex
 90
        5
102
RTVSPost2010Prop44ColorRGB
 90
      255
102
RTVSPost2010PropOp44
 70
     1
102
RTVSPost2010Prop45
280
     0
102
RTVSPost2010PropOp45
 70
     1
102
RTVSPost2010Prop46
 90
       50
102
RTVSPost2010PropOp46
 70
     1
102
RTVSPost2010Prop47
 90
       50
102
RTVSPost2010PropOp47
 70
     1
102
RTVSPost2010Prop48
 90
       50
102
RTVSPost2010PropOp48
 70
     1
102
RTVSPost2010Prop49
280
     0
102
RTVSPost2010PropOp49
 70
     1
102
RTVSPost2010Prop50
 90
       50
102
RTVSPost2010PropOp50
 70
     1
102
RTVSPost2010Prop51ColorIndex
 90
      256
102
RTVSPost2010Prop51ColorRGB
 90
-16777216
102
RTVSPost2010PropOp51
 70
     0
102
RTVSPost2010Prop52
140
1.0
102
RTVSPost2010PropOp52
 70
     0
102
RTVSPost2010Prop53
 90
        2
102
RTVSPost2010PropOp53
 70
     1
102
RTVSPost2010Prop54
  1
strokes_ogs.tif
102
RTVSPost2010PropOp54
 70
     1
102
RTVSPost2010Prop55
280
     0
102
RTVSPost2010PropOp55
 70
     1
102
RTVSPost2010Prop56
140
1.0
102
RTVSPost2010PropOp56
 70
     1
102
RTVSPost2010Prop57
140
1.0
102
RTVSPost2010PropOp57
 70
     1
  0
XRECORD
  5
326
102
{ACAD_REACTORS
330
325
102
}
330
325
100
AcDbXrecord
280
     1
102
RTVSPost2010Prop28
280
     0
102
RTVSPost2010PropOp28
 70
     1
102
RTVSPost2010Prop29
280
     1
102
RTVSPost2010PropOp29
 70
     1
102
RTVSPost2010Prop30
280
     1
102
RTVSPost2010PropOp30
 70
     1
102
RTVSPost2010Prop31
280
     0
102
RTVSPost2010PropOp31
 70
     1
102
RTVSPost2010Prop32
280
     0
102
RTVSPost2010PropOp32
 70
     1
102
RTVSPost2010Prop33
280
     0
102
RTVSPost2010PropOp33
 70
     1
102
RTVSPost2010Prop34
280
     0
102
RTVSPost2010PropOp34
 70
     1
102
RTVSPost2010Prop35
280
     0
102
RTVSPost2010PropOp35
 70
     1
102
RTVSPost2010Prop36
280
     0
102
RTVSPost2010PropOp36
 70
     1
102
RTVSPost2010Prop37
 90
       50
102
RTVSPost2010PropOp37
 70
     1
102
RTVSPost2010Prop38
140
0.0
102
RTVSPost2010PropOp38
 70
     1
102
RTVSPost2010Prop39
140
1.0
102
RTVSPost2010PropOp39
 70
     1
102
RTVSPost2010Prop40
 90
        0
102
RTVSPost2010PropOp40
 70
     1
102
RTVSPost2010Prop41ColorIndex
 90
       18
102
RTVSPost2010Prop41ColorRGB
 90
        0
102
RTVSPost2010PropOp41
 70
     1
102
RTVSPost2010Prop42
 90
       50
102
RTVSPost2010PropOp42
 70
     1
102
RTVSPost2010Prop43
 90
        3
102
RTVSPost2010PropOp43
 70
     1
102
RTVSPost2010Prop44ColorIndex
 90
        5
102
RTVSPost2010Prop44ColorRGB
 90
      255
102
RTVSPost2010PropOp44
 70
     1
102
RTVSPost2010Prop45
280
     0
102
RTVSPost2010PropOp45
 70
     1
102
RTVSPost2010Prop46
 90
       50
102
RTVSPost2010PropOp46
 70
     1
102
RTVSPost2010Prop47
 90
       50
102
RTVSPost2010PropOp47
 70
     1
102
RTVSPost2010Prop48
 90
       50
102
RTVSPost2010PropOp48
 70
     1
102
RTVSPost2010Prop49
280
     0
102
RTVSPost2010PropOp49
 70
     1
102
RTVSPost2010Prop50
 90
       50
102
RTVSPost2010PropOp50
 70
     1
102
RTVSPost2010Prop51ColorIndex
 90
      256
102
RTVSPost2010Prop51ColorRGB
 90
-16777216
102
RTVSPost2010PropOp51
 70
     0
102
RTVSPost2010Prop52
140
1.0
102
RTVSPost2010PropOp52
 70
     0
102
RTVSPost2010Prop53
 90
        2
102
RTVSPost2010PropOp53
 70
     1
102
RTVSPost2010Prop54
  1
strokes_ogs.tif
102
RTVSPost2010PropOp54
 70
     1
102
RTVSPost2010Prop55
280
     0
102
RTVSPost2010PropOp55
 70
     1
102
RTVSPost2010Prop56
140
1.0
102
RTVSPost2010PropOp56
 70
     1
102
RTVSPost2010Prop57
140
1.0
102
RTVSPost2010PropOp57
 70
     1
  0
XRECORD
  5
328
102
{ACAD_REACTORS
330
327
102
}
330
327
100
AcDbXrecord
280
     1
102
RTVSPost2010Prop28
280
     0
102
RTVSPost2010PropOp28
 70
     1
102
RTVSPost2010Prop29
280
     1
102
RTVSPost2010PropOp29
 70
     1
102
RTVSPost2010Prop30
280
     1
102
RTVSPost2010PropOp30
 70
     1
102
RTVSPost2010Prop31
280
     0
102
RTVSPost2010PropOp31
 70
     1
102
RTVSPost2010Prop32
280
     0
102
RTVSPost2010PropOp32
 70
     1
102
RTVSPost2010Prop33
280
     0
102
RTVSPost2010PropOp33
 70
     1
102
RTVSPost2010Prop34
280
     0
102
RTVSPost2010PropOp34
 70
     1
102
RTVSPost2010Prop35
280
     0
102
RTVSPost2010PropOp35
 70
     1
102
RTVSPost2010Prop36
280
     0
102
RTVSPost2010PropOp36
 70
     1
102
RTVSPost2010Prop37
 90
       50
102
RTVSPost2010PropOp37
 70
     1
102
RTVSPost2010Prop38
140
0.0
102
RTVSPost2010PropOp38
 70
     1
102
RTVSPost2010Prop39
140
1.0
102
RTVSPost2010PropOp39
 70
     1
102
RTVSPost2010Prop40
 90
        0
102
RTVSPost2010PropOp40
 70
     1
102
RTVSPost2010Prop41ColorIndex
 90
       18
102
RTVSPost2010Prop41ColorRGB
 90
        0
102
RTVSPost2010PropOp41
 70
     1
102
RTVSPost2010Prop42
 90
       50
102
RTVSPost2010PropOp42
 70
     1
102
RTVSPost2010Prop43
 90
        3
102
RTVSPost2010PropOp43
 70
     1
102
RTVSPost2010Prop44ColorIndex
 90
        5
102
RTVSPost2010Prop44ColorRGB
 90
      255
102
RTVSPost2010PropOp44
 70
     1
102
RTVSPost2010Prop45
280
     0
102
RTVSPost2010PropOp45
 70
     1
102
RTVSPost2010Prop46
 90
       50
102
RTVSPost2010PropOp46
 70
     1
102
RTVSPost2010Prop47
 90
       50
102
RTVSPost2010PropOp47
 70
     1
102
RTVSPost2010Prop48
 90
       50
102
RTVSPost2010PropOp48
 70
     1
102
RTVSPost2010Prop49
280
     0
102
RTVSPost2010PropOp49
 70
     1
102
RTVSPost2010Prop50
 90
       50
102
RTVSPost2010PropOp50
 70
     1
102
RTVSPost2010Prop51ColorIndex
 90
      256
102
RTVSPost2010Prop51ColorRGB
 90
-16777216
102
RTVSPost2010PropOp51
 70
     0
102
RTVSPost2010Prop52
140
1.0
102
RTVSPost2010PropOp52
 70
     0
102
RTVSPost2010Prop53
 90
        2
102
RTVSPost2010PropOp53
 70
     1
102
RTVSPost2010Prop54
  1
strokes_ogs.tif
102
RTVSPost2010PropOp54
 70
     1
102
RTVSPost2010Prop55
280
     0
102
RTVSPost2010PropOp55
 70
     1
102
RTVSPost2010Prop56
140
1.0
102
RTVSPost2010PropOp56
 70
     1
102
RTVSPost2010Prop57
140
1.0
102
RTVSPost2010PropOp57
 70
     1
  0
XRECORD
  5
32E
102
{ACAD_REACTORS
330
32D
102
}
330
32D
100
AcDbXrecord
280
     1
102
RTVSPost2010Prop28
280
     0
102
RTVSPost2010PropOp28
 70
     1
102
RTVSPost2010Prop29
280
     1
102
RTVSPost2010PropOp29
 70
     1
102
RTVSPost2010Prop30
280
     1
102
RTVSPost2010PropOp30
 70
     1
102
RTVSPost2010Prop31
280
     0
102
RTVSPost2010PropOp31
 70
     1
102
RTVSPost2010Prop32
280
     0
102
RTVSPost2010PropOp32
 70
     1
102
RTVSPost2010Prop33
280
     0
102
RTVSPost2010PropOp33
 70
     1
102
RTVSPost2010Prop34
280
     0
102
RTVSPost2010PropOp34
 70
     1
102
RTVSPost2010Prop35
280
     0
102
RTVSPost2010PropOp35
 70
     1
102
RTVSPost2010Prop36
280
     0
102
RTVSPost2010PropOp36
 70
     1
102
RTVSPost2010Prop37
 90
       50
102
RTVSPost2010PropOp37
 70
     1
102
RTVSPost2010Prop38
140
0.0
102
RTVSPost2010PropOp38
 70
     1
102
RTVSPost2010Prop39
140
1.0
102
RTVSPost2010PropOp39
 70
     1
102
RTVSPost2010Prop40
 90
        0
102
RTVSPost2010PropOp40
 70
     1
102
RTVSPost2010Prop41ColorIndex
 90
       18
102
RTVSPost2010Prop41ColorRGB
 90
        0
102
RTVSPost2010PropOp41
 70
     1
102
RTVSPost2010Prop42
 90
       50
102
RTVSPost2010PropOp42
 70
     1
102
RTVSPost2010Prop43
 90
        3
102
RTVSPost2010PropOp43
 70
     1
102
RTVSPost2010Prop44ColorIndex
 90
        5
102
RTVSPost2010Prop44ColorRGB
 90
      255
102
RTVSPost2010PropOp44
 70
     1
102
RTVSPost2010Prop45
280
     0
102
RTVSPost2010PropOp45
 70
     1
102
RTVSPost2010Prop46
 90
       50
102
RTVSPost2010PropOp46
 70
     1
102
RTVSPost2010Prop47
 90
       50
102
RTVSPost2010PropOp47
 70
     1
102
RTVSPost2010Prop48
 90
       50
102
RTVSPost2010PropOp48
 70
     1
102
RTVSPost2010Prop49
280
     0
102
RTVSPost2010PropOp49
 70
     1
102
RTVSPost2010Prop50
 90
       50
102
RTVSPost2010PropOp50
 70
     1
102
RTVSPost2010Prop51ColorIndex
 90
      256
102
RTVSPost2010Prop51ColorRGB
 90
-16777216
102
RTVSPost2010PropOp51
 70
     0
102
RTVSPost2010Prop52
140
1.0
102
RTVSPost2010PropOp52
 70
     0
102
RTVSPost2010Prop53
 90
        2
102
RTVSPost2010PropOp53
 70
     1
102
RTVSPost2010Prop54
  1
strokes_ogs.tif
102
RTVSPost2010PropOp54
 70
     1
102
RTVSPost2010Prop55
280
     0
102
RTVSPost2010PropOp55
 70
     1
102
RTVSPost2010Prop56
140
1.0
102
RTVSPost2010PropOp56
 70
     1
102
RTVSPost2010Prop57
140
1.0
102
RTVSPost2010PropOp57
 70
     1
  0
XRECORD
  5
342
102
{ACAD_REACTORS
330
341
102
}
330
341
100
AcDbXrecord
280
     1
102
RTVSPost2010Prop28
280
     0
102
RTVSPost2010PropOp28
 70
     0
102
RTVSPost2010Prop29
280
     1
102
RTVSPost2010PropOp29
 70
     0
102
RTVSPost2010Prop30
280
     1
102
RTVSPost2010PropOp30
 70
     0
102
RTVSPost2010Prop31
280
     0
102
RTVSPost2010PropOp31
 70
     0
102
RTVSPost2010Prop32
280
     0
102
RTVSPost2010PropOp32
 70
     0
102
RTVSPost2010Prop33
280
     0
102
RTVSPost2010PropOp33
 70
     0
102
RTVSPost2010Prop34
280
     0
102
RTVSPost2010PropOp34
 70
     0
102
RTVSPost2010Prop35
280
     0
102
RTVSPost2010PropOp35
 70
     0
102
RTVSPost2010Prop36
280
     0
102
RTVSPost2010PropOp36
 70
     0
102
RTVSPost2010Prop37
 90
       50
102
RTVSPost2010PropOp37
 70
     0
102
RTVSPost2010Prop38
140
0.0
102
RTVSPost2010PropOp38
 70
     0
102
RTVSPost2010Prop39
140
1.0
102
RTVSPost2010PropOp39
 70
     0
102
RTVSPost2010Prop40
 90
        0
102
RTVSPost2010PropOp40
 70
     0
102
RTVSPost2010Prop41ColorIndex
 90
       18
102
RTVSPost2010Prop41ColorRGB
 90
        0
102
RTVSPost2010PropOp41
 70
     0
102
RTVSPost2010Prop42
 90
       50
102
RTVSPost2010PropOp42
 70
     0
102
RTVSPost2010Prop43
 90
        3
102
RTVSPost2010PropOp43
 70
     0
102
RTVSPost2010Prop44ColorIndex
 90
        5
102
RTVSPost2010Prop44ColorRGB
 90
      255
102
RTVSPost2010PropOp44
 70
     0
102
RTVSPost2010Prop45
280
     0
102
RTVSPost2010PropOp45
 70
     0
102
RTVSPost2010Prop46
 90
       50
102
RTVSPost2010PropOp46
 70
     0
102
RTVSPost2010Prop47
 90
       50
102
RTVSPost2010PropOp47
 70
     0
102
RTVSPost2010Prop48
 90
       50
102
RTVSPost2010PropOp48
 70
     0
102
RTVSPost2010Prop49
280
     0
102
RTVSPost2010PropOp49
 70
     0
102
RTVSPost2010Prop50
 90
       50
102
RTVSPost2010PropOp50
 70
     0
102
RTVSPost2010Prop51ColorIndex
 90
      256
102
RTVSPost2010Prop51ColorRGB
 90
-16777216
102
RTVSPost2010PropOp51
 70
     0
102
RTVSPost2010Prop52
140
1.0
102
RTVSPost2010PropOp52
 70
     0
102
RTVSPost2010Prop53
 90
        2
102
RTVSPost2010PropOp53
 70
     0
102
RTVSPost2010Prop54
  1
strokes_ogs.tif
102
RTVSPost2010PropOp54
 70
     0
102
RTVSPost2010Prop55
280
     0
102
RTVSPost2010PropOp55
 70
     0
102
RTVSPost2010Prop56
140
1.0
102
RTVSPost2010PropOp56
 70
     0
102
RTVSPost2010Prop57
140
1.0
102
RTVSPost2010PropOp57
 70
     0
  0
XRECORD
  5
33C
102
{ACAD_REACTORS
330
33B
102
}
330
33B
100
AcDbXrecord
280
     1
102
RTVSPost2010Prop28
280
     0
102
RTVSPost2010PropOp28
 70
     1
102
RTVSPost2010Prop29
280
     1
102
RTVSPost2010PropOp29
 70
     1
102
RTVSPost2010Prop30
280
     1
102
RTVSPost2010PropOp30
 70
     1
102
RTVSPost2010Prop31
280
     0
102
RTVSPost2010PropOp31
 70
     1
102
RTVSPost2010Prop32
280
     0
102
RTVSPost2010PropOp32
 70
     1
102
RTVSPost2010Prop33
280
     0
102
RTVSPost2010PropOp33
 70
     1
102
RTVSPost2010Prop34
280
     0
102
RTVSPost2010PropOp34
 70
     1
102
RTVSPost2010Prop35
280
     0
102
RTVSPost2010PropOp35
 70
     1
102
RTVSPost2010Prop36
280
     0
102
RTVSPost2010PropOp36
 70
     1
102
RTVSPost2010Prop37
 90
       50
102
RTVSPost2010PropOp37
 70
     1
102
RTVSPost2010Prop38
140
0.0
102
RTVSPost2010PropOp38
 70
     1
102
RTVSPost2010Prop39
140
1.0
102
RTVSPost2010PropOp39
 70
     1
102
RTVSPost2010Prop40
 90
        0
102
RTVSPost2010PropOp40
 70
     1
102
RTVSPost2010Prop41ColorIndex
 90
       18
102
RTVSPost2010Prop41ColorRGB
 90
        0
102
RTVSPost2010PropOp41
 70
     1
102
RTVSPost2010Prop42
 90
       50
102
RTVSPost2010PropOp42
 70
     1
102
RTVSPost2010Prop43
 90
        3
102
RTVSPost2010PropOp43
 70
     1
102
RTVSPost2010Prop44ColorIndex
 90
        5
102
RTVSPost2010Prop44ColorRGB
 90
      255
102
RTVSPost2010PropOp44
 70
     1
102
RTVSPost2010Prop45
280
     0
102
RTVSPost2010PropOp45
 70
     1
102
RTVSPost2010Prop46
 90
       50
102
RTVSPost2010PropOp46
 70
     1
102
RTVSPost2010Prop47
 90
       50
102
RTVSPost2010PropOp47
 70
     1
102
RTVSPost2010Prop48
 90
       50
102
RTVSPost2010PropOp48
 70
     1
102
RTVSPost2010Prop49
280
     0
102
RTVSPost2010PropOp49
 70
     1
102
RTVSPost2010Prop50
 90
       50
102
RTVSPost2010PropOp50
 70
     1
102
RTVSPost2010Prop51ColorIndex
 90
      256
102
RTVSPost2010Prop51ColorRGB
 90
-16777216
102
RTVSPost2010PropOp51
 70
     0
102
RTVSPost2010Prop52
140
1.0
102
RTVSPost2010PropOp52
 70
     0
102
RTVSPost2010Prop53
 90
        2
102
RTVSPost2010PropOp53
 70
     1
102
RTVSPost2010Prop54
  1
strokes_ogs.tif
102
RTVSPost2010PropOp54
 70
     1
102
RTVSPost2010Prop55
280
     0
102
RTVSPost2010PropOp55
 70
     1
102
RTVSPost2010Prop56
140
1.0
102
RTVSPost2010PropOp56
 70
     1
102
RTVSPost2010Prop57
140
1.0
102
RTVSPost2010PropOp57
 70
     1
  0
XRECORD
  5
344
102
{ACAD_REACTORS
330
343
102
}
330
343
100
AcDbXrecord
280
     1
102
RTVSPost2010Prop28
280
     0
102
RTVSPost2010PropOp28
 70
     0
102
RTVSPost2010Prop29
280
     1
102
RTVSPost2010PropOp29
 70
     0
102
RTVSPost2010Prop30
280
     1
102
RTVSPost2010PropOp30
 70
     0
102
RTVSPost2010Prop31
280
     0
102
RTVSPost2010PropOp31
 70
     0
102
RTVSPost2010Prop32
280
     0
102
RTVSPost2010PropOp32
 70
     0
102
RTVSPost2010Prop33
280
     0
102
RTVSPost2010PropOp33
 70
     0
102
RTVSPost2010Prop34
280
     0
102
RTVSPost2010PropOp34
 70
     0
102
RTVSPost2010Prop35
280
     0
102
RTVSPost2010PropOp35
 70
     0
102
RTVSPost2010Prop36
280
     0
102
RTVSPost2010PropOp36
 70
     0
102
RTVSPost2010Prop37
 90
       50
102
RTVSPost2010PropOp37
 70
     0
102
RTVSPost2010Prop38
140
0.0
102
RTVSPost2010PropOp38
 70
     0
102
RTVSPost2010Prop39
140
1.0
102
RTVSPost2010PropOp39
 70
     0
102
RTVSPost2010Prop40
 90
        0
102
RTVSPost2010PropOp40
 70
     0
102
RTVSPost2010Prop41ColorIndex
 90
       18
102
RTVSPost2010Prop41ColorRGB
 90
        0
102
RTVSPost2010PropOp41
 70
     0
102
RTVSPost2010Prop42
 90
       50
102
RTVSPost2010PropOp42
 70
     0
102
RTVSPost2010Prop43
 90
        3
102
RTVSPost2010PropOp43
 70
     0
102
RTVSPost2010Prop44ColorIndex
 90
        5
102
RTVSPost2010Prop44ColorRGB
 90
      255
102
RTVSPost2010PropOp44
 70
     0
102
RTVSPost2010Prop45
280
     0
102
RTVSPost2010PropOp45
 70
     0
102
RTVSPost2010Prop46
 90
       50
102
RTVSPost2010PropOp46
 70
     0
102
RTVSPost2010Prop47
 90
       50
102
RTVSPost2010PropOp47
 70
     0
102
RTVSPost2010Prop48
 90
       50
102
RTVSPost2010PropOp48
 70
     0
102
RTVSPost2010Prop49
280
     0
102
RTVSPost2010PropOp49
 70
     0
102
RTVSPost2010Prop50
 90
       50
102
RTVSPost2010PropOp50
 70
     0
102
RTVSPost2010Prop51ColorIndex
 90
      256
102
RTVSPost2010Prop51ColorRGB
 90
-16777216
102
RTVSPost2010PropOp51
 70
     0
102
RTVSPost2010Prop52
140
1.0
102
RTVSPost2010PropOp52
 70
     0
102
RTVSPost2010Prop53
 90
        2
102
RTVSPost2010PropOp53
 70
     0
102
RTVSPost2010Prop54
  1
strokes_ogs.tif
102
RTVSPost2010PropOp54
 70
     0
102
RTVSPost2010Prop55
280
     0
102
RTVSPost2010PropOp55
 70
     0
102
RTVSPost2010Prop56
140
1.0
102
RTVSPost2010PropOp56
 70
     0
102
RTVSPost2010Prop57
140
1.0
102
RTVSPost2010PropOp57
 70
     0
  0
XRECORD
  5
332
102
{ACAD_REACTORS
330
331
102
}
330
331
100
AcDbXrecord
280
     1
102
RTVSPost2010Prop28
280
     0
102
RTVSPost2010PropOp28
 70
     1
102
RTVSPost2010Prop29
280
     1
102
RTVSPost2010PropOp29
 70
     1
102
RTVSPost2010Prop30
280
     1
102
RTVSPost2010PropOp30
 70
     1
102
RTVSPost2010Prop31
280
     0
102
RTVSPost2010PropOp31
 70
     1
102
RTVSPost2010Prop32
280
     0
102
RTVSPost2010PropOp32
 70
     1
102
RTVSPost2010Prop33
280
     0
102
RTVSPost2010PropOp33
 70
     1
102
RTVSPost2010Prop34
280
     0
102
RTVSPost2010PropOp34
 70
     1
102
RTVSPost2010Prop35
280
     0
102
RTVSPost2010PropOp35
 70
     1
102
RTVSPost2010Prop36
280
     0
102
RTVSPost2010PropOp36
 70
     1
102
RTVSPost2010Prop37
 90
       50
102
RTVSPost2010PropOp37
 70
     1
102
RTVSPost2010Prop38
140
0.0
102
RTVSPost2010PropOp38
 70
     1
102
RTVSPost2010Prop39
140
1.0
102
RTVSPost2010PropOp39
 70
     1
102
RTVSPost2010Prop40
 90
        0
102
RTVSPost2010PropOp40
 70
     1
102
RTVSPost2010Prop41ColorIndex
 90
       18
102
RTVSPost2010Prop41ColorRGB
 90
        0
102
RTVSPost2010PropOp41
 70
     1
102
RTVSPost2010Prop42
 90
       50
102
RTVSPost2010PropOp42
 70
     1
102
RTVSPost2010Prop43
 90
        3
102
RTVSPost2010PropOp43
 70
     1
102
RTVSPost2010Prop44ColorIndex
 90
        5
102
RTVSPost2010Prop44ColorRGB
 90
      255
102
RTVSPost2010PropOp44
 70
     1
102
RTVSPost2010Prop45
280
     0
102
RTVSPost2010PropOp45
 70
     1
102
RTVSPost2010Prop46
 90
       50
102
RTVSPost2010PropOp46
 70
     1
102
RTVSPost2010Prop47
 90
       50
102
RTVSPost2010PropOp47
 70
     1
102
RTVSPost2010Prop48
 90
       50
102
RTVSPost2010PropOp48
 70
     1
102
RTVSPost2010Prop49
280
     0
102
RTVSPost2010PropOp49
 70
     1
102
RTVSPost2010Prop50
 90
       50
102
RTVSPost2010PropOp50
 70
     1
102
RTVSPost2010Prop51ColorIndex
 90
      256
102
RTVSPost2010Prop51ColorRGB
 90
-16777216
102
RTVSPost2010PropOp51
 70
     0
102
RTVSPost2010Prop52
140
1.0
102
RTVSPost2010PropOp52
 70
     0
102
RTVSPost2010Prop53
 90
        2
102
RTVSPost2010PropOp53
 70
     1
102
RTVSPost2010Prop54
  1
strokes_ogs.tif
102
RTVSPost2010PropOp54
 70
     1
102
RTVSPost2010Prop55
280
     0
102
RTVSPost2010PropOp55
 70
     1
102
RTVSPost2010Prop56
140
1.0
102
RTVSPost2010PropOp56
 70
     1
102
RTVSPost2010Prop57
140
1.0
102
RTVSPost2010PropOp57
 70
     1
  0
XRECORD
  5
350
102
{ACAD_REACTORS
330
34F
102
}
330
34F
100
AcDbXrecord
280
     1
102
RTVSPost2010Prop28
280
     0
102
RTVSPost2010PropOp28
 70
     1
102
RTVSPost2010Prop29
280
     1
102
RTVSPost2010PropOp29
 70
     1
102
RTVSPost2010Prop30
280
     1
102
RTVSPost2010PropOp30
 70
     1
102
RTVSPost2010Prop31
280
     0
102
RTVSPost2010PropOp31
 70
     1
102
RTVSPost2010Prop32
280
     0
102
RTVSPost2010PropOp32
 70
     1
102
RTVSPost2010Prop33
280
     0
102
RTVSPost2010PropOp33
 70
     1
102
RTVSPost2010Prop34
280
     0
102
RTVSPost2010PropOp34
 70
     1
102
RTVSPost2010Prop35
280
     0
102
RTVSPost2010PropOp35
 70
     1
102
RTVSPost2010Prop36
280
     0
102
RTVSPost2010PropOp36
 70
     1
102
RTVSPost2010Prop37
 90
       50
102
RTVSPost2010PropOp37
 70
     1
102
RTVSPost2010Prop38
140
0.0
102
RTVSPost2010PropOp38
 70
     1
102
RTVSPost2010Prop39
140
1.0
102
RTVSPost2010PropOp39
 70
     1
102
RTVSPost2010Prop40
 90
        0
102
RTVSPost2010PropOp40
 70
     1
102
RTVSPost2010Prop41ColorIndex
 90
       18
102
RTVSPost2010Prop41ColorRGB
 90
        0
102
RTVSPost2010PropOp41
 70
     1
102
RTVSPost2010Prop42
 90
       50
102
RTVSPost2010PropOp42
 70
     1
102
RTVSPost2010Prop43
 90
        3
102
RTVSPost2010PropOp43
 70
     1
102
RTVSPost2010Prop44ColorIndex
 90
        5
102
RTVSPost2010Prop44ColorRGB
 90
      255
102
RTVSPost2010PropOp44
 70
     1
102
RTVSPost2010Prop45
280
     0
102
RTVSPost2010PropOp45
 70
     1
102
RTVSPost2010Prop46
 90
       50
102
RTVSPost2010PropOp46
 70
     1
102
RTVSPost2010Prop47
 90
       50
102
RTVSPost2010PropOp47
 70
     1
102
RTVSPost2010Prop48
 90
       50
102
RTVSPost2010PropOp48
 70
     1
102
RTVSPost2010Prop49
280
     0
102
RTVSPost2010PropOp49
 70
     1
102
RTVSPost2010Prop50
 90
       50
102
RTVSPost2010PropOp50
 70
     1
102
RTVSPost2010Prop51ColorIndex
 90
      256
102
RTVSPost2010Prop51ColorRGB
 90
-16777216
102
RTVSPost2010PropOp51
 70
     0
102
RTVSPost2010Prop52
140
1.0
102
RTVSPost2010PropOp52
 70
     0
102
RTVSPost2010Prop53
 90
        2
102
RTVSPost2010PropOp53
 70
     1
102
RTVSPost2010Prop54
  1
strokes_ogs.tif
102
RTVSPost2010PropOp54
 70
     1
102
RTVSPost2010Prop55
280
     0
102
RTVSPost2010PropOp55
 70
     1
102
RTVSPost2010Prop56
140
1.0
102
RTVSPost2010PropOp56
 70
     1
102
RTVSPost2010Prop57
140
1.0
102
RTVSPost2010PropOp57
 70
     1
  0
XRECORD
  5
34E
102
{ACAD_REACTORS
330
34D
102
}
330
34D
100
AcDbXrecord
280
     1
102
RTVSPost2010Prop28
280
     0
102
RTVSPost2010PropOp28
 70
     1
102
RTVSPost2010Prop29
280
     1
102
RTVSPost2010PropOp29
 70
     1
102
RTVSPost2010Prop30
280
     1
102
RTVSPost2010PropOp30
 70
     1
102
RTVSPost2010Prop31
280
     0
102
RTVSPost2010PropOp31
 70
     1
102
RTVSPost2010Prop32
280
     0
102
RTVSPost2010PropOp32
 70
     1
102
RTVSPost2010Prop33
280
     0
102
RTVSPost2010PropOp33
 70
     1
102
RTVSPost2010Prop34
280
     0
102
RTVSPost2010PropOp34
 70
     1
102
RTVSPost2010Prop35
280
     0
102
RTVSPost2010PropOp35
 70
     1
102
RTVSPost2010Prop36
280
     0
102
RTVSPost2010PropOp36
 70
     1
102
RTVSPost2010Prop37
 90
       50
102
RTVSPost2010PropOp37
 70
     1
102
RTVSPost2010Prop38
140
0.0
102
RTVSPost2010PropOp38
 70
     1
102
RTVSPost2010Prop39
140
1.0
102
RTVSPost2010PropOp39
 70
     1
102
RTVSPost2010Prop40
 90
        0
102
RTVSPost2010PropOp40
 70
     1
102
RTVSPost2010Prop41ColorIndex
 90
       18
102
RTVSPost2010Prop41ColorRGB
 90
        0
102
RTVSPost2010PropOp41
 70
     1
102
RTVSPost2010Prop42
 90
       50
102
RTVSPost2010PropOp42
 70
     1
102
RTVSPost2010Prop43
 90
        3
102
RTVSPost2010PropOp43
 70
     1
102
RTVSPost2010Prop44ColorIndex
 90
        5
102
RTVSPost2010Prop44ColorRGB
 90
      255
102
RTVSPost2010PropOp44
 70
     1
102
RTVSPost2010Prop45
280
     0
102
RTVSPost2010PropOp45
 70
     1
102
RTVSPost2010Prop46
 90
       50
102
RTVSPost2010PropOp46
 70
     1
102
RTVSPost2010Prop47
 90
       50
102
RTVSPost2010PropOp47
 70
     1
102
RTVSPost2010Prop48
 90
       50
102
RTVSPost2010PropOp48
 70
     1
102
RTVSPost2010Prop49
280
     0
102
RTVSPost2010PropOp49
 70
     1
102
RTVSPost2010Prop50
 90
       50
102
RTVSPost2010PropOp50
 70
     1
102
RTVSPost2010Prop51ColorIndex
 90
      256
102
RTVSPost2010Prop51ColorRGB
 90
-16777216
102
RTVSPost2010PropOp51
 70
     0
102
RTVSPost2010Prop52
140
1.0
102
RTVSPost2010PropOp52
 70
     0
102
RTVSPost2010Prop53
 90
        2
102
RTVSPost2010PropOp53
 70
     1
102
RTVSPost2010Prop54
  1
strokes_ogs.tif
102
RTVSPost2010PropOp54
 70
     1
102
RTVSPost2010Prop55
280
     0
102
RTVSPost2010PropOp55
 70
     1
102
RTVSPost2010Prop56
140
1.0
102
RTVSPost2010PropOp56
 70
     1
102
RTVSPost2010Prop57
140
1.0
102
RTVSPost2010PropOp57
 70
     1
  0
XRECORD
  5
348
102
{ACAD_REACTORS
330
347
102
}
330
347
100
AcDbXrecord
280
     1
102
RTVSPost2010Prop28
280
     0
102
RTVSPost2010PropOp28
 70
     1
102
RTVSPost2010Prop29
280
     1
102
RTVSPost2010PropOp29
 70
     1
102
RTVSPost2010Prop30
280
     1
102
RTVSPost2010PropOp30
 70
     1
102
RTVSPost2010Prop31
280
     0
102
RTVSPost2010PropOp31
 70
     1
102
RTVSPost2010Prop32
280
     0
102
RTVSPost2010PropOp32
 70
     1
102
RTVSPost2010Prop33
280
     0
102
RTVSPost2010PropOp33
 70
     1
102
RTVSPost2010Prop34
280
     0
102
RTVSPost2010PropOp34
 70
     1
102
RTVSPost2010Prop35
280
     0
102
RTVSPost2010PropOp35
 70
     1
102
RTVSPost2010Prop36
280
     0
102
RTVSPost2010PropOp36
 70
     1
102
RTVSPost2010Prop37
 90
       50
102
RTVSPost2010PropOp37
 70
     1
102
RTVSPost2010Prop38
140
0.0
102
RTVSPost2010PropOp38
 70
     1
102
RTVSPost2010Prop39
140
1.0
102
RTVSPost2010PropOp39
 70
     1
102
RTVSPost2010Prop40
 90
        0
102
RTVSPost2010PropOp40
 70
     1
102
RTVSPost2010Prop41ColorIndex
 90
       18
102
RTVSPost2010Prop41ColorRGB
 90
        0
102
RTVSPost2010PropOp41
 70
     1
102
RTVSPost2010Prop42
 90
       50
102
RTVSPost2010PropOp42
 70
     1
102
RTVSPost2010Prop43
 90
        3
102
RTVSPost2010PropOp43
 70
     1
102
RTVSPost2010Prop44ColorIndex
 90
        5
102
RTVSPost2010Prop44ColorRGB
 90
      255
102
RTVSPost2010PropOp44
 70
     1
102
RTVSPost2010Prop45
280
     0
102
RTVSPost2010PropOp45
 70
     1
102
RTVSPost2010Prop46
 90
       50
102
RTVSPost2010PropOp46
 70
     1
102
RTVSPost2010Prop47
 90
       50
102
RTVSPost2010PropOp47
 70
     1
102
RTVSPost2010Prop48
 90
       50
102
RTVSPost2010PropOp48
 70
     1
102
RTVSPost2010Prop49
280
     0
102
RTVSPost2010PropOp49
 70
     1
102
RTVSPost2010Prop50
 90
       50
102
RTVSPost2010PropOp50
 70
     1
102
RTVSPost2010Prop51ColorIndex
 90
      256
102
RTVSPost2010Prop51ColorRGB
 90
-16777216
102
RTVSPost2010PropOp51
 70
     0
102
RTVSPost2010Prop52
140
1.0
102
RTVSPost2010PropOp52
 70
     0
102
RTVSPost2010Prop53
 90
        2
102
RTVSPost2010PropOp53
 70
     1
102
RTVSPost2010Prop54
  1
strokes_ogs.tif
102
RTVSPost2010PropOp54
 70
     1
102
RTVSPost2010Prop55
280
     0
102
RTVSPost2010PropOp55
 70
     1
102
RTVSPost2010Prop56
140
1.0
102
RTVSPost2010PropOp56
 70
     1
102
RTVSPost2010Prop57
140
1.0
102
RTVSPost2010PropOp57
 70
     1
  0
XRECORD
  5
34A
102
{ACAD_REACTORS
330
349
102
}
330
349
100
AcDbXrecord
280
     1
102
RTVSPost2010Prop28
280
     0
102
RTVSPost2010PropOp28
 70
     1
102
RTVSPost2010Prop29
280
     1
102
RTVSPost2010PropOp29
 70
     1
102
RTVSPost2010Prop30
280
     1
102
RTVSPost2010PropOp30
 70
     1
102
RTVSPost2010Prop31
280
     0
102
RTVSPost2010PropOp31
 70
     1
102
RTVSPost2010Prop32
280
     0
102
RTVSPost2010PropOp32
 70
     1
102
RTVSPost2010Prop33
280
     0
102
RTVSPost2010PropOp33
 70
     1
102
RTVSPost2010Prop34
280
     0
102
RTVSPost2010PropOp34
 70
     1
102
RTVSPost2010Prop35
280
     0
102
RTVSPost2010PropOp35
 70
     1
102
RTVSPost2010Prop36
280
     0
102
RTVSPost2010PropOp36
 70
     1
102
RTVSPost2010Prop37
 90
       50
102
RTVSPost2010PropOp37
 70
     1
102
RTVSPost2010Prop38
140
0.0
102
RTVSPost2010PropOp38
 70
     1
102
RTVSPost2010Prop39
140
1.0
102
RTVSPost2010PropOp39
 70
     1
102
RTVSPost2010Prop40
 90
        0
102
RTVSPost2010PropOp40
 70
     1
102
RTVSPost2010Prop41ColorIndex
 90
       18
102
RTVSPost2010Prop41ColorRGB
 90
        0
102
RTVSPost2010PropOp41
 70
     1
102
RTVSPost2010Prop42
 90
       50
102
RTVSPost2010PropOp42
 70
     1
102
RTVSPost2010Prop43
 90
        3
102
RTVSPost2010PropOp43
 70
     1
102
RTVSPost2010Prop44ColorIndex
 90
        5
102
RTVSPost2010Prop44ColorRGB
 90
      255
102
RTVSPost2010PropOp44
 70
     1
102
RTVSPost2010Prop45
280
     0
102
RTVSPost2010PropOp45
 70
     1
102
RTVSPost2010Prop46
 90
       50
102
RTVSPost2010PropOp46
 70
     1
102
RTVSPost2010Prop47
 90
       50
102
RTVSPost2010PropOp47
 70
     1
102
RTVSPost2010Prop48
 90
       50
102
RTVSPost2010PropOp48
 70
     1
102
RTVSPost2010Prop49
280
     0
102
RTVSPost2010PropOp49
 70
     1
102
RTVSPost2010Prop50
 90
       50
102
RTVSPost2010PropOp50
 70
     1
102
RTVSPost2010Prop51ColorIndex
 90
      256
102
RTVSPost2010Prop51ColorRGB
 90
-16777216
102
RTVSPost2010PropOp51
 70
     0
102
RTVSPost2010Prop52
140
1.0
102
RTVSPost2010PropOp52
 70
     0
102
RTVSPost2010Prop53
 90
        2
102
RTVSPost2010PropOp53
 70
     1
102
RTVSPost2010Prop54
  1
strokes_ogs.tif
102
RTVSPost2010PropOp54
 70
     1
102
RTVSPost2010Prop55
280
     0
102
RTVSPost2010PropOp55
 70
     1
102
RTVSPost2010Prop56
140
1.0
102
RTVSPost2010PropOp56
 70
     1
102
RTVSPost2010Prop57
140
1.0
102
RTVSPost2010PropOp57
 70
     1
  0
XRECORD
  5
33A
102
{ACAD_REACTORS
330
339
102
}
330
339
100
AcDbXrecord
280
     1
102
RTVSPost2010Prop28
280
     0
102
RTVSPost2010PropOp28
 70
     1
102
RTVSPost2010Prop29
280
     1
102
RTVSPost2010PropOp29
 70
     1
102
RTVSPost2010Prop30
280
     1
102
RTVSPost2010PropOp30
 70
     1
102
RTVSPost2010Prop31
280
     0
102
RTVSPost2010PropOp31
 70
     1
102
RTVSPost2010Prop32
280
     0
102
RTVSPost2010PropOp32
 70
     1
102
RTVSPost2010Prop33
280
     0
102
RTVSPost2010PropOp33
 70
     1
102
RTVSPost2010Prop34
280
     0
102
RTVSPost2010PropOp34
 70
     1
102
RTVSPost2010Prop35
280
     0
102
RTVSPost2010PropOp35
 70
     1
102
RTVSPost2010Prop36
280
     0
102
RTVSPost2010PropOp36
 70
     1
102
RTVSPost2010Prop37
 90
       50
102
RTVSPost2010PropOp37
 70
     1
102
RTVSPost2010Prop38
140
0.0
102
RTVSPost2010PropOp38
 70
     1
102
RTVSPost2010Prop39
140
1.0
102
RTVSPost2010PropOp39
 70
     1
102
RTVSPost2010Prop40
 90
        0
102
RTVSPost2010PropOp40
 70
     1
102
RTVSPost2010Prop41ColorIndex
 90
       18
102
RTVSPost2010Prop41ColorRGB
 90
        0
102
RTVSPost2010PropOp41
 70
     1
102
RTVSPost2010Prop42
 90
       50
102
RTVSPost2010PropOp42
 70
     1
102
RTVSPost2010Prop43
 90
        3
102
RTVSPost2010PropOp43
 70
     1
102
RTVSPost2010Prop44ColorIndex
 90
        5
102
RTVSPost2010Prop44ColorRGB
 90
      255
102
RTVSPost2010PropOp44
 70
     1
102
RTVSPost2010Prop45
280
     0
102
RTVSPost2010PropOp45
 70
     1
102
RTVSPost2010Prop46
 90
       50
102
RTVSPost2010PropOp46
 70
     1
102
RTVSPost2010Prop47
 90
       50
102
RTVSPost2010PropOp47
 70
     1
102
RTVSPost2010Prop48
 90
       50
102
RTVSPost2010PropOp48
 70
     1
102
RTVSPost2010Prop49
280
     0
102
RTVSPost2010PropOp49
 70
     1
102
RTVSPost2010Prop50
 90
       50
102
RTVSPost2010PropOp50
 70
     1
102
RTVSPost2010Prop51ColorIndex
 90
      256
102
RTVSPost2010Prop51ColorRGB
 90
-16777216
102
RTVSPost2010PropOp51
 70
     0
102
RTVSPost2010Prop52
140
1.0
102
RTVSPost2010PropOp52
 70
     0
102
RTVSPost2010Prop53
 90
        2
102
RTVSPost2010PropOp53
 70
     1
102
RTVSPost2010Prop54
  1
strokes_ogs.tif
102
RTVSPost2010PropOp54
 70
     1
102
RTVSPost2010Prop55
280
     0
102
RTVSPost2010PropOp55
 70
     1
102
RTVSPost2010Prop56
140
1.0
102
RTVSPost2010PropOp56
 70
     1
102
RTVSPost2010Prop57
140
1.0
102
RTVSPost2010PropOp57
 70
     1
  0
XRECORD
  5
32C
102
{ACAD_REACTORS
330
32B
102
}
330
32B
100
AcDbXrecord
280
     1
102
RTVSPost2010Prop28
280
     0
102
RTVSPost2010PropOp28
 70
     1
102
RTVSPost2010Prop29
280
     1
102
RTVSPost2010PropOp29
 70
     1
102
RTVSPost2010Prop30
280
     1
102
RTVSPost2010PropOp30
 70
     1
102
RTVSPost2010Prop31
280
     0
102
RTVSPost2010PropOp31
 70
     1
102
RTVSPost2010Prop32
280
     0
102
RTVSPost2010PropOp32
 70
     1
102
RTVSPost2010Prop33
280
     0
102
RTVSPost2010PropOp33
 70
     1
102
RTVSPost2010Prop34
280
     0
102
RTVSPost2010PropOp34
 70
     1
102
RTVSPost2010Prop35
280
     0
102
RTVSPost2010PropOp35
 70
     1
102
RTVSPost2010Prop36
280
     0
102
RTVSPost2010PropOp36
 70
     1
102
RTVSPost2010Prop37
 90
       50
102
RTVSPost2010PropOp37
 70
     1
102
RTVSPost2010Prop38
140
0.0
102
RTVSPost2010PropOp38
 70
     1
102
RTVSPost2010Prop39
140
1.0
102
RTVSPost2010PropOp39
 70
     1
102
RTVSPost2010Prop40
 90
        0
102
RTVSPost2010PropOp40
 70
     1
102
RTVSPost2010Prop41ColorIndex
 90
       18
102
RTVSPost2010Prop41ColorRGB
 90
        0
102
RTVSPost2010PropOp41
 70
     1
102
RTVSPost2010Prop42
 90
       50
102
RTVSPost2010PropOp42
 70
     1
102
RTVSPost2010Prop43
 90
        3
102
RTVSPost2010PropOp43
 70
     1
102
RTVSPost2010Prop44ColorIndex
 90
        5
102
RTVSPost2010Prop44ColorRGB
 90
      255
102
RTVSPost2010PropOp44
 70
     1
102
RTVSPost2010Prop45
280
     0
102
RTVSPost2010PropOp45
 70
     1
102
RTVSPost2010Prop46
 90
       50
102
RTVSPost2010PropOp46
 70
     1
102
RTVSPost2010Prop47
 90
       50
102
RTVSPost2010PropOp47
 70
     1
102
RTVSPost2010Prop48
 90
       50
102
RTVSPost2010PropOp48
 70
     1
102
RTVSPost2010Prop49
280
     0
102
RTVSPost2010PropOp49
 70
     1
102
RTVSPost2010Prop50
 90
       50
102
RTVSPost2010PropOp50
 70
     1
102
RTVSPost2010Prop51ColorIndex
 90
      256
102
RTVSPost2010Prop51ColorRGB
 90
-16777216
102
RTVSPost2010PropOp51
 70
     0
102
RTVSPost2010Prop52
140
1.0
102
RTVSPost2010PropOp52
 70
     0
102
RTVSPost2010Prop53
 90
        2
102
RTVSPost2010PropOp53
 70
     1
102
RTVSPost2010Prop54
  1
strokes_ogs.tif
102
RTVSPost2010PropOp54
 70
     1
102
RTVSPost2010Prop55
280
     0
102
RTVSPost2010PropOp55
 70
     1
102
RTVSPost2010Prop56
140
1.0
102
RTVSPost2010PropOp56
 70
     1
102
RTVSPost2010Prop57
140
1.0
102
RTVSPost2010PropOp57
 70
     1
  0
XRECORD
  5
34C
102
{ACAD_REACTORS
330
34B
102
}
330
34B
100
AcDbXrecord
280
     1
102
RTVSPost2010Prop28
280
     0
102
RTVSPost2010PropOp28
 70
     1
102
RTVSPost2010Prop29
280
     1
102
RTVSPost2010PropOp29
 70
     1
102
RTVSPost2010Prop30
280
     1
102
RTVSPost2010PropOp30
 70
     1
102
RTVSPost2010Prop31
280
     0
102
RTVSPost2010PropOp31
 70
     1
102
RTVSPost2010Prop32
280
     0
102
RTVSPost2010PropOp32
 70
     1
102
RTVSPost2010Prop33
280
     0
102
RTVSPost2010PropOp33
 70
     1
102
RTVSPost2010Prop34
280
     0
102
RTVSPost2010PropOp34
 70
     1
102
RTVSPost2010Prop35
280
     0
102
RTVSPost2010PropOp35
 70
     1
102
RTVSPost2010Prop36
280
     0
102
RTVSPost2010PropOp36
 70
     1
102
RTVSPost2010Prop37
 90
       50
102
RTVSPost2010PropOp37
 70
     1
102
RTVSPost2010Prop38
140
0.0
102
RTVSPost2010PropOp38
 70
     1
102
RTVSPost2010Prop39
140
1.0
102
RTVSPost2010PropOp39
 70
     1
102
RTVSPost2010Prop40
 90
        0
102
RTVSPost2010PropOp40
 70
     1
102
RTVSPost2010Prop41ColorIndex
 90
       18
102
RTVSPost2010Prop41ColorRGB
 90
        0
102
RTVSPost2010PropOp41
 70
     1
102
RTVSPost2010Prop42
 90
       50
102
RTVSPost2010PropOp42
 70
     1
102
RTVSPost2010Prop43
 90
        3
102
RTVSPost2010PropOp43
 70
     1
102
RTVSPost2010Prop44ColorIndex
 90
        5
102
RTVSPost2010Prop44ColorRGB
 90
      255
102
RTVSPost2010PropOp44
 70
     1
102
RTVSPost2010Prop45
280
     0
102
RTVSPost2010PropOp45
 70
     1
102
RTVSPost2010Prop46
 90
       50
102
RTVSPost2010PropOp46
 70
     1
102
RTVSPost2010Prop47
 90
       50
102
RTVSPost2010PropOp47
 70
     1
102
RTVSPost2010Prop48
 90
       50
102
RTVSPost2010PropOp48
 70
     1
102
RTVSPost2010Prop49
280
     0
102
RTVSPost2010PropOp49
 70
     1
102
RTVSPost2010Prop50
 90
       50
102
RTVSPost2010PropOp50
 70
     1
102
RTVSPost2010Prop51ColorIndex
 90
      256
102
RTVSPost2010Prop51ColorRGB
 90
-16777216
102
RTVSPost2010PropOp51
 70
     0
102
RTVSPost2010Prop52
140
1.0
102
RTVSPost2010PropOp52
 70
     0
102
RTVSPost2010Prop53
 90
        2
102
RTVSPost2010PropOp53
 70
     1
102
RTVSPost2010Prop54
  1
strokes_ogs.tif
102
RTVSPost2010PropOp54
 70
     1
102
RTVSPost2010Prop55
280
     0
102
RTVSPost2010PropOp55
 70
     1
102
RTVSPost2010Prop56
140
1.0
102
RTVSPost2010PropOp56
 70
     1
102
RTVSPost2010Prop57
140
1.0
102
RTVSPost2010PropOp57
 70
     1
  0
ENDSEC
  0
EOF
