  0
SECTION
  2
HEADER
  9
$ACADVER
  1
AC1024
  9
$ACADMAINTVER
 70
     6
  9
$DWGCODEPAGE
  3
ANSI_932
  9
$INSBASE
 10
0.0
 20
0.0
 30
0.0
  9
$EXTMIN
 10
-8910.0
 20
-6300.0
 30
0.0
  9
$EXTMAX
 10
8910.0
 20
6300.0
 30
0.0
  9
$LIMMIN
 10
-8910.0
 20
-6300.0
  9
$LIMMAX
 10
8910.0
 20
6300.0
  9
$ORTHOMODE
 70
     0
  9
$REGENMODE
 70
     1
  9
$FILLMODE
 70
     1
  9
$QTEXTMODE
 70
     0
  9
$MIRRTEXT
 70
     1
  9
$LTSCALE
 40
30.0
  9
$ATTMODE
 70
     1
  9
$TEXTSIZE
 40
2.5
  9
$TRACEWID
 40
1.0
  9
$TEXTSTYLE
  7
Standard
  9
$CLAYER
  8
0
  9
$CELTYPE
  6
ByLayer
  9
$CECOLOR
 62
   256
  9
$CELTSCALE
 40
1.0
  9
$DISPSILH
 70
     0
  9
$DIMSCALE
 40
1.0
  9
$DIMASZ
 40
2.5
  9
$DIMEXO
 40
0.625
  9
$DIMDLI
 40
3.75
  9
$DIMRND
 40
0.0
  9
$DIMDLE
 40
0.0
  9
$DIMEXE
 40
1.25
  9
$DIMTP
 40
0.0
  9
$DIMTM
 40
0.0
  9
$DIMTXT
 40
2.5
  9
$DIMCEN
 40
2.5
  9
$DIMTSZ
 40
0.0
  9
$DIMTOL
 70
     0
  9
$DIMLIM
 70
     0
  9
$DIMTIH
 70
     0
  9
$DIMTOH
 70
     0
  9
$DIMSE1
 70
     0
  9
$DIMSE2
 70
     0
  9
$DIMTAD
 70
     1
  9
$DIMZIN
 70
     8
  9
$DIMBLK
  1

  9
$DIMASO
 70
     1
  9
$DIMSHO
 70
     1
  9
$DIMPOST
  1

  9
$DIMAPOST
  1

  9
$DIMALT
 70
     0
  9
$DIMALTD
 70
     3
  9
$DIMALTF
 40
0.03937007874016
  9
$DIMLFAC
 40
1.0
  9
$DIMTOFL
 70
     1
  9
$DIMTVP
 40
0.0
  9
$DIMTIX
 70
     0
  9
$DIMSOXD
 70
     0
  9
$DIMSAH
 70
     0
  9
$DIMBLK1
  1

  9
$DIMBLK2
  1

  9
$DIMSTYLE
  2
ISO-25
  9
$DIMCLRD
 70
     0
  9
$DIMCLRE
 70
     0
  9
$DIMCLRT
 70
     0
  9
$DIMTFAC
 40
1.0
  9
$DIMGAP
 40
0.625
  9
$DIMJUST
 70
     0
  9
$DIMSD1
 70
     0
  9
$DIMSD2
 70
     0
  9
$DIMTOLJ
 70
     0
  9
$DIMTZIN
 70
     8
  9
$DIMALTZ
 70
     0
  9
$DIMALTTZ
 70
     0
  9
$DIMUPT
 70
     0
  9
$DIMDEC
 70
     2
  9
$DIMTDEC
 70
     2
  9
$DIMALTU
 70
     2
  9
$DIMALTTD
 70
     3
  9
$DIMTXSTY
  7
Standard
  9
$DIMAUNIT
 70
     0
  9
$DIMADEC
 70
     0
  9
$DIMALTRND
 40
0.0
  9
$DIMAZIN
 70
     0
  9
$DIMDSEP
 70
    44
  9
$DIMATFIT
 70
     3
  9
$DIMFRAC
 70
     0
  9
$DIMLDRBLK
  1

  9
$DIMLUNIT
 70
     2
  9
$DIMLWD
 70
    -2
  9
$DIMLWE
 70
    -2
  9
$DIMTMOVE
 70
     0
  9
$DIMFXL
 40
1.0
  9
$DIMFXLON
 70
     0
  9
$DIMJOGANG
 40
0.7853981633974483
  9
$DIMTFILL
 70
     0
  9
$DIMTFILLCLR
 70
     0
  9
$DIMARCSYM
 70
     0
  9
$DIMLTYPE
  6

  9
$DIMLTEX1
  6

  9
$DIMLTEX2
  6

  9
$DIMTXTDIRECTION
 70
     0
  9
$LUNITS
 70
     2
  9
$LUPREC
 70
     4
  9
$SKETCHINC
 40
1.0
  9
$FILLETRAD
 40
10.0
  9
$AUNITS
 70
     0
  9
$AUPREC
 70
     0
  9
$MENU
  1
.
  9
$ELEVATION
 40
0.0
  9
$PELEVATION
 40
0.0
  9
$THICKNESS
 40
0.0
  9
$LIMCHECK
 70
     0
  9
$CHAMFERA
 40
10.0
  9
$CHAMFERB
 40
10.0
  9
$CHAMFERC
 40
20.0
  9
$CHAMFERD
 40
0.0
  9
$SKPOLY
 70
     0
  9
$TDCREATE
 40
2459682.430772778
  9
$TDUCREATE
 40
2459682.055772778
  9
$TDUPDATE
 40
2459682.430772789
  9
$TDUUPDATE
 40
2459682.055772789
  9
$TDINDWG
 40
0.0000000116
  9
$TDUSRTIMER
 40
0.0000000116
  9
$USRTIMER
 70
     1
  9
$ANGBASE
 50
0.0
  9
$ANGDIR
 70
     0
  9
$PDMODE
 70
     0
  9
$PDSIZE
 40
0.0
  9
$PLINEWID
 40
0.0
  9
$SPLFRAME
 70
     0
  9
$SPLINETYPE
 70
     6
  9
$SPLINESEGS
 70
     8
  9
$HANDSEED
  5
29C
  9
$SURFTAB1
 70
     6
  9
$SURFTAB2
 70
     6
  9
$SURFTYPE
 70
     6
  9
$SURFU
 70
     6
  9
$SURFV
 70
     6
  9
$UCSBASE
  2

  9
$UCSNAME
  2

  9
$UCSORG
 10
0.0
 20
0.0
 30
0.0
  9
$UCSXDIR
 10
1.0
 20
0.0
 30
0.0
  9
$UCSYDIR
 10
0.0
 20
1.0
 30
0.0
  9
$UCSORTHOREF
  2

  9
$UCSORTHOVIEW
 70
     0
  9
$UCSORGTOP
 10
0.0
 20
0.0
 30
0.0
  9
$UCSORGBOTTOM
 10
0.0
 20
0.0
 30
0.0
  9
$UCSORGLEFT
 10
0.0
 20
0.0
 30
0.0
  9
$UCSORGRIGHT
 10
0.0
 20
0.0
 30
0.0
  9
$UCSORGFRONT
 10
0.0
 20
0.0
 30
0.0
  9
$UCSORGBACK
 10
0.0
 20
0.0
 30
0.0
  9
$PUCSBASE
  2

  9
$PUCSNAME
  2

  9
$PUCSORG
 10
0.0
 20
0.0
 30
0.0
  9
$PUCSXDIR
 10
1.0
 20
0.0
 30
0.0
  9
$PUCSYDIR
 10
0.0
 20
1.0
 30
0.0
  9
$PUCSORTHOREF
  2

  9
$PUCSORTHOVIEW
 70
     0
  9
$PUCSORGTOP
 10
0.0
 20
0.0
 30
0.0
  9
$PUCSORGBOTTOM
 10
0.0
 20
0.0
 30
0.0
  9
$PUCSORGLEFT
 10
0.0
 20
0.0
 30
0.0
  9
$PUCSORGRIGHT
 10
0.0
 20
0.0
 30
0.0
  9
$PUCSORGFRONT
 10
0.0
 20
0.0
 30
0.0
  9
$PUCSORGBACK
 10
0.0
 20
0.0
 30
0.0
  9
$USERI1
 70
     0
  9
$USERI2
 70
     0
  9
$USERI3
 70
     0
  9
$USERI4
 70
     0
  9
$USERI5
 70
     0
  9
$USERR1
 40
0.0
  9
$USERR2
 40
0.0
  9
$USERR3
 40
0.0
  9
$USERR4
 40
0.0
  9
$USERR5
 40
0.0
  9
$WORLDVIEW
 70
     1
  9
$SHADEDGE
 70
     3
  9
$SHADEDIF
 70
    70
  9
$TILEMODE
 70
     1
  9
$MAXACTVP
 70
    64
  9
$PINSBASE
 10
0.0
 20
0.0
 30
0.0
  9
$PLIMCHECK
 70
     0
  9
$PEXTMIN
 10
1.000000000000000E+20
 20
1.000000000000000E+20
 30
1.000000000000000E+20
  9
$PEXTMAX
 10
-1.000000000000000E+20
 20
-1.000000000000000E+20
 30
-1.000000000000000E+20
  9
$PLIMMIN
 10
0.0
 20
0.0
  9
$PLIMMAX
 10
420.0
 20
297.0
  9
$UNITMODE
 70
     0
  9
$VISRETAIN
 70
     1
  9
$PLINEGEN
 70
     0
  9
$PSLTSCALE
 70
     1
  9
$TREEDEPTH
 70
  3020
  9
$CMLSTYLE
  2
Standard
  9
$CMLJUST
 70
     0
  9
$CMLSCALE
 40
20.0
  9
$PROXYGRAPHICS
 70
     1
  9
$MEASUREMENT
 70
     1
  9
$CELWEIGHT
370
    -1
  9
$ENDCAPS
280
     0
  9
$JOINSTYLE
280
     0
  9
$LWDISPLAY
290
     0
  9
$INSUNITS
 70
     4
  9
$HYPERLINKBASE
  1

  9
$STYLESHEET
  1

  9
$XEDIT
290
     1
  9
$CEPSNTYPE
380
     0
  9
$PSTYLEMODE
290
     1
  9
$FINGERPRINTGUID
  2
{6D73DB01-3981-4000-A9AD-239A843227A7}
  9
$VERSIONGUID
  2
{FAEB1C32-E019-11D5-929B-00C0DF256EC4}
  9
$EXTNAMES
290
     1
  9
$PSVPSCALE
 40
0.0
  9
$OLESTARTUP
290
     0
  9
$SORTENTS
280
   127
  9
$INDEXCTL
280
     0
  9
$HIDETEXT
280
     1
  9
$XCLIPFRAME
280
     2
  9
$HALOGAP
280
     0
  9
$OBSCOLOR
 70
   257
  9
$OBSLTYPE
280
     0
  9
$INTERSECTIONDISPLAY
280
     0
  9
$INTERSECTIONCOLOR
 70
   257
  9
$DIMASSOC
280
     2
  9
$PROJECTNAME
  1

  9
$CAMERADISPLAY
290
     0
  9
$LENSLENGTH
 40
50.0
  9
$CAMERAHEIGHT
 40
0.0
  9
$STEPSPERSEC
 40
2.0
  9
$STEPSIZE
 40
6.0
  9
$3DDWFPREC
 40
2.0
  9
$PSOLWIDTH
 40
5.0
  9
$PSOLHEIGHT
 40
80.0
  9
$LOFTANG1
 40
1.570796326794897
  9
$LOFTANG2
 40
1.570796326794897
  9
$LOFTMAG1
 40
0.0
  9
$LOFTMAG2
 40
0.0
  9
$LOFTPARAM
 70
     7
  9
$LOFTNORMALS
280
     1
  9
$LATITUDE
 40
37.795
  9
$LONGITUDE
 40
-122.394
  9
$NORTHDIRECTION
 40
0.0
  9
$TIMEZONE
 70
 -8000
  9
$LIGHTGLYPHDISPLAY
280
     1
  9
$TILEMODELIGHTSYNCH
280
     1
  9
$SOLIDHIST
280
     1
  9
$SHOWHIST
280
     1
  9
$DWFFRAME
280
     2
  9
$DGNFRAME
280
     2
  9
$REALWORLDSCALE
290
     1
  9
$INTERFERECOLOR
 62
   256
  9
$CSHADOW
280
     0
  9
$SHADOWPLANELOCATION
 40
0.0
  0
ENDSEC
  0
SECTION
  2
CLASSES
  0
CLASS
  1
ACDBDICTIONARYWDFLT
  2
AcDbDictionaryWithDefault
  3
ObjectDBX Classes
 90
        0
 91
        4
280
     0
281
     0
  0
CLASS
  1
VISUALSTYLE
  2
AcDbVisualStyle
  3
ObjectDBX Classes
 90
     4095
 91
        4
280
     0
281
     0
  0
CLASS
  1
MATERIAL
  2
AcDbMaterial
  3
ObjectDBX Classes
 90
     1153
 91
        4
280
     0
281
     0
  0
ENDSEC
  0
SECTION
  2
TABLES
  0
TABLE
  2
VPORT
  5
8
330
0
100
AcDbSymbolTable
 70
     1
  0
VPORT
  5
29
330
8
100
AcDbSymbolTableRecord
100
AcDbViewportTableRecord
  2
*Active
 70
     0
 10
0.0
 20
0.0
 11
1.0
 21
1.0
 12
0.0
 22
0.0
 13
0.0
 23
0.0
 14
10.0
 24
10.0
 15
10.0
 25
10.0
 16
0.0
 26
0.0
 36
1.0
 17
0.0
 27
0.0
 37
0.0
 40
13860.0
 41
1.414285714285714
 42
50.0
 43
0.0
 44
0.0
 50
0.0
 51
0.0
 71
     0
 72
 10000
 73
     1
 74
     3
 75
     0
 76
     0
 77
     0
 78
     0
281
     0
 65
     1
110
0.0
120
0.0
130
0.0
111
1.0
121
0.0
131
0.0
112
0.0
122
1.0
132
0.0
 79
     0
146
0.0
 60
     3
 61
     5
292
     1
282
     1
141
0.0
142
0.0
 63
   250
  0
ENDTAB
  0
TABLE
  2
LTYPE
  5
5
330
0
100
AcDbSymbolTable
 70
     4
  0
LTYPE
  5
14
330
5
100
AcDbSymbolTableRecord
100
AcDbLinetypeTableRecord
  2
ByBlock
 70
     0
  3

 72
    65
 73
     0
 40
0.0
  0
LTYPE
  5
15
330
5
100
AcDbSymbolTableRecord
100
AcDbLinetypeTableRecord
  2
ByLayer
 70
     0
  3

 72
    65
 73
     0
 40
0.0
  0
LTYPE
  5
16
330
5
100
AcDbSymbolTableRecord
100
AcDbLinetypeTableRecord
  2
Continuous
 70
     0
  3
Solid line
 72
    65
 73
     0
 40
0.0
  0
LTYPE
  5
3F
330
5
100
AcDbSymbolTableRecord
100
AcDbLinetypeTableRecord
  2
JWW_HOJO
 70
     0
  3
  -   -   -   -   -   -   -   - 
 72
    65
 73
     2
 40
1.693333333333333
 49
-1.27
 74
     0
 49
0.4233333333333333
 74
     0
  0
LTYPE
  5
40
330
5
100
AcDbSymbolTableRecord
100
AcDbLinetypeTableRecord
  2
JWW_DASHED2
 70
     0
  3
--    ----    ----    ----    --
 72
    65
 73
     2
 40
3.386666666666667
 49
1.693333333333333
 74
     0
 49
-1.693333333333333
 74
     0
  0
LTYPE
  5
41
330
5
100
AcDbSymbolTableRecord
100
AcDbLinetypeTableRecord
  2
JWW_CENTER1
 70
     0
  3
-----  --  ----------  --  -----
 72
    65
 73
     4
 40
6.773333333333333
 49
4.233333333333333
 74
     0
 49
-0.8466666666666667
 74
     0
 49
0.8466666666666667
 74
     0
 49
-0.8466666666666667
 74
     0
  0
ENDTAB
  0
TABLE
  2
LAYER
  5
2
330
0
100
AcDbSymbolTable
 70
    13
  0
LAYER
  5
10
330
2
100
AcDbSymbolTableRecord
100
AcDbLayerTableRecord
  2
0
 70
     0
 62
     7
  6
Continuous
370
    -3
390
F
347
3E
  0
LAYER
  5
42
330
2
100
AcDbSymbolTableRecord
100
AcDbLayerTableRecord
  2
F-0_補助線
 70
     0
 62
     7
  6
Continuous
370
    -3
390
F
347
3E
  0
LAYER
  5
43
330
2
100
AcDbSymbolTableRecord
100
AcDbLayerTableRecord
  2
F-1_枠
 70
     0
 62
     7
  6
Continuous
370
    -3
390
F
347
3E
  0
LAYER
  5
44
330
2
100
AcDbSymbolTableRecord
100
AcDbLayerTableRecord
  2
F-A_文字
 70
     0
 62
     7
  6
Continuous
370
    -3
390
F
347
3E
  0
LAYER
  5
45
330
2
100
AcDbSymbolTableRecord
100
AcDbLayerTableRecord
  2
戸当り
 70
     0
 62
     7
  6
Continuous
370
    -3
390
F
347
3E
  0
LAYER
  5
46
330
2
100
AcDbSymbolTableRecord
100
AcDbLayerTableRecord
  2
0-0_補助線
 70
     0
 62
     7
  6
Continuous
370
    -3
390
F
347
3E
  0
LAYER
  5
47
330
2
100
AcDbSymbolTableRecord
100
AcDbLayerTableRecord
  2
0-A_文字
 70
     0
 62
     7
  6
Continuous
370
    -3
390
F
347
3E
  0
LAYER
  5
48
330
2
100
AcDbSymbolTableRecord
100
AcDbLayerTableRecord
  2
0-6_扉
 70
     0
 62
     7
  6
Continuous
370
    -3
390
F
347
3E
  0
LAYER
  5
49
330
2
100
AcDbSymbolTableRecord
100
AcDbLayerTableRecord
  2
0-7_金物
 70
     0
 62
     7
  6
Continuous
370
    -3
390
F
347
3E
  0
LAYER
  5
4A
330
2
100
AcDbSymbolTableRecord
100
AcDbLayerTableRecord
  2
0-1_通り芯
 70
     0
 62
     7
  6
Continuous
370
    -3
390
F
347
3E
  0
LAYER
  5
4B
330
2
100
AcDbSymbolTableRecord
100
AcDbLayerTableRecord
  2
0-B_寸法
 70
     0
 62
     7
  6
Continuous
370
    -3
390
F
347
3E
  0
LAYER
  5
4C
330
2
100
AcDbSymbolTableRecord
100
AcDbLayerTableRecord
  2
0-3_仕上げ
 70
     0
 62
     7
  6
Continuous
370
    -3
390
F
347
3E
  0
LAYER
  5
4D
330
2
100
AcDbSymbolTableRecord
100
AcDbLayerTableRecord
  2
0-4_枠
 70
     0
 62
     7
  6
Continuous
370
    -3
390
F
347
3E
  0
ENDTAB
  0
TABLE
  2
STYLE
  5
3
330
0
100
AcDbSymbolTable
 70
     1
  0
STYLE
  5
11
330
3
100
AcDbSymbolTableRecord
100
AcDbTextStyleTableRecord
  2
Standard
 70
     0
 40
0.0
 41
1.0
 50
0.0
 71
     0
 42
2.5
  3
txt
  4

  0
ENDTAB
  0
TABLE
  2
VIEW
  5
6
330
0
100
AcDbSymbolTable
 70
     0
  0
ENDTAB
  0
TABLE
  2
UCS
  5
7
330
0
100
AcDbSymbolTable
 70
     0
  0
ENDTAB
  0
TABLE
  2
APPID
  5
9
330
0
100
AcDbSymbolTable
 70
     1
  0
APPID
  5
12
330
9
100
AcDbSymbolTableRecord
100
AcDbRegAppTableRecord
  2
ACAD
 70
     0
  0
ENDTAB
  0
TABLE
  2
DIMSTYLE
  5
A
330
0
100
AcDbSymbolTable
 70
     1
100
AcDbDimStyleTable
  0
DIMSTYLE
105
27
330
A
100
AcDbSymbolTableRecord
100
AcDbDimStyleTableRecord
  2
ISO-25
 70
     0
 41
2.5
 42
0.625
 43
3.75
 44
1.25
 73
     0
 74
     0
 77
     1
 78
     8
140
2.5
141
2.5
143
0.03937007874016
147
0.625
171
     3
172
     1
178
     0
271
     2
272
     2
274
     3
278
    44
283
     0
284
     8
340
11
  0
ENDTAB
  0
TABLE
  2
BLOCK_RECORD
  5
1
330
0
100
AcDbSymbolTable
 70
     3
  0
BLOCK_RECORD
  5
1F
330
1
100
AcDbSymbolTableRecord
100
AcDbBlockTableRecord
  2
*Model_Space
340
22
 70
     0
280
     1
281
     0
  0
BLOCK_RECORD
  5
1B
330
1
100
AcDbSymbolTableRecord
100
AcDbBlockTableRecord
  2
*Paper_Space
340
1E
 70
     0
280
     1
281
     0
  0
BLOCK_RECORD
  5
23
330
1
100
AcDbSymbolTableRecord
100
AcDbBlockTableRecord
  2
*Paper_Space0
340
26
 70
     0
280
     1
281
     0
  0
BLOCK_RECORD
  5
4E
330
1
100
AcDbSymbolTableRecord
100
AcDbBlockTableRecord
  2
13@@SfigorgFlag@@4
340
0
102
{BLKREFS
331
145
102
}
 70
     0
280
     1
281
     0
  0
BLOCK_RECORD
  5
51
330
1
100
AcDbSymbolTableRecord
100
AcDbBlockTableRecord
  2
02@@SfigorgFlag@@4
340
0
102
{BLKREFS
331
175
102
}
 70
     0
280
     1
281
     0
  0
ENDTAB
  0
ENDSEC
  0
SECTION
  2
BLOCKS
  0
BLOCK
  5
20
330
1F
100
AcDbEntity
  8
0
100
AcDbBlockBegin
  2
*Model_Space
 70
     0
 10
0.0
 20
0.0
 30
0.0
  3
*Model_Space
  1

  0
ENDBLK
  5
21
330
1F
100
AcDbEntity
  8
0
100
AcDbBlockEnd
  0
BLOCK
  5
1C
330
1B
100
AcDbEntity
 67
     1
  8
0
100
AcDbBlockBegin
  2
*Paper_Space
 70
     0
 10
0.0
 20
0.0
 30
0.0
  3
*Paper_Space
  1

  0
ENDBLK
  5
1D
330
1B
100
AcDbEntity
 67
     1
  8
0
100
AcDbBlockEnd
  0
BLOCK
  5
24
330
23
100
AcDbEntity
  8
0
100
AcDbBlockBegin
  2
*Paper_Space0
 70
     0
 10
0.0
 20
0.0
 30
0.0
  3
*Paper_Space0
  1

  0
ENDBLK
  5
25
330
23
100
AcDbEntity
  8
0
100
AcDbBlockEnd
  0
BLOCK
  5
4F
330
4E
100
AcDbEntity
  8
0
100
AcDbBlockBegin
  2
13@@SfigorgFlag@@4
 70
     0
 10
0.0
 20
0.0
 30
0.0
  3
13@@SfigorgFlag@@4
  1

  0
LINE
  5
27D
330
4E
100
AcDbEntity
  8
0-0_補助線
  6
Continuous
 62
     7
370
     9
100
AcDbLine
 10
-0.6367851249669627
 20
2.782801011029406
 30
0.0
 11
-0.6367851249669627
 21
3.3828010110294
 31
0.0
  0
LINE
  5
27E
330
4E
100
AcDbEntity
  8
0-0_補助線
  6
Continuous
 62
     7
370
     9
100
AcDbLine
 10
1.163214875033049
 20
3.3828010110294
 30
0.0
 11
-0.6367851249669627
 21
3.3828010110294
 31
0.0
  0
ARC
  5
27F
330
4E
100
AcDbEntity
  8
0-0_補助線
  6
Continuous
 62
     7
370
     9
100
AcDbCircle
 10
1.163214875033049
 20
3.182801011029412
 30
0.0
 40
0.2
100
AcDbArc
 50
0.0
 51
90.00000000000001
  0
ARC
  5
280
330
4E
100
AcDbEntity
  8
0-0_補助線
  6
Continuous
 62
     7
370
     9
100
AcDbCircle
 10
1.163214875033049
 20
-2.017198988970605
 30
0.0
 40
0.2
100
AcDbArc
 50
270.0
 51
0.0
  0
LINE
  5
281
330
4E
100
AcDbEntity
  8
0-0_補助線
  6
Continuous
 62
     7
370
     9
100
AcDbLine
 10
1.363214875033037
 20
3.182801011029412
 30
0.0
 11
1.363214875033037
 21
-2.017198988970605
 31
0.0
  0
LINE
  5
282
330
4E
100
AcDbEntity
  8
0-0_補助線
  6
Continuous
 62
     7
370
     9
100
AcDbLine
 10
1.163214875033049
 20
-2.217198988970594
 30
0.0
 11
0.5432148750330441
 21
-2.217198988970594
 31
0.0
  0
LINE
  5
283
330
4E
100
AcDbEntity
  8
0-0_補助線
  6
Continuous
 62
     7
370
     9
100
AcDbLine
 10
0.5432148750330441
 20
-0.8171989889705884
 30
0.0
 11
0.5432148750330441
 21
-2.217198988970594
 31
0.0
  0
LINE
  5
284
330
4E
100
AcDbEntity
  8
0-0_補助線
  6
Continuous
 62
     7
370
     9
100
AcDbLine
 10
0.5432148750330441
 20
-0.8171989889705884
 30
0.0
 11
-0.1367851249669627
 21
-0.8171989889705884
 31
0.0
  0
LINE
  5
285
330
4E
100
AcDbEntity
  8
0-0_補助線
  6
Continuous
 62
     7
370
     9
100
AcDbLine
 10
-0.1367851249669627
 20
-0.8171989889705884
 30
0.0
 11
-0.1367851249669627
 21
-2.217198988970594
 31
0.0
  0
LINE
  5
286
330
4E
100
AcDbEntity
  8
0-0_補助線
  6
Continuous
 62
     7
370
     9
100
AcDbLine
 10
-0.9967851249669621
 20
-2.217198988970594
 30
0.0
 11
-0.1367851249669627
 21
-2.217198988970594
 31
0.0
  0
ARC
  5
287
330
4E
100
AcDbEntity
  8
0-0_補助線
  6
Continuous
 62
     7
370
     9
100
AcDbCircle
 10
0.1560713203454611
 20
-1.921007582720605
 30
0.0
 40
0.7774306106567382
100
AcDbArc
 50
202.3948689984843
 51
337.6051310015158
  0
ARC
  5
288
330
4E
100
AcDbEntity
  8
0-0_補助線
  6
Continuous
 62
     7
370
     9
100
AcDbCircle
 10
0.1560713203454611
 20
-1.921007582720605
 30
0.0
 40
0.8974306106567383
100
AcDbArc
 50
199.2714385986328
 51
340.7285461425781
  0
LINE
  5
289
330
4E
100
AcDbEntity
  8
0-0_補助線
  6
Continuous
 62
     7
370
     9
100
AcDbLine
 10
-0.9967851249669621
 20
2.782801011029406
 30
0.0
 11
-0.6367851249669627
 21
2.782801011029406
 31
0.0
  0
LINE
  5
28A
330
4E
100
AcDbEntity
  8
0-0_補助線
  6
Continuous
 62
     7
370
     9
100
AcDbLine
 10
-0.9967851249669621
 20
-2.217198988970594
 30
0.0
 11
-0.9967851249669621
 21
2.782801011029406
 31
0.0
  0
ENDBLK
  5
50
330
4E
100
AcDbEntity
  8
0
100
AcDbBlockEnd
  0
BLOCK
  5
52
330
51
100
AcDbEntity
  8
0
100
AcDbBlockBegin
  2
02@@SfigorgFlag@@4
 70
     0
 10
0.0
 20
0.0
 30
0.0
  3
02@@SfigorgFlag@@4
  1

  0
ARC
  5
28B
330
51
100
AcDbEntity
  8
0-0_補助線
  6
Continuous
 62
     7
370
     9
100
AcDbCircle
 10
1.160448776651236
 20
3.352222230456135
 30
0.0
 40
0.2
100
AcDbArc
 50
0.0
 51
90.00000000000001
  0
ARC
  5
28C
330
51
100
AcDbEntity
  8
0-0_補助線
  6
Continuous
 62
     7
370
     9
100
AcDbCircle
 10
1.160448776651236
 20
-1.847777769543882
 30
0.0
 40
0.2
100
AcDbArc
 50
270.0
 51
0.0
  0
LINE
  5
28D
330
51
100
AcDbEntity
  8
0-0_補助線
  6
Continuous
 62
     7
370
     9
100
AcDbLine
 10
1.360448776651225
 20
3.352222230456135
 30
0.0
 11
1.360448776651225
 21
-1.847777769543882
 31
0.0
  0
LINE
  5
28E
330
51
100
AcDbEntity
  8
0-0_補助線
  6
Continuous
 62
     7
370
     9
100
AcDbLine
 10
1.160448776651236
 20
-2.04777776954387
 30
0.0
 11
0.5404487766512318
 21
-2.04777776954387
 31
0.0
  0
LINE
  5
28F
330
51
100
AcDbEntity
  8
0-0_補助線
  6
Continuous
 62
     7
370
     9
100
AcDbLine
 10
0.5404487766512318
 20
-0.6477777695438647
 30
0.0
 11
0.5404487766512318
 21
-2.04777776954387
 31
0.0
  0
LINE
  5
290
330
51
100
AcDbEntity
  8
0-0_補助線
  6
Continuous
 62
     7
370
     9
100
AcDbLine
 10
0.5404487766512318
 20
-0.6477777695438647
 30
0.0
 11
-0.139551223348775
 21
-0.6477777695438647
 31
0.0
  0
LINE
  5
291
330
51
100
AcDbEntity
  8
0-0_補助線
  6
Continuous
 62
     7
370
     9
100
AcDbLine
 10
-0.139551223348775
 20
-0.6477777695438647
 30
0.0
 11
-0.139551223348775
 21
-2.04777776954387
 31
0.0
  0
LINE
  5
292
330
51
100
AcDbEntity
  8
0-0_補助線
  6
Continuous
 62
     7
370
     9
100
AcDbLine
 10
-0.9995512233487602
 20
-2.04777776954387
 30
0.0
 11
-0.139551223348775
 21
-2.04777776954387
 31
0.0
  0
LINE
  5
293
330
51
100
AcDbEntity
  8
0-0_補助線
  6
Continuous
 62
     7
370
     9
100
AcDbLine
 10
1.160448776651236
 20
3.552222230456124
 30
0.0
 11
-0.639551223348775
 21
3.552222230456124
 31
0.0
  0
LINE
  5
294
330
51
100
AcDbEntity
  8
0-0_補助線
  6
Continuous
 62
     7
370
     9
100
AcDbLine
 10
-0.9995512233487602
 20
2.95222223045613
 30
0.0
 11
-0.639551223348775
 21
2.95222223045613
 31
0.0
  0
LINE
  5
295
330
51
100
AcDbEntity
  8
0-0_補助線
  6
Continuous
 62
     7
370
     9
100
AcDbLine
 10
-0.639551223348775
 20
2.95222223045613
 30
0.0
 11
-0.639551223348775
 21
3.552222230456124
 31
0.0
  0
LINE
  5
296
330
51
100
AcDbEntity
  8
0-0_補助線
  6
Continuous
 62
     7
370
     9
100
AcDbLine
 10
-0.9995512233487602
 20
-2.04777776954387
 30
0.0
 11
-0.9995512233487602
 21
2.95222223045613
 31
0.0
  0
LINE
  5
297
330
51
100
AcDbEntity
  8
0-0_補助線
  6
Continuous
 62
     7
370
     9
100
AcDbLine
 10
-0.6938384209962578
 20
-2.04777776954387
 30
0.0
 11
-0.5738384209962533
 21
-2.167777769543875
 31
0.0
  0
LINE
  5
298
330
51
100
AcDbEntity
  8
0-0_補助線
  6
Continuous
 62
     7
370
     9
100
AcDbLine
 10
-0.5738384209962533
 20
-2.167777769543875
 30
0.0
 11
0.8804490577045101
 21
-2.167777769543875
 31
0.0
  0
LINE
  5
299
330
51
100
AcDbEntity
  8
0-0_補助線
  6
Continuous
 62
     7
370
     9
100
AcDbLine
 10
1.000448761284588
 20
-2.047778065963797
 30
0.0
 11
0.8804490577045101
 21
-2.167777769543875
 31
0.0
  0
ENDBLK
  5
53
330
51
100
AcDbEntity
  8
0
100
AcDbBlockEnd
  0
ENDSEC
  0
SECTION
  2
ENTITIES
  0
LINE
  5
54
330
1F
100
AcDbEntity
  8
F-0_補助線
  6
JWW_HOJO
 62
   120
370
     5
100
AcDbLine
 10
-6140.081333436773
 20
-4455.0
 30
0.0
 11
-6140.081333436773
 21
4424.999604096284
 31
0.0
  0
LINE
  5
55
330
1F
100
AcDbEntity
  8
F-0_補助線
  6
JWW_HOJO
 62
   120
370
     5
100
AcDbLine
 10
-6140.081333436773
 20
4424.999604096284
 30
0.0
 11
6159.917676803936
 21
4424.999604096284
 31
0.0
  0
LINE
  5
56
330
1F
100
AcDbEntity
  8
F-0_補助線
  6
JWW_HOJO
 62
   120
370
     5
100
AcDbLine
 10
6159.917676803936
 20
4424.999604096284
 30
0.0
 11
6159.917676803936
 21
-4455.0
 31
0.0
  0
LINE
  5
57
330
1F
100
AcDbEntity
  8
F-0_補助線
  6
JWW_HOJO
 62
   120
370
     5
100
AcDbLine
 10
6159.917676803936
 20
-4455.0
 30
0.0
 11
-6140.081333436773
 21
-4455.0
 31
0.0
  0
LINE
  5
58
330
1F
100
AcDbEntity
  8
F-0_補助線
  6
JWW_HOJO
 62
     7
370
     9
100
AcDbLine
 10
509.9185840832865
 20
-3795.000003092998
 30
0.0
 11
509.9185840832865
 21
-4195.000008247994
 31
0.0
  0
LINE
  5
59
330
1F
100
AcDbEntity
  8
F-1_枠
  6
Continuous
 62
   200
370
    20
100
AcDbLine
 10
5859.917429364114
 20
4174.999769056166
 30
0.0
 11
5859.917429364114
 21
-4205.000164959882
 31
0.0
  0
LINE
  5
5A
330
1F
100
AcDbEntity
  8
F-1_枠
  6
Continuous
 62
   200
370
    20
100
AcDbLine
 10
-5840.081317971782
 20
4174.999769056166
 30
0.0
 11
-5840.081317971782
 21
-4205.000164959882
 31
0.0
  0
LINE
  5
5B
330
1F
100
AcDbEntity
  8
F-1_枠
  6
Continuous
 62
   200
370
    20
100
AcDbLine
 10
5859.917429364114
 20
-4205.000002577498
 30
0.0
 11
-5840.081085996952
 21
-4205.000002577498
 31
0.0
  0
LINE
  5
5C
330
1F
100
AcDbEntity
  8
F-1_枠
  6
Continuous
 62
   200
370
    20
100
AcDbLine
 10
-5830.081323642279
 20
4174.999769056166
 30
0.0
 11
-5830.081323642279
 21
-4205.000164959882
 31
0.0
  0
LINE
  5
5D
330
1F
100
AcDbEntity
  8
F-1_枠
  6
Continuous
 62
   200
370
    20
100
AcDbLine
 10
-5835.081309208291
 20
4174.999769056166
 30
0.0
 11
-5835.081309208291
 21
-4205.000164959882
 31
0.0
  0
LINE
  5
5E
330
1F
100
AcDbEntity
  8
F-1_枠
  6
Continuous
 62
   200
370
    20
100
AcDbLine
 10
5854.917165428304
 20
4174.999769056166
 30
0.0
 11
5854.917165428304
 21
-4205.000164959882
 31
0.0
  0
LINE
  5
5F
330
1F
100
AcDbEntity
  8
F-1_枠
  6
Continuous
 62
   200
370
    20
100
AcDbLine
 10
5849.917643811961
 20
4174.999769056166
 30
0.0
 11
5849.917643811961
 21
-4205.000164959882
 31
0.0
  0
LINE
  5
60
330
1F
100
AcDbEntity
  8
F-1_枠
  6
Continuous
 62
   200
370
    20
100
AcDbLine
 10
5859.917429364114
 20
-4199.999993814004
 30
0.0
 11
-5840.081085996952
 21
-4199.999993814004
 31
0.0
  0
LINE
  5
61
330
1F
100
AcDbEntity
  8
F-1_枠
  6
Continuous
 62
   200
370
    20
100
AcDbLine
 10
5859.917429364114
 20
-4195.000008247994
 30
0.0
 11
-5840.081085996952
 21
-4195.000008247994
 31
0.0
  0
LINE
  5
62
330
1F
100
AcDbEntity
  8
F-1_枠
  6
Continuous
 62
   200
370
    20
100
AcDbLine
 10
4349.917891251784
 20
-3795.000003092998
 30
0.0
 11
4349.917891251784
 21
-4195.000008247994
 31
0.0
  0
LINE
  5
63
330
1F
100
AcDbEntity
  8
F-1_枠
  6
Continuous
 62
   200
370
    20
100
AcDbLine
 10
2849.917396372139
 20
-3795.000003092998
 30
0.0
 11
2849.917396372139
 21
-4195.000008247994
 31
0.0
  0
LINE
  5
64
330
1F
100
AcDbEntity
  8
F-1_枠
  6
Continuous
 62
   200
370
    20
100
AcDbLine
 10
9.918542843316231
 20
-3795.000003092998
 30
0.0
 11
9.918542843316231
 21
-4195.000008247994
 31
0.0
  0
LINE
  5
65
330
1F
100
AcDbEntity
  8
F-1_枠
  6
Continuous
 62
   200
370
    20
100
AcDbLine
 10
9.918542843316231
 20
-3994.999936078046
 30
0.0
 11
5849.917643811961
 21
-3995.005364289155
 31
0.0
  0
LINE
  5
66
330
1F
100
AcDbEntity
  8
F-1_枠
  6
Continuous
 62
   200
370
    20
100
AcDbLine
 10
-5840.081085996952
 20
4174.999769056166
 30
0.0
 11
5859.917429364114
 21
4174.999769056166
 31
0.0
  0
LINE
  5
67
330
1F
100
AcDbEntity
  8
F-1_枠
  6
Continuous
 62
   200
370
    20
100
AcDbLine
 10
-5840.081085996952
 20
4164.999983504013
 30
0.0
 11
5859.917429364114
 21
4164.999983504013
 31
0.0
  0
LINE
  5
68
330
1F
100
AcDbEntity
  8
F-1_枠
  6
Continuous
 62
   200
370
    20
100
AcDbLine
 10
-5840.081085996952
 20
4169.999505120355
 30
0.0
 11
5859.917429364114
 21
4169.999505120355
 31
0.0
  0
LINE
  5
69
330
1F
100
AcDbEntity
  8
F-0_補助線
  6
JWW_HOJO
 62
     7
370
     9
100
AcDbLine
 10
-5830.081323642279
 20
-3994.99993607839
 30
0.0
 11
9.918542843316231
 21
-3994.99993607839
 31
0.0
  0
LINE
  5
6A
330
1F
100
AcDbEntity
  8
F-0_補助線
  6
JWW_HOJO
 62
     7
370
     9
100
AcDbLine
 10
-5830.081323642279
 20
-3904.99993607839
 30
0.0
 11
9.918542843316231
 21
-3904.99993607839
 31
0.0
  0
LINE
  5
6B
330
1F
100
AcDbEntity
  8
F-0_補助線
  6
JWW_HOJO
 62
     7
370
     9
100
AcDbLine
 10
-5830.081323642279
 20
-4084.99993607839
 30
0.0
 11
9.918542843316231
 21
-4084.99993607839
 31
0.0
  0
LINE
  5
6C
330
1F
100
AcDbEntity
  8
F-0_補助線
  6
JWW_HOJO
 62
     7
370
     9
100
AcDbLine
 10
9.918408067688347
 20
-4139.999739777983
 30
0.0
 11
5849.917509036332
 21
-4140.005167989091
 31
0.0
  0
LINE
  5
6D
330
1F
100
AcDbEntity
  8
F-0_補助線
  6
JWW_HOJO
 62
     7
370
     9
100
AcDbLine
 10
9.918491721639953
 20
-4049.999739778022
 30
0.0
 11
5849.917592690284
 21
-4050.005167989131
 31
0.0
  0
LINE
  5
6E
330
1F
100
AcDbEntity
  8
F-0_補助線
  6
JWW_HOJO
 62
     7
370
     9
100
AcDbLine
 10
9.918593965360003
 20
-3939.99973721807
 30
0.0
 11
5849.917694934004
 21
-3940.005165429179
 31
0.0
  0
LINE
  5
6F
330
1F
100
AcDbEntity
  8
F-0_補助線
  6
JWW_HOJO
 62
     7
370
     9
100
AcDbLine
 10
9.918677619311609
 20
-3849.999737218109
 30
0.0
 11
5849.917778587956
 21
-3850.005165429218
 31
0.0
  0
LINE
  5
70
330
1F
100
AcDbEntity
  8
F-0_補助線
  6
JWW_HOJO
 62
     7
370
     9
100
AcDbLine
 10
2939.917396372139
 20
-3795.000003092998
 30
0.0
 11
2939.917396372139
 21
-4195.000008247994
 31
0.0
  0
LINE
  5
71
330
1F
100
AcDbEntity
  8
F-0_補助線
  6
JWW_HOJO
 62
     7
370
     9
100
AcDbLine
 10
99.91854284331623
 20
-3795.000003092998
 30
0.0
 11
99.91854284331623
 21
-4195.000008247994
 31
0.0
  0
LINE
  5
72
330
1F
100
AcDbEntity
  8
F-0_補助線
  6
JWW_HOJO
 62
     7
370
     9
100
AcDbLine
 10
4439.917891251784
 20
-3795.000003092998
 30
0.0
 11
4439.917891251784
 21
-4195.000008247994
 31
0.0
  0
LINE
  5
73
330
1F
100
AcDbEntity
  8
F-1_枠
  6
Continuous
 62
   200
370
    20
100
AcDbLine
 10
5859.917429364114
 20
-3795.000003092998
 30
0.0
 11
-5840.081085996952
 21
-3795.000003092998
 31
0.0
  0
LINE
  5
74
330
1F
100
AcDbEntity
  8
F-1_枠
  6
Continuous
 62
   200
370
    20
100
AcDbLine
 10
5859.917429364114
 20
-3790.000017526987
 30
0.0
 11
-5840.081085996952
 21
-3790.000017526987
 31
0.0
  0
LINE
  5
75
330
1F
100
AcDbEntity
  8
F-0_補助線
  6
JWW_HOJO
 62
     7
370
     9
100
AcDbLine
 10
-5087.628710189611
 20
-3795.000003092999
 30
0.0
 11
-5087.628710189611
 21
-4205.000164959882
 31
0.0
  0
LINE
  5
76
330
1F
100
AcDbEntity
  8
F-0_補助線
  6
JWW_HOJO
 62
     7
370
     9
100
AcDbLine
 10
-50.08145715668377
 20
-3795.000003092998
 30
0.0
 11
-50.08145715668377
 21
-4195.000008247994
 31
0.0
  0
MTEXT
  5
77
330
1F
100
AcDbEntity
  8
F-A_文字
  6
Continuous
 62
     7
370
     0
100
AcDbMText
 10
99.91854284331623
 20
-3887.139820871936
 30
0.0
 40
45.72
 41
180.0
 46
0.0
 71
     7
 72
     1
  1
{\fＭＳ ゴシック|b0|i0|c128|p49;図面名}
 73
     1
 44
1.0
  0
MTEXT
  5
78
330
1F
100
AcDbEntity
  8
F-A_文字
  6
Continuous
 62
     7
370
     0
100
AcDbMText
 10
2939.917396372139
 20
-3887.142460617774
 30
0.0
 40
45.72
 41
300.0
 46
0.0
 71
     7
 72
     1
  1
{\fＭＳ ゴシック|b0|i0|c128|p49;ＳＣＡＬＥ}
 73
     1
 44
1.0
  0
MTEXT
  5
79
330
1F
100
AcDbEntity
  8
F-A_文字
  6
Continuous
 62
     7
370
     0
100
AcDbMText
 10
4439.917891251784
 20
-3887.143854850754
 30
0.0
 40
45.72
 41
240.0
 46
0.0
 71
     7
 72
     1
  1
{\fＭＳ ゴシック|b0|i0|c128|p49;ＤＡＴＥ}
 73
     1
 44
1.0
  0
MTEXT
  5
7A
330
1F
100
AcDbEntity
  8
F-A_文字
  6
Continuous
 62
     7
370
     0
100
AcDbMText
 10
2939.917396372139
 20
-4087.14246317786
 30
0.0
 40
45.72
 41
240.0
 46
0.0
 71
     7
 72
     1
  1
{\fＭＳ ゴシック|b0|i0|c128|p49;ＦＩＬＥ}
 73
     1
 44
1.0
  0
MTEXT
  5
7B
330
1F
100
AcDbEntity
  8
F-A_文字
  6
Continuous
 62
     7
370
     0
100
AcDbMText
 10
4439.917891251784
 20
-4087.143857410839
 30
0.0
 40
45.72
 41
180.0
 46
0.0
 71
     7
 72
     1
  1
{\fＭＳ ゴシック|b0|i0|c128|p49;ＮＯ．}
 73
     1
 44
1.0
  0
MTEXT
  5
7C
330
1F
100
AcDbEntity
  8
F-A_文字
  6
Continuous
 62
     7
370
     0
100
AcDbMText
 10
1394.917396372138
 20
-4096.140669266149
 30
0.0
 40
45.72
 41
120.0
 46
0.0
 71
     7
 72
     1
  1
{\fＭＳ ゴシック|b0|i0|c128|p49;株式}
 73
     1
 44
1.0
  0
MTEXT
  5
7D
330
1F
100
AcDbEntity
  8
F-A_文字
  6
Continuous
 62
     7
370
     0
100
AcDbMText
 10
1604.917396372138
 20
-4164.281754523929
 30
0.0
 40
101.44125
 41
1065.0
 46
0.0
 71
     7
 72
     1
  1
{\fＭＳ ゴシック|b0|i0|c128|p49;ウッドワン・・・}
 73
     1
 44
1.0
  0
MTEXT
  5
7E
330
1F
100
AcDbEntity
  8
F-A_文字
  6
Continuous
 62
     7
370
     0
100
AcDbMText
 10
1394.917396372138
 20
-4168.140669266187
 30
0.0
 40
45.72
 41
120.0
 46
0.0
 71
     7
 72
     1
  1
{\fＭＳ ゴシック|b0|i0|c128|p49;会社}
 73
     1
 44
1.0
  0
MTEXT
  5
7F
330
1F
100
AcDbEntity
  8
F-A_文字
  6
Continuous
 62
     7
370
     0
100
AcDbMText
 10
5768.321977672939
 20
-4314.841419020919
 30
0.0
 40
68.58
 41
90.0
 46
0.0
 71
     7
 72
     1
  1
{\fＭＳ ゴシック|b0|i0|c128|p49;）}
 73
     1
 44
1.0
  0
MTEXT
  5
80
330
1F
100
AcDbEntity
  8
F-A_文字
  6
Continuous
 62
     7
370
     0
100
AcDbMText
 10
5350.114617405298
 20
-4316.235443869856
 30
0.0
 40
68.58
 41
45.0
 46
0.0
 71
     7
 72
     1
  1
{\fＭＳ ゴシック|b0|i0|c128|p49;,}
 73
     1
 44
1.0
  0
MTEXT
  5
81
330
1F
100
AcDbEntity
  8
F-A_文字
  6
Continuous
 62
     7
370
     0
100
AcDbMText
 10
5083.855928478601
 20
-4314.771967288282
 30
0.0
 40
74.295
 41
97.5
 46
0.0
 71
     7
 72
     1
  1
{\fＭＳ ゴシック|b0|i0|c128|p49;$y}
 73
     1
 44
1.0
  0
MTEXT
  5
82
330
1F
100
AcDbEntity
  8
F-A_文字
  6
Continuous
 62
     7
370
     0
100
AcDbMText
 10
5238.592649517422
 20
-4314.771967288282
 30
0.0
 40
74.295
 41
97.5
 46
0.0
 71
     7
 72
     1
  1
{\fＭＳ ゴシック|b0|i0|c128|p49;$m}
 73
     1
 44
1.0
  0
MTEXT
  5
83
330
1F
100
AcDbEntity
  8
F-A_文字
  6
Continuous
 62
     7
370
     0
100
AcDbMText
 10
5393.32938200033
 20
-4314.771967288282
 30
0.0
 40
74.295
 41
97.5
 46
0.0
 71
     7
 72
     1
  1
{\fＭＳ ゴシック|b0|i0|c128|p49;$d}
 73
     1
 44
1.0
  0
MTEXT
  5
84
330
1F
100
AcDbEntity
  8
F-A_文字
  6
Continuous
 62
     7
370
     0
100
AcDbMText
 10
5548.066114483239
 20
-4314.771967288282
 30
0.0
 40
74.295
 41
195.0
 46
0.0
 71
     7
 72
     1
  1
{\fＭＳ ゴシック|b0|i0|c128|p49;印刷}
 73
     1
 44
1.0
  0
MTEXT
  5
85
330
1F
100
AcDbEntity
  8
F-A_文字
  6
Continuous
 62
     7
370
     0
100
AcDbMText
 10
4943.952040816226
 20
-4319.023493567732
 30
0.0
 40
68.58
 41
90.0
 46
0.0
 71
     7
 72
     1
  1
{\fＭＳ ゴシック|b0|i0|c128|p49;（}
 73
     1
 44
1.0
  0
MTEXT
  5
86
330
1F
100
AcDbEntity
  8
F-A_文字
  6
Continuous
 62
     7
370
     0
100
AcDbMText
 10
5191.195810375571
 20
-4319.023493567732
 30
0.0
 40
68.58
 41
45.0
 46
0.0
 71
     7
 72
     1
  1
{\fＭＳ ゴシック|b0|i0|c128|p49;,}
 73
     1
 44
1.0
  0
MTEXT
  5
87
330
1F
100
AcDbEntity
  8
F-A_文字
  6
Continuous
 62
     7
370
     9
100
AcDbMText
 10
5096.167700144058
 20
-4147.857012699985
 30
0.0
 40
74.295
 41
97.5
 46
0.0
 71
     7
 72
     1
  1
{\fＭＳ ゴシック|b0|i0|c128|p49;01}
 73
     1
 44
1.0
  0
MTEXT
  5
88
330
1F
100
AcDbEntity
  8
F-A_文字
  6
Continuous
 62
     7
370
     0
100
AcDbMText
 10
3569.917643811961
 20
-3946.903115907308
 30
0.0
 40
76.19999999999999
 41
150.0
 46
0.0
 71
     7
 72
     1
  1
{\fＭＳ ゴシック|b0|i0|c128|p49;1/5}
 73
     1
 44
1.0
  0
LINE
  5
89
330
1F
100
AcDbEntity
  8
F-0_補助線
  6
JWW_HOJO
 62
   120
370
     5
100
AcDbLine
 10
-6140.081333436773
 20
194.9998020481422
 30
0.0
 11
6159.917676803936
 21
194.9998020481422
 31
0.0
  0
LINE
  5
8A
330
1F
100
AcDbEntity
  8
F-0_補助線
  6
JWW_HOJO
 62
   120
370
     5
100
AcDbLine
 10
-5659.999495325861
 20
4424.999604096284
 30
0.0
 11
-5659.999495325861
 21
-4455.0
 31
0.0
  0
LINE
  5
8B
330
1F
100
AcDbEntity
  8
F-0_補助線
  6
JWW_HOJO
 62
   120
370
     5
100
AcDbLine
 10
-6140.081333436773
 20
2438.999683277028
 30
0.0
 11
6159.917676803936
 21
2438.999683277028
 31
0.0
  0
LINE
  5
8C
330
1F
100
AcDbEntity
  8
F-0_補助線
  6
JWW_HOJO
 62
   120
370
     5
100
AcDbLine
 10
-6140.081333436773
 20
-3159.000197951857
 30
0.0
 11
6159.917676803936
 21
-3159.000197951857
 31
0.0
  0
LINE
  5
8D
330
1F
100
AcDbEntity
  8
F-0_補助線
  6
JWW_HOJO
 62
   120
370
     5
100
AcDbLine
 10
-200.0818283164182
 20
-4455.0
 30
0.0
 11
-200.0818283164182
 21
194.9998020481422
 31
0.0
  0
LINE
  5
8E
330
1F
100
AcDbEntity
  8
F-0_補助線
  6
JWW_HOJO
 62
   120
370
     5
100
AcDbLine
 10
9.918171683581818
 20
-4455.0
 30
0.0
 11
9.918171683581818
 21
4424.999604096284
 31
0.0
  0
LINE
  5
8F
330
1F
100
AcDbEntity
  8
F-0_補助線
  6
JWW_HOJO
 62
   120
370
     5
100
AcDbLine
 10
219.9181716835818
 20
-4455.0
 30
0.0
 11
219.9181716835818
 21
194.9998020481422
 31
0.0
  0
LINE
  5
90
330
1F
100
AcDbEntity
  8
F-0_補助線
  6
JWW_HOJO
 62
   120
370
     5
100
AcDbLine
 10
5679.835838693025
 20
4000.000181455871
 30
0.0
 11
5679.835838693025
 21
-4455.0
 31
0.0
  0
LINE
  5
91
330
1F
100
AcDbEntity
  8
F-0_補助線
  6
JWW_HOJO
 62
   120
370
     5
100
AcDbLine
 10
-6140.081333436773
 20
3730.000181455871
 30
0.0
 11
6159.917676803936
 21
3730.000181455871
 31
0.0
  0
LINE
  5
92
330
1F
100
AcDbEntity
  8
F-0_補助線
  6
JWW_HOJO
 62
   120
370
     5
100
AcDbLine
 10
-6140.081333436773
 20
4000.000181455871
 30
0.0
 11
6159.917676803936
 21
4000.000181455871
 31
0.0
  0
ELLIPSE
  5
93
330
1F
100
AcDbEntity
  8
戸当り
  6
Continuous
 62
    92
370
    13
100
AcDbEllipse
 10
4540.105034654816
 20
2921.053788253369
 30
0.0
 11
11.36181697857171
 21
42.40287823032828
 31
0.0
210
0.0
220
0.0
230
0.9999999999999999
 40
0.6
 41
1.570796326794897
 42
4.71238898038469
  0
LINE
  5
94
330
1F
100
AcDbEntity
  8
戸当り
  6
Continuous
 62
    92
370
    13
100
AcDbLine
 10
4565.546761593013
 20
2914.236698066226
 30
0.0
 11
4514.66330771662
 21
2927.870878440512
 31
0.0
  0
LINE
  5
95
330
1F
100
AcDbEntity
  8
戸当り
  6
Continuous
 62
    92
370
    13
100
AcDbLine
 10
4568.807881561305
 20
2926.407363477468
 30
0.0
 11
4517.924427684911
 21
2940.041543851754
 31
0.0
  0
ELLIPSE
  5
96
330
1F
100
AcDbEntity
  8
戸当り
  6
Continuous
 62
    92
370
    13
100
AcDbEllipse
 10
4564.278427952497
 20
3011.270120231655
 30
0.0
 11
21.86569797210526
 21
81.6038957748525
 31
0.0
210
0.0
220
0.0
230
1.0
 40
0.5
 41
4.340591432030095
 42
8.225779182329084
  0
ELLIPSE
  5
97
330
1F
100
AcDbEntity
  8
戸当り
  6
Continuous
 62
    92
370
    13
100
AcDbEllipse
 10
4563.652805079395
 20
3008.935263882863
 30
0.0
 11
26.49533313827761
 21
98.88192943551532
 31
0.0
210
0.0
220
0.0
230
0.9999999999999999
 40
0.4
 41
3.840308517104466
 42
4.432552034522944
  0
ELLIPSE
  5
98
330
1F
100
AcDbEntity
  8
戸当り
  6
Continuous
 62
    92
370
    13
100
AcDbEllipse
 10
4563.652805079395
 20
3008.935263882863
 30
0.0
 11
26.49533313827761
 21
98.88192943551532
 31
0.0
210
0.0
220
0.0
230
0.9999999999999999
 40
0.4
 41
1.850633272656679
 42
2.442876790075129
  0
ELLIPSE
  5
99
330
1F
100
AcDbEntity
  8
戸当り
  6
Continuous
 62
    92
370
    13
100
AcDbEllipse
 10
4424.990824908115
 20
2883.285044889069
 30
0.0
 11
-7.622927487939132
 21
43.23177007461331
 31
0.0
210
0.0
220
0.0
230
1.0
 40
0.6000000000000001
 41
1.570796326794897
 42
4.71238898038469
  0
LINE
  5
9A
330
1F
100
AcDbEntity
  8
戸当り
  6
Continuous
 62
    92
370
    13
100
AcDbLine
 10
4450.929886952883
 20
2887.858801381832
 30
0.0
 11
4399.051762863348
 21
2878.711288396305
 31
0.0
  0
LINE
  5
9B
330
1F
100
AcDbEntity
  8
戸当り
  6
Continuous
 62
    92
370
    13
100
AcDbLine
 10
4448.74191991428
 20
2900.267379069786
 30
0.0
 11
4396.863795824744
 21
2891.119866084259
 31
0.0
  0
ELLIPSE
  5
9C
330
1F
100
AcDbEntity
  8
戸当り
  6
Continuous
 62
    92
370
    13
100
AcDbEllipse
 10
4408.772290091617
 20
2975.264926534712
 30
0.0
 11
-14.67024424252691
 21
83.19908946199426
 31
0.0
210
0.0
220
0.0
230
1.0
 40
0.5
 41
4.340591432030095
 42
8.225779182329084
  0
ELLIPSE
  5
9D
330
1F
100
AcDbEntity
  8
戸当り
  6
Continuous
 62
    92
370
    13
100
AcDbEllipse
 10
4409.192036141518
 20
2972.884428393055
 30
0.0
 11
-17.7763823922528
 21
100.8148742797557
 31
0.0
210
0.0
220
0.0
230
1.0
 40
0.4
 41
3.840308517104466
 42
4.432552034522944
  0
ELLIPSE
  5
9E
330
1F
100
AcDbEntity
  8
戸当り
  6
Continuous
 62
    92
370
    13
100
AcDbEllipse
 10
4409.192036141518
 20
2972.884428393055
 30
0.0
 11
-17.7763823922528
 21
100.8148742797557
 31
0.0
210
0.0
220
0.0
230
1.0
 40
0.4
 41
1.850633272656679
 42
2.442876790075129
  0
LINE
  5
9F
330
1F
100
AcDbEntity
  8
0-0_補助線
  6
JWW_HOJO
 62
   120
370
     5
100
AcDbLine
 10
4482.835838693025
 20
3730.000181455871
 30
0.0
 11
4482.835838693025
 21
2764.000181455871
 31
0.0
  0
LINE
  5
A0
330
1F
100
AcDbEntity
  8
0-0_補助線
  6
JWW_HOJO
 62
   120
370
     5
100
AcDbLine
 10
5280.835838693025
 20
3730.000181455871
 30
0.0
 11
5280.835838693025
 21
2764.000181455871
 31
0.0
  0
ELLIPSE
  5
A1
330
1F
100
AcDbEntity
  8
戸当り
  6
Continuous
 62
    92
370
    13
100
AcDbEllipse
 10
5338.105034654817
 20
2921.053788253369
 30
0.0
 11
11.36181697857171
 21
42.40287823032828
 31
0.0
210
0.0
220
0.0
230
0.9999999999999999
 40
0.6
 41
1.570796326794897
 42
4.71238898038469
  0
LINE
  5
A2
330
1F
100
AcDbEntity
  8
戸当り
  6
Continuous
 62
    92
370
    13
100
AcDbLine
 10
5363.546761593014
 20
2914.236698066226
 30
0.0
 11
5312.66330771662
 21
2927.870878440512
 31
0.0
  0
LINE
  5
A3
330
1F
100
AcDbEntity
  8
戸当り
  6
Continuous
 62
    92
370
    13
100
AcDbLine
 10
5366.807881561305
 20
2926.407363477468
 30
0.0
 11
5315.924427684911
 21
2940.041543851754
 31
0.0
  0
ELLIPSE
  5
A4
330
1F
100
AcDbEntity
  8
戸当り
  6
Continuous
 62
    92
370
    13
100
AcDbEllipse
 10
5362.278427952497
 20
3011.270120231655
 30
0.0
 11
21.86569797210526
 21
81.6038957748525
 31
0.0
210
0.0
220
0.0
230
1.0
 40
0.5
 41
4.340591432030095
 42
8.225779182329084
  0
ELLIPSE
  5
A5
330
1F
100
AcDbEntity
  8
戸当り
  6
Continuous
 62
    92
370
    13
100
AcDbEllipse
 10
5361.652805079395
 20
3008.935263882863
 30
0.0
 11
26.49533313827761
 21
98.88192943551532
 31
0.0
210
0.0
220
0.0
230
0.9999999999999999
 40
0.4
 41
3.840308517104466
 42
4.432552034522944
  0
ELLIPSE
  5
A6
330
1F
100
AcDbEntity
  8
戸当り
  6
Continuous
 62
    92
370
    13
100
AcDbEllipse
 10
5361.652805079395
 20
3008.935263882863
 30
0.0
 11
26.49533313827761
 21
98.88192943551532
 31
0.0
210
0.0
220
0.0
230
0.9999999999999999
 40
0.4
 41
1.850633272656679
 42
2.442876790075129
  0
ELLIPSE
  5
A7
330
1F
100
AcDbEntity
  8
戸当り
  6
Continuous
 62
    92
370
    13
100
AcDbEllipse
 10
5222.990824908115
 20
2883.285044889069
 30
0.0
 11
-7.622927487939132
 21
43.23177007461331
 31
0.0
210
0.0
220
0.0
230
1.0
 40
0.6000000000000001
 41
1.570796326794897
 42
4.71238898038469
  0
LINE
  5
A8
330
1F
100
AcDbEntity
  8
戸当り
  6
Continuous
 62
    92
370
    13
100
AcDbLine
 10
5248.929886952883
 20
2887.858801381832
 30
0.0
 11
5197.051762863347
 21
2878.711288396305
 31
0.0
  0
LINE
  5
A9
330
1F
100
AcDbEntity
  8
戸当り
  6
Continuous
 62
    92
370
    13
100
AcDbLine
 10
5246.74191991428
 20
2900.267379069786
 30
0.0
 11
5194.863795824744
 21
2891.119866084259
 31
0.0
  0
ELLIPSE
  5
AA
330
1F
100
AcDbEntity
  8
戸当り
  6
Continuous
 62
    92
370
    13
100
AcDbEllipse
 10
5206.772290091617
 20
2975.264926534712
 30
0.0
 11
-14.67024424252691
 21
83.19908946199426
 31
0.0
210
0.0
220
0.0
230
1.0
 40
0.5
 41
4.340591432030095
 42
8.225779182329084
  0
ELLIPSE
  5
AB
330
1F
100
AcDbEntity
  8
戸当り
  6
Continuous
 62
    92
370
    13
100
AcDbEllipse
 10
5207.192036141518
 20
2972.884428393055
 30
0.0
 11
-17.7763823922528
 21
100.8148742797557
 31
0.0
210
0.0
220
0.0
230
1.0
 40
0.4
 41
3.840308517104466
 42
4.432552034522944
  0
ELLIPSE
  5
AC
330
1F
100
AcDbEntity
  8
戸当り
  6
Continuous
 62
    92
370
    13
100
AcDbEllipse
 10
5207.192036141518
 20
2972.884428393055
 30
0.0
 11
-17.7763823922528
 21
100.8148742797557
 31
0.0
210
0.0
220
0.0
230
1.0
 40
0.4
 41
1.850633272656679
 42
2.442876790075129
  0
ARC
  5
AD
330
1F
100
AcDbEntity
  8
戸当り
  6
Continuous
 62
    40
370
    15
100
AcDbCircle
 10
5125.435838693024
 20
3444.046273380329
 30
0.0
 40
310.8
100
AcDbArc
 50
270.0
 51
0.0
  0
LINE
  5
AE
330
1F
100
AcDbEntity
  8
戸当り
  6
Continuous
 62
    40
370
    15
100
AcDbLine
 10
5125.435838693025
 20
3481.846273380329
 30
0.0
 11
5125.435838693024
 21
3133.246273380328
 31
0.0
  0
LINE
  5
AF
330
1F
100
AcDbEntity
  8
戸当り
  6
Continuous
 62
    40
370
    15
100
AcDbLine
 10
5658.835838693025
 20
3444.046273380329
 30
0.0
 11
4902.835838693025
 21
3444.046273380329
 31
0.0
  0
ARC
  5
B0
330
1F
100
AcDbEntity
  8
戸当り
  6
Continuous
 62
    40
370
    15
100
AcDbCircle
 10
4638.235838693025
 20
3444.046273380329
 30
0.0
 40
310.8
100
AcDbArc
 50
180.0
 51
270.0
  0
LINE
  5
B1
330
1F
100
AcDbEntity
  8
戸当り
  6
Continuous
 62
    40
370
    15
100
AcDbLine
 10
4638.235838693025
 20
3481.846273380329
 30
0.0
 11
4638.235838693025
 21
3133.246273380328
 31
0.0
  0
LINE
  5
B2
330
1F
100
AcDbEntity
  8
戸当り
  6
Continuous
 62
    40
370
    15
100
AcDbLine
 10
4104.835838693025
 20
3444.046273380329
 30
0.0
 11
4860.835838693025
 21
3444.046273380329
 31
0.0
  0
LINE
  5
B3
330
1F
100
AcDbEntity
  8
0-0_補助線
  6
JWW_HOJO
 62
   120
370
     5
100
AcDbLine
 10
4104.835838693025
 20
3730.000181455871
 30
0.0
 11
4104.835838693025
 21
2764.000181455871
 31
0.0
  0
LINE
  5
B4
330
1F
100
AcDbEntity
  8
0-0_補助線
  6
JWW_HOJO
 62
   120
370
     5
100
AcDbLine
 10
4860.835838693025
 20
3730.000181455871
 30
0.0
 11
4860.835838693025
 21
2764.000181455871
 31
0.0
  0
LINE
  5
B5
330
1F
100
AcDbEntity
  8
戸当り
  6
Continuous
 62
    40
370
    15
100
AcDbLine
 10
4327.435838693025
 20
3481.846273380329
 30
0.0
 11
4104.835838693025
 21
3481.846273380329
 31
0.0
  0
LINE
  5
B6
330
1F
100
AcDbEntity
  8
戸当り
  6
Continuous
 62
    40
370
    15
100
AcDbLine
 10
4327.435838693025
 20
3481.846273380329
 30
0.0
 11
4327.435838693025
 21
3444.046273380329
 31
0.0
  0
LINE
  5
B7
330
1F
100
AcDbEntity
  8
戸当り
  6
Continuous
 62
    40
370
    15
100
AcDbLine
 10
4638.235838693025
 20
3481.846273380329
 30
0.0
 11
4860.835838693025
 21
3481.846273380329
 31
0.0
  0
LINE
  5
B8
330
1F
100
AcDbEntity
  8
戸当り
  6
Continuous
 62
    40
370
    15
100
AcDbLine
 10
5125.435838693025
 20
3481.846273380329
 30
0.0
 11
4902.835838693025
 21
3481.846273380329
 31
0.0
  0
LINE
  5
B9
330
1F
100
AcDbEntity
  8
戸当り
  6
Continuous
 62
    40
370
    15
100
AcDbLine
 10
5436.235838693025
 20
3481.846273380329
 30
0.0
 11
5436.235838693025
 21
3444.046273380329
 31
0.0
  0
LINE
  5
BA
330
1F
100
AcDbEntity
  8
戸当り
  6
Continuous
 62
    40
370
    15
100
AcDbLine
 10
5436.235838693025
 20
3481.846273380329
 30
0.0
 11
5658.835838693025
 21
3481.846273380329
 31
0.0
  0
LINE
  5
BB
330
1F
100
AcDbEntity
  8
0-0_補助線
  6
JWW_HOJO
 62
   120
370
     5
100
AcDbLine
 10
4902.835838693025
 20
3730.000181455871
 30
0.0
 11
4902.835838693025
 21
2764.000181455871
 31
0.0
  0
LINE
  5
BC
330
1F
100
AcDbEntity
  8
0-0_補助線
  6
JWW_HOJO
 62
   120
370
     5
100
AcDbLine
 10
5658.835838693025
 20
3730.000181455871
 30
0.0
 11
5658.835838693025
 21
2764.000181455871
 31
0.0
  0
LINE
  5
BD
330
1F
100
AcDbEntity
  8
0-A_文字
  6
Continuous
 62
    92
370
    13
100
AcDbLine
 10
4881.835838693025
 20
3730.000181455871
 30
0.0
 11
4881.835838693025
 21
2764.000181455871
 31
0.0
  0
LINE
  5
BE
330
1F
100
AcDbEntity
  8
0-A_文字
  6
Continuous
 62
    92
370
    13
100
AcDbLine
 10
5679.835838693025
 20
2764.000181455871
 30
0.0
 11
4083.835838693025
 21
2764.000181455871
 31
0.0
  0
LINE
  5
BF
330
1F
100
AcDbEntity
  8
0-A_文字
  6
Continuous
 62
    92
370
    13
100
AcDbLine
 10
5679.835838693025
 20
3730.000181455871
 30
0.0
 11
5679.835838693025
 21
2764.000181455871
 31
0.0
  0
LINE
  5
C0
330
1F
100
AcDbEntity
  8
0-A_文字
  6
Continuous
 62
    92
370
    13
100
AcDbLine
 10
5679.835838693025
 20
3730.000181455871
 30
0.0
 11
4083.835838693025
 21
3730.000181455871
 31
0.0
  0
LINE
  5
C1
330
1F
100
AcDbEntity
  8
0-A_文字
  6
Continuous
 62
    92
370
    13
100
AcDbLine
 10
4083.835838693025
 20
3604.000181455871
 30
0.0
 11
5679.835838693025
 21
3604.000181455871
 31
0.0
  0
LINE
  5
C2
330
1F
100
AcDbEntity
  8
0-A_文字
  6
Continuous
 62
    92
370
    13
100
AcDbLine
 10
4083.835838693025
 20
3730.000181455871
 30
0.0
 11
4083.835838693025
 21
2764.000181455871
 31
0.0
  0
MTEXT
  5
C3
330
1F
100
AcDbEntity
  8
0-A_文字
  6
Continuous
 62
     7
370
     9
100
AcDbMText
 10
4083.835838693027
 20
3750.482681455871
 30
0.0
 40
100.965
 41
795.0
 46
0.0
 71
     7
 72
     1
  1
{\fＭＳ ゴシック|b0|i0|c128|p49;■吊り手方向}
 73
     1
 44
1.0
  0
MTEXT
  5
C4
330
1F
100
AcDbEntity
  8
0-A_文字
  6
Continuous
 62
     7
370
     9
100
AcDbMText
 10
4332.835838693026
 20
3615.100181455871
 30
0.0
 40
76.19999999999999
 41
300.0
 46
0.0
 71
     7
 72
     1
  1
{\fＭＳ ゴシック|b0|i0|c128|p49;右吊元}
 73
     1
 44
1.0
  0
MTEXT
  5
C5
330
1F
100
AcDbEntity
  8
0-A_文字
  6
Continuous
 62
     7
370
     9
100
AcDbMText
 10
5130.835838693025
 20
3615.100181455871
 30
0.0
 40
76.19999999999999
 41
300.0
 46
0.0
 71
     7
 72
     1
  1
{\fＭＳ ゴシック|b0|i0|c128|p49;左吊元}
 73
     1
 44
1.0
  0
LINE
  5
C6
330
1F
100
AcDbEntity
  8
0-6_扉
  6
JWW_DASHED2
 62
   200
370
    20
100
AcDbLine
 10
1857.069878982496
 20
2009.44815694759
 30
0.0
 11
1857.069878982496
 21
1920.000197957027
 31
0.0
  0
LINE
  5
C7
330
1F
100
AcDbEntity
  8
0-6_扉
  6
JWW_DASHED2
 62
   200
370
    20
100
AcDbLine
 10
1641.069878982496
 20
2009.44815694759
 30
0.0
 11
1641.069878982496
 21
1920.000197957027
 31
0.0
  0
LINE
  5
C8
330
1F
100
AcDbEntity
  8
0-6_扉
  6
JWW_DASHED2
 62
   200
370
    20
100
AcDbLine
 10
1641.069878982496
 20
2009.44815694759
 30
0.0
 11
1857.069878982496
 21
2009.44815694759
 31
0.0
  0
CIRCLE
  5
C9
330
1F
100
AcDbEntity
  8
0-7_金物
  6
Continuous
 62
     7
370
     9
100
AcDbCircle
 10
1983.330104162264
 20
2003.73945809726
 30
0.0
 40
30.0
  0
CIRCLE
  5
CA
330
1F
100
AcDbEntity
  8
0-7_金物
  6
Continuous
 62
     7
370
     9
100
AcDbCircle
 10
1983.330104162264
 20
2003.73945809726
 30
0.0
 40
21.00000000000001
  0
LINE
  5
CB
330
1F
100
AcDbEntity
  8
0-0_補助線
  6
JWW_HOJO
 62
   120
370
     5
100
AcDbLine
 10
2475.038803120941
 20
2852.768662177449
 30
0.0
 11
-2455.201717519062
 21
2852.768662177449
 31
0.0
  0
LINE
  5
CC
330
1F
100
AcDbEntity
  8
0-1_通り芯
  6
JWW_CENTER1
 62
   120
370
     5
100
AcDbLine
 10
2475.038803120941
 20
2438.999683277028
 30
0.0
 11
-2455.201717519062
 21
2438.999683277028
 31
0.0
  0
LINE
  5
CD
330
1F
100
AcDbEntity
  8
0-0_補助線
  6
JWW_HOJO
 62
   120
370
     5
100
AcDbLine
 10
2475.038803120941
 20
1920.000197957027
 30
0.0
 11
-2455.201717519062
 21
1920.000197957027
 31
0.0
  0
LWPOLYLINE
  5
CE
330
1F
100
AcDbEntity
  8
0-B_寸法
  6
Continuous
 62
     7
370
     9
100
AcDbPolyline
 90
        4
 70
     1
 43
3.0
 10
-1979.701717325959
 20
3147.016061564036
 42
0.4142135623731
 10
-1981.201717325959
 20
3148.516061564036
 42
0.4142135623731
 10
-1982.701717325958
 20
3147.016061564036
 42
0.4142135623731
 10
-1981.201717325959
 20
3145.516061564036
 42
0.4142135623731
  0
LWPOLYLINE
  5
CF
330
1F
100
AcDbEntity
  8
0-B_寸法
  6
Continuous
 62
     7
370
     9
100
AcDbPolyline
 90
        4
 70
     1
 43
3.0
 10
-2123.701717325961
 20
3147.016061564036
 42
0.4142135623731
 10
-2125.201717325961
 20
3148.516061564036
 42
0.4142135623731
 10
-2126.701717325961
 20
3147.016061564036
 42
0.4142135623731
 10
-2125.201717325961
 20
3145.516061564036
 42
0.4142135623731
  0
LWPOLYLINE
  5
D0
330
1F
100
AcDbEntity
  8
0-B_寸法
  6
Continuous
 62
     7
370
     9
100
AcDbPolyline
 90
        4
 70
     1
 43
3.0
 10
-1979.701717325959
 20
3005.873667201509
 42
0.4142135623731
 10
-1981.201717325959
 20
3007.373667201509
 42
0.4142135623731
 10
-1982.701717325958
 20
3005.873667201509
 42
0.4142135623731
 10
-1981.201717325959
 20
3004.373667201509
 42
0.4142135623731
  0
LWPOLYLINE
  5
D1
330
1F
100
AcDbEntity
  8
0-B_寸法
  6
Continuous
 62
     7
370
     9
100
AcDbPolyline
 90
        4
 70
     1
 43
3.0
 10
-2039.701544118084
 20
3005.873667201509
 42
0.4142135623731
 10
-2041.201544118084
 20
3007.373667201509
 42
0.4142135623731
 10
-2042.701544118084
 20
3005.873667201509
 42
0.4142135623731
 10
-2041.201544118084
 20
3004.373667201509
 42
0.4142135623731
  0
LWPOLYLINE
  5
D2
330
1F
100
AcDbEntity
  8
0-B_寸法
  6
Continuous
 62
     7
370
     9
100
AcDbPolyline
 90
        4
 70
     1
 43
3.0
 10
-2093.701573810865
 20
3005.873667201509
 42
0.4142135623731
 10
-2095.201573810865
 20
3007.373667201509
 42
0.4142135623731
 10
-2096.701573810865
 20
3005.873667201509
 42
0.4142135623731
 10
-2095.201573810865
 20
3004.373667201509
 42
0.4142135623731
  0
LWPOLYLINE
  5
D3
330
1F
100
AcDbEntity
  8
0-B_寸法
  6
Continuous
 62
     7
370
     9
100
AcDbPolyline
 90
        4
 70
     1
 43
3.0
 10
-2123.701717325961
 20
3005.873667201509
 42
0.4142135623731
 10
-2125.201717325961
 20
3007.373667201509
 42
0.4142135623731
 10
-2126.701717325961
 20
3005.873667201509
 42
0.4142135623731
 10
-2125.201717325961
 20
3004.373667201509
 42
0.4142135623731
  0
LINE
  5
D4
330
1F
100
AcDbEntity
  8
0-B_寸法
  6
Continuous
 62
   120
370
     5
100
AcDbLine
 10
-2125.201717325961
 20
3147.016061564036
 30
0.0
 11
-1981.201717325959
 21
3147.016061564036
 31
0.0
  0
LINE
  5
D5
330
1F
100
AcDbEntity
  8
0-B_寸法
  6
Continuous
 62
   120
370
     5
100
AcDbLine
 10
-1981.201717325959
 20
3147.016061564036
 30
0.0
 11
-1981.201717325959
 21
2852.768662182618
 31
0.0
  0
LINE
  5
D6
330
1F
100
AcDbEntity
  8
0-B_寸法
  6
Continuous
 62
   120
370
     5
100
AcDbLine
 10
-2041.201544118084
 20
3005.873667201509
 30
0.0
 11
-2041.201544118084
 21
2852.768662182618
 31
0.0
  0
LINE
  5
D7
330
1F
100
AcDbEntity
  8
0-B_寸法
  6
Continuous
 62
   120
370
     5
100
AcDbLine
 10
-2095.201573810865
 20
3005.873667201509
 30
0.0
 11
-2095.201573810865
 21
2852.768662182618
 31
0.0
  0
LINE
  5
D8
330
1F
100
AcDbEntity
  8
0-B_寸法
  6
Continuous
 62
   120
370
     5
100
AcDbLine
 10
-2125.201717325961
 20
3147.016061564036
 30
0.0
 11
-2125.201717325961
 21
2852.768662182618
 31
0.0
  0
LINE
  5
D9
330
1F
100
AcDbEntity
  8
0-B_寸法
  6
Continuous
 62
   120
370
     5
100
AcDbLine
 10
-2125.201717325961
 20
3005.873667201509
 30
0.0
 11
-1981.201717325959
 21
3005.873667201509
 31
0.0
  0
LINE
  5
DA
330
1F
100
AcDbEntity
  8
0-3_仕上げ
  6
Continuous
 62
     7
370
     9
100
AcDbLine
 10
-2455.201717325961
 20
2777.999683277027
 30
0.0
 11
-2155.201717325961
 21
2777.999683277027
 31
0.0
  0
LINE
  5
DB
330
1F
100
AcDbEntity
  8
0-3_仕上げ
  6
Continuous
 62
     7
370
     9
100
AcDbLine
 10
-2455.201717325961
 20
2099.999683277028
 30
0.0
 11
-2155.201717325961
 21
2099.999683277028
 31
0.0
  0
LINE
  5
DC
330
1F
100
AcDbEntity
  8
0-6_扉
  6
Continuous
 62
   200
370
    20
100
AcDbLine
 10
-41.08145715668257
 20
2345.999683277027
 30
0.0
 11
-1951.201717325959
 21
2345.999683277027
 31
0.0
  0
LINE
  5
DD
330
1F
100
AcDbEntity
  8
0-6_扉
  6
Continuous
 62
   200
370
    20
100
AcDbLine
 10
-41.08145715668257
 20
2129.999683277028
 30
0.0
 11
-1951.201717325959
 21
2129.999683277028
 31
0.0
  0
LINE
  5
DE
330
1F
100
AcDbEntity
  8
0-B_寸法
  6
Continuous
 62
   120
370
     5
100
AcDbLine
 10
-1658.582995699059
 20
2099.999683277028
 30
0.0
 11
-1658.582995699059
 21
2777.999683277027
 31
0.0
  0
LWPOLYLINE
  5
DF
330
1F
100
AcDbEntity
  8
0-B_寸法
  6
Continuous
 62
     7
370
     9
100
AcDbPolyline
 90
        4
 70
     1
 43
3.0
 10
-1657.082995699059
 20
2777.999683277027
 42
0.4142135623731
 10
-1658.582995699059
 20
2779.499683277027
 42
0.4142135623731
 10
-1660.082995699059
 20
2777.999683277027
 42
0.4142135623731
 10
-1658.582995699059
 20
2776.499683277028
 42
0.4142135623731
  0
LINE
  5
E0
330
1F
100
AcDbEntity
  8
0-B_寸法
  6
Continuous
 62
   120
370
     5
100
AcDbLine
 10
-1850.042404020959
 20
2777.999683277027
 30
0.0
 11
-1658.582995699059
 21
2777.999683277027
 31
0.0
  0
LWPOLYLINE
  5
E1
330
1F
100
AcDbEntity
  8
0-B_寸法
  6
Continuous
 62
     7
370
     9
100
AcDbPolyline
 90
        4
 70
     1
 43
3.0
 10
-1657.082995699059
 20
2099.999683277028
 42
0.4142135623731
 10
-1658.582995699059
 20
2101.499683277028
 42
0.4142135623731
 10
-1660.082995699059
 20
2099.999683277028
 42
0.4142135623731
 10
-1658.582995699059
 20
2098.499683277028
 42
0.4142135623731
  0
LINE
  5
E2
330
1F
100
AcDbEntity
  8
0-B_寸法
  6
Continuous
 62
   120
370
     5
100
AcDbLine
 10
-1850.042404020959
 20
2099.999683277028
 30
0.0
 11
-1658.582995699059
 21
2099.999683277028
 31
0.0
  0
LINE
  5
E3
330
1F
100
AcDbEntity
  8
0-3_仕上げ
  6
Continuous
 62
     7
370
     9
100
AcDbLine
 10
2475.038803012593
 20
2777.999683277027
 30
0.0
 11
2175.038803012593
 21
2777.999683277027
 31
0.0
  0
LINE
  5
E4
330
1F
100
AcDbEntity
  8
0-3_仕上げ
  6
Continuous
 62
     7
370
     9
100
AcDbLine
 10
2475.038803012593
 20
2099.999683277028
 30
0.0
 11
2175.038803012593
 21
2099.999683277028
 31
0.0
  0
LINE
  5
E5
330
1F
100
AcDbEntity
  8
0-6_扉
  6
Continuous
 62
   200
370
    20
100
AcDbLine
 10
1989.038803012593
 20
2345.999683277027
 30
0.0
 11
78.91854284331743
 21
2345.999683277027
 31
0.0
  0
LINE
  5
E6
330
1F
100
AcDbEntity
  8
0-6_扉
  6
Continuous
 62
   200
370
    20
100
AcDbLine
 10
1989.038803012593
 20
2129.999683277028
 30
0.0
 11
78.91854284331743
 21
2129.999683277028
 31
0.0
  0
LINE
  5
E7
330
1F
100
AcDbEntity
  8
0-0_補助線
  6
JWW_HOJO
 62
   120
370
     5
100
AcDbLine
 10
78.91854284331743
 20
1838.999683277027
 30
0.0
 11
78.91854284331743
 21
2636.999683277027
 31
0.0
  0
LINE
  5
E8
330
1F
100
AcDbEntity
  8
0-0_補助線
  6
JWW_HOJO
 62
   120
370
     5
100
AcDbLine
 10
-41.08145715668257
 20
1838.999683277027
 30
0.0
 11
-41.08145715668257
 21
2636.999683277027
 31
0.0
  0
LINE
  5
E9
330
1F
100
AcDbEntity
  8
0-B_寸法
  6
Continuous
 62
   120
370
     5
100
AcDbLine
 10
1641.069878982496
 20
1560.000197957027
 30
0.0
 11
1641.069878982496
 21
1920.000197957027
 31
0.0
  0
LWPOLYLINE
  5
EA
330
1F
100
AcDbEntity
  8
0-B_寸法
  6
Continuous
 62
     7
370
     9
100
AcDbPolyline
 90
        4
 70
     1
 43
3.0
 10
1642.569878982496
 20
1560.000197957027
 42
0.4142135623731
 10
1641.069878982496
 20
1561.500197957027
 42
0.4142135623731
 10
1639.569878982496
 20
1560.000197957027
 42
0.4142135623731
 10
1641.069878982496
 20
1558.500197957027
 42
0.4142135623731
  0
LINE
  5
EB
330
1F
100
AcDbEntity
  8
0-B_寸法
  6
Continuous
 62
   120
370
     5
100
AcDbLine
 10
-1921.201717325972
 20
1560.000197957027
 30
0.0
 11
1641.069878982496
 21
1560.000197957027
 31
0.0
  0
LINE
  5
EC
330
1F
100
AcDbEntity
  8
0-B_寸法
  6
Continuous
 62
   120
370
     5
100
AcDbLine
 10
-1921.201717325972
 20
1560.000197957027
 30
0.0
 11
-1921.201717325972
 21
1920.000197957027
 31
0.0
  0
LWPOLYLINE
  5
ED
330
1F
100
AcDbEntity
  8
0-B_寸法
  6
Continuous
 62
     7
370
     9
100
AcDbPolyline
 90
        4
 70
     1
 43
3.0
 10
-1919.701717325972
 20
1560.000197957027
 42
0.4142135623731
 10
-1921.201717325972
 20
1561.500197957027
 42
0.4142135623731
 10
-1922.701717325972
 20
1560.000197957027
 42
0.4142135623731
 10
-1921.201717325972
 20
1558.500197957027
 42
0.4142135623731
  0
LINE
  5
EE
330
1F
100
AcDbEntity
  8
0-0_補助線
  6
JWW_HOJO
 62
   120
370
     5
100
AcDbLine
 10
2475.038803120941
 20
1560.000197957027
 30
0.0
 11
-2455.201717519062
 21
1560.000197957027
 31
0.0
  0
LINE
  5
EF
330
1F
100
AcDbEntity
  8
0-0_補助線
  6
JWW_HOJO
 62
   120
370
     5
100
AcDbLine
 10
2475.038803120941
 20
1350.000197957027
 30
0.0
 11
-2455.201717519062
 21
1350.000197957027
 31
0.0
  0
LINE
  5
F0
330
1F
100
AcDbEntity
  8
0-0_補助線
  6
JWW_HOJO
 62
   120
370
     5
100
AcDbLine
 10
2475.038803120941
 20
1140.000197957027
 30
0.0
 11
-2455.201717519062
 21
1140.000197957027
 31
0.0
  0
LINE
  5
F1
330
1F
100
AcDbEntity
  8
0-0_補助線
  6
JWW_HOJO
 62
   120
370
     5
100
AcDbLine
 10
2475.038803120941
 20
930.0001979570275
 30
0.0
 11
-2455.201717519062
 21
930.0001979570275
 31
0.0
  0
LINE
  5
F2
330
1F
100
AcDbEntity
  8
0-B_寸法
  6
Continuous
 62
   120
370
     5
100
AcDbLine
 10
-2155.201717325961
 20
720.0001979570275
 30
0.0
 11
-2155.201717325961
 21
1920.000197957027
 31
0.0
  0
LINE
  5
F3
330
1F
100
AcDbEntity
  8
0-B_寸法
  6
Continuous
 62
   120
370
     5
100
AcDbLine
 10
2175.038803012593
 20
720.0001979570275
 30
0.0
 11
2175.038803012593
 21
1920.000197957027
 31
0.0
  0
LINE
  5
F4
330
1F
100
AcDbEntity
  8
0-B_寸法
  6
Continuous
 62
   120
370
     5
100
AcDbLine
 10
2175.038803012593
 20
720.0001979570275
 30
0.0
 11
-2155.201717325961
 21
720.0001979570275
 31
0.0
  0
LWPOLYLINE
  5
F5
330
1F
100
AcDbEntity
  8
0-B_寸法
  6
Continuous
 62
     7
370
     9
100
AcDbPolyline
 90
        4
 70
     1
 43
3.0
 10
-2153.701717325961
 20
720.0001979570275
 42
0.4142135623731
 10
-2155.201717325961
 20
721.5001979570275
 42
0.4142135623731
 10
-2156.701717325961
 20
720.0001979570275
 42
0.4142135623731
 10
-2155.201717325961
 20
718.5001979570274
 42
0.4142135623731
  0
LWPOLYLINE
  5
F6
330
1F
100
AcDbEntity
  8
0-B_寸法
  6
Continuous
 62
     7
370
     9
100
AcDbPolyline
 90
        4
 70
     1
 43
3.0
 10
2176.538803012593
 20
720.0001979570275
 42
0.4142135623731
 10
2175.038803012593
 20
721.5001979570275
 42
0.4142135623731
 10
2173.538803012593
 20
720.0001979570275
 42
0.4142135623731
 10
2175.038803012593
 20
718.5001979570274
 42
0.4142135623731
  0
LINE
  5
F7
330
1F
100
AcDbEntity
  8
0-1_通り芯
  6
JWW_CENTER1
 62
   120
370
     5
100
AcDbLine
 10
-2155.201717325961
 20
2777.999683277027
 30
0.0
 11
-2155.201717325961
 21
930.0001979570275
 31
0.0
  0
LINE
  5
F8
330
1F
100
AcDbEntity
  8
0-B_寸法
  6
Continuous
 62
   120
370
     5
100
AcDbLine
 10
-2125.201717325961
 20
930.0001979570275
 30
0.0
 11
-2125.201717325961
 21
1920.000197957027
 31
0.0
  0
LINE
  5
F9
330
1F
100
AcDbEntity
  8
0-1_通り芯
  6
JWW_CENTER1
 62
   120
370
     5
100
AcDbLine
 10
2175.038803012593
 20
2777.999683277027
 30
0.0
 11
2175.038803012593
 21
930.0001979570275
 31
0.0
  0
LINE
  5
FA
330
1F
100
AcDbEntity
  8
0-B_寸法
  6
Continuous
 62
   120
370
     5
100
AcDbLine
 10
2145.038803012593
 20
930.0001979570275
 30
0.0
 11
2145.038803012593
 21
1920.000197957027
 31
0.0
  0
LINE
  5
FB
330
1F
100
AcDbEntity
  8
0-B_寸法
  6
Continuous
 62
   120
370
     5
100
AcDbLine
 10
-2155.201717325961
 20
930.0001979570275
 30
0.0
 11
2175.038803012593
 21
930.0001979570275
 31
0.0
  0
LWPOLYLINE
  5
FC
330
1F
100
AcDbEntity
  8
0-B_寸法
  6
Continuous
 62
     7
370
     9
100
AcDbPolyline
 90
        4
 70
     1
 43
3.0
 10
-2153.701717325961
 20
930.0001979570275
 42
0.4142135623731
 10
-2155.201717325961
 20
931.5001979570275
 42
0.4142135623731
 10
-2156.701717325961
 20
930.0001979570275
 42
0.4142135623731
 10
-2155.201717325961
 20
928.5001979570274
 42
0.4142135623731
  0
LWPOLYLINE
  5
FD
330
1F
100
AcDbEntity
  8
0-B_寸法
  6
Continuous
 62
     7
370
     9
100
AcDbPolyline
 90
        4
 70
     1
 43
3.0
 10
-2123.701717325961
 20
930.0001979570275
 42
0.4142135623731
 10
-2125.201717325961
 20
931.5001979570275
 42
0.4142135623731
 10
-2126.701717325961
 20
930.0001979570275
 42
0.4142135623731
 10
-2125.201717325961
 20
928.5001979570274
 42
0.4142135623731
  0
LWPOLYLINE
  5
FE
330
1F
100
AcDbEntity
  8
0-B_寸法
  6
Continuous
 62
     7
370
     9
100
AcDbPolyline
 90
        4
 70
     1
 43
3.0
 10
2176.538803012593
 20
930.0001979570275
 42
0.4142135623731
 10
2175.038803012593
 20
931.5001979570275
 42
0.4142135623731
 10
2173.538803012593
 20
930.0001979570275
 42
0.4142135623731
 10
2175.038803012593
 20
928.5001979570274
 42
0.4142135623731
  0
LWPOLYLINE
  5
FF
330
1F
100
AcDbEntity
  8
0-B_寸法
  6
Continuous
 62
     7
370
     9
100
AcDbPolyline
 90
        4
 70
     1
 43
3.0
 10
2146.538803012593
 20
930.0001979570275
 42
0.4142135623731
 10
2145.038803012593
 20
931.5001979570275
 42
0.4142135623731
 10
2143.538803012593
 20
930.0001979570275
 42
0.4142135623731
 10
2145.038803012593
 20
928.5001979570274
 42
0.4142135623731
  0
LINE
  5
100
330
1F
100
AcDbEntity
  8
0-B_寸法
  6
Continuous
 62
   120
370
     5
100
AcDbLine
 10
-1981.201717325959
 20
1140.000197957027
 30
0.0
 11
-1981.201717325959
 21
1920.000197957027
 31
0.0
  0
LINE
  5
101
330
1F
100
AcDbEntity
  8
0-B_寸法
  6
Continuous
 62
   120
370
     5
100
AcDbLine
 10
2001.038803012593
 20
1140.000197957027
 30
0.0
 11
2001.038803012593
 21
1920.000197957027
 31
0.0
  0
LINE
  5
102
330
1F
100
AcDbEntity
  8
0-B_寸法
  6
Continuous
 62
   120
370
     5
100
AcDbLine
 10
-2125.201717325961
 20
1140.000197957027
 30
0.0
 11
2145.038803012593
 21
1140.000197957027
 31
0.0
  0
LWPOLYLINE
  5
103
330
1F
100
AcDbEntity
  8
0-B_寸法
  6
Continuous
 62
     7
370
     9
100
AcDbPolyline
 90
        4
 70
     1
 43
3.0
 10
-1979.701717325959
 20
1140.000197957027
 42
0.4142135623731
 10
-1981.201717325959
 20
1141.500197957027
 42
0.4142135623731
 10
-1982.701717325958
 20
1140.000197957027
 42
0.4142135623731
 10
-1981.201717325959
 20
1138.500197957027
 42
0.4142135623731
  0
LWPOLYLINE
  5
104
330
1F
100
AcDbEntity
  8
0-B_寸法
  6
Continuous
 62
     7
370
     9
100
AcDbPolyline
 90
        4
 70
     1
 43
3.0
 10
-2123.701717325961
 20
1140.000197957027
 42
0.4142135623731
 10
-2125.201717325961
 20
1141.500197957027
 42
0.4142135623731
 10
-2126.701717325961
 20
1140.000197957027
 42
0.4142135623731
 10
-2125.201717325961
 20
1138.500197957027
 42
0.4142135623731
  0
LWPOLYLINE
  5
105
330
1F
100
AcDbEntity
  8
0-B_寸法
  6
Continuous
 62
     7
370
     9
100
AcDbPolyline
 90
        4
 70
     1
 43
3.0
 10
2146.538803012593
 20
1140.000197957027
 42
0.4142135623731
 10
2145.038803012593
 20
1141.500197957027
 42
0.4142135623731
 10
2143.538803012593
 20
1140.000197957027
 42
0.4142135623731
 10
2145.038803012593
 20
1138.500197957027
 42
0.4142135623731
  0
LWPOLYLINE
  5
106
330
1F
100
AcDbEntity
  8
0-B_寸法
  6
Continuous
 62
     7
370
     9
100
AcDbPolyline
 90
        4
 70
     1
 43
3.0
 10
2002.538803012593
 20
1140.000197957027
 42
0.4142135623731
 10
2001.038803012593
 20
1141.500197957027
 42
0.4142135623731
 10
1999.538803012593
 20
1140.000197957027
 42
0.4142135623731
 10
2001.038803012593
 20
1138.500197957027
 42
0.4142135623731
  0
LINE
  5
107
330
1F
100
AcDbEntity
  8
0-B_寸法
  6
Continuous
 62
   120
370
     5
100
AcDbLine
 10
-1951.201717325959
 20
1350.000197957027
 30
0.0
 11
-1951.201717325959
 21
1920.000197957027
 31
0.0
  0
LINE
  5
108
330
1F
100
AcDbEntity
  8
0-B_寸法
  6
Continuous
 62
   120
370
     5
100
AcDbLine
 10
1989.038803012593
 20
1350.000197957027
 30
0.0
 11
1989.038803012593
 21
1920.000197957027
 31
0.0
  0
LINE
  5
109
330
1F
100
AcDbEntity
  8
0-B_寸法
  6
Continuous
 62
   120
370
     5
100
AcDbLine
 10
-1981.201717325959
 20
1350.000197957027
 30
0.0
 11
2001.038803012593
 21
1350.000197957027
 31
0.0
  0
LWPOLYLINE
  5
10A
330
1F
100
AcDbEntity
  8
0-B_寸法
  6
Continuous
 62
     7
370
     9
100
AcDbPolyline
 90
        4
 70
     1
 43
3.0
 10
-1949.701717325959
 20
1350.000197957027
 42
0.4142135623731
 10
-1951.201717325959
 20
1351.500197957027
 42
0.4142135623731
 10
-1952.701717325958
 20
1350.000197957027
 42
0.4142135623731
 10
-1951.201717325959
 20
1348.500197957027
 42
0.4142135623731
  0
LWPOLYLINE
  5
10B
330
1F
100
AcDbEntity
  8
0-B_寸法
  6
Continuous
 62
     7
370
     9
100
AcDbPolyline
 90
        4
 70
     1
 43
3.0
 10
-1979.701717325959
 20
1350.000197957027
 42
0.4142135623731
 10
-1981.201717325959
 20
1351.500197957027
 42
0.4142135623731
 10
-1982.701717325958
 20
1350.000197957027
 42
0.4142135623731
 10
-1981.201717325959
 20
1348.500197957027
 42
0.4142135623731
  0
LWPOLYLINE
  5
10C
330
1F
100
AcDbEntity
  8
0-B_寸法
  6
Continuous
 62
     7
370
     9
100
AcDbPolyline
 90
        4
 70
     1
 43
3.0
 10
1990.538803012593
 20
1350.000197957027
 42
0.4142135623731
 10
1989.038803012593
 20
1351.500197957027
 42
0.4142135623731
 10
1987.538803012594
 20
1350.000197957027
 42
0.4142135623731
 10
1989.038803012593
 20
1348.500197957027
 42
0.4142135623731
  0
LWPOLYLINE
  5
10D
330
1F
100
AcDbEntity
  8
0-B_寸法
  6
Continuous
 62
     7
370
     9
100
AcDbPolyline
 90
        4
 70
     1
 43
3.0
 10
2002.538803012593
 20
1350.000197957027
 42
0.4142135623731
 10
2001.038803012593
 20
1351.500197957027
 42
0.4142135623731
 10
1999.538803012593
 20
1350.000197957027
 42
0.4142135623731
 10
2001.038803012593
 20
1348.500197957027
 42
0.4142135623731
  0
LINE
  5
10E
330
1F
100
AcDbEntity
  8
0-0_補助線
  6
JWW_HOJO
 62
   120
370
     5
100
AcDbLine
 10
2475.038803120941
 20
720.0001979570275
 30
0.0
 11
2475.038803120941
 21
2852.768662177449
 31
0.0
  0
LINE
  5
10F
330
1F
100
AcDbEntity
  8
0-0_補助線
  6
JWW_HOJO
 62
   120
370
     5
100
AcDbLine
 10
2475.038803120941
 20
720.0001979570275
 30
0.0
 11
-2455.201717519062
 21
720.0001979570275
 31
0.0
  0
LINE
  5
110
330
1F
100
AcDbEntity
  8
0-0_補助線
  6
JWW_HOJO
 62
   120
370
     5
100
AcDbLine
 10
-2455.201717519062
 20
720.0001979570275
 30
0.0
 11
-2455.201717519062
 21
2852.768662177449
 31
0.0
  0
MTEXT
  5
111
330
1F
100
AcDbEntity
  8
0-A_文字
  6
Continuous
 62
     7
370
     9
100
AcDbMText
 10
-2455.201717519062
 20
3326.229268863514
 30
0.0
 40
100.584
 41
660.0
 46
0.0
 71
     7
 72
     1
  1
{\fＭＳ ゴシック|b0|i0|c128|p49;■横断面図}
 73
     1
 44
1.0
  0
MTEXT
  5
112
330
1F
100
AcDbEntity
  8
0-A_文字
  6
Continuous
 62
     7
370
     9
100
AcDbMText
 10
-2522.701717325961
 20
1929.114015849181
 30
0.0
 40
100.965
 41
795.0
 46
0.0
 71
     7
 72
     1
  1
{\fＭＳ ゴシック|b0|i0|c128|p49;（ラッチ側）}
 73
     1
 44
1.0
  0
MTEXT
  5
113
330
1F
100
AcDbEntity
  8
0-A_文字
  6
Continuous
 62
     7
370
     9
100
AcDbMText
 10
1981.129399059381
 20
1928.923515849181
 30
0.0
 40
100.584
 41
660.0
 46
0.0
 71
     7
 72
     1
  1
{\fＭＳ ゴシック|b0|i0|c128|p49;（丁番側）}
 73
     1
 44
1.0
  0
MTEXT
  5
114
330
1F
100
AcDbEntity
  8
0-A_文字
  6
Continuous
 62
     7
370
     9
100
AcDbMText
 10
1644.263367265547
 20
539.7931479111029
 30
0.0
 40
68.58000000000001
 41
720.0
 46
0.0
 71
     7
 72
     1
  1
{\fＭＳ ゴシック|b0|i0|c128|p49;※図示：右吊り元}
 73
     1
 44
1.0
  0
MTEXT
  5
115
330
1F
100
AcDbEntity
  8
0-B_寸法
  6
Continuous
 62
     7
370
     0
100
AcDbMText
 10
-2117.814225299508
 20
3139.081281332194
 30
0.0
 40
97.15499999999999
 41
127.5
 46
0.0
 71
     7
 72
     1
  1
{\fＭＳ ゴシック|b0|i0|c128|p49;24}
 73
     1
 44
1.0
  0
MTEXT
  5
116
330
1F
100
AcDbEntity
  8
0-B_寸法
  6
Continuous
 62
     7
370
     0
100
AcDbMText
 10
-2097.498228014473
 20
2994.881051590142
 30
0.0
 40
91.44
 41
60.0
 46
0.0
 71
     7
 72
     1
  1
{\fＭＳ ゴシック|b0|i0|c128|p49;9}
 73
     1
 44
1.0
  0
MTEXT
  5
117
330
1F
100
AcDbEntity
  8
0-B_寸法
  6
Continuous
 62
     7
370
     0
100
AcDbMText
 10
-1989.297615306133
 20
2996.555629817573
 30
0.0
 40
97.15499999999999
 41
127.5
 46
0.0
 71
     7
 72
     1
  1
{\fＭＳ ゴシック|b0|i0|c128|p49;10}
 73
     1
 44
1.0
  0
MTEXT
  5
118
330
1F
100
AcDbEntity
  8
0-B_寸法
  6
Continuous
 62
     7
370
     0
100
AcDbMText
 10
-2186.217360957188
 20
2992.515208045003
 30
0.0
 40
91.44
 41
60.0
 46
0.0
 71
     7
 72
     1
  1
{\fＭＳ ゴシック|b0|i0|c128|p49;5}
 73
     1
 44
1.0
  0
MTEXT
  5
119
330
1F
100
AcDbEntity
  8
0-B_寸法
  6
Continuous
 62
     7
370
     0
100
AcDbMText
 10
-1677.048964253539
 20
2344.667076243678
 30
0.0
 40
99.06
 41
195.0
 46
0.0
 71
     7
 72
     1
  1
{\fＭＳ ゴシック|b0|i0|c128|p49;113}
 11
6.123031769111886E-17
 21
1.0
 31
0.0
 73
     1
 44
1.0
  0
MTEXT
  5
11A
330
1F
100
AcDbEntity
  8
0-B_寸法
  6
Continuous
 62
     7
370
     0
100
AcDbMText
 10
-1946.701717325959
 20
1347.720197957027
 30
0.0
 40
91.44
 41
60.0
 46
0.0
 71
     7
 72
     1
  1
{\fＭＳ ゴシック|b0|i0|c128|p49;5}
 73
     1
 44
1.0
  0
MTEXT
  5
11B
330
1F
100
AcDbEntity
  8
0-B_寸法
  6
Continuous
 62
     7
370
     0
100
AcDbMText
 10
1924.538803012594
 20
1347.720197957027
 30
0.0
 40
91.44
 41
60.0
 46
0.0
 71
     7
 72
     1
  1
{\fＭＳ ゴシック|b0|i0|c128|p49;2}
 73
     1
 44
1.0
  0
MTEXT
  5
11C
330
1F
100
AcDbEntity
  8
0-B_寸法
  6
Continuous
 62
     7
370
   211
100
AcDbMText
 10
-2116.951717325961
 20
1143.577697957028
 30
0.0
 40
97.15499999999999
 41
127.5
 46
0.0
 71
     7
 72
     1
  1
{\fＭＳ ゴシック|b0|i0|c128|p49;24}
 73
     1
 44
1.0
  0
MTEXT
  5
11D
330
1F
100
AcDbEntity
  8
0-B_寸法
  6
Continuous
 62
     7
370
   211
100
AcDbMText
 10
2009.288803012592
 20
1143.577697957028
 30
0.0
 40
97.15499999999999
 41
127.5
 46
0.0
 71
     7
 72
     1
  1
{\fＭＳ ゴシック|b0|i0|c128|p49;24}
 73
     1
 44
1.0
  0
LINE
  5
11E
330
1F
100
AcDbEntity
  8
0-0_補助線
  6
Continuous
 62
   120
370
     5
100
AcDbLine
 10
-2125.201717325954
 20
2227.813934450464
 30
0.0
 11
-1992.140094928495
 21
2360.875556847924
 31
0.0
  0
LINE
  5
11F
330
1F
100
AcDbEntity
  8
0-0_補助線
  6
Continuous
 62
   120
370
     5
100
AcDbLine
 10
-2125.201717325951
 20
2762.386661027512
 30
0.0
 11
-2109.588695076447
 21
2777.999683277014
 31
0.0
  0
LINE
  5
120
330
1F
100
AcDbEntity
  8
0-0_補助線
  6
Continuous
 62
   120
370
     5
100
AcDbLine
 10
-2125.201717325951
 20
2702.989691407812
 30
0.0
 11
-2095.201717325957
 21
2732.989691407802
 31
0.0
  0
LINE
  5
121
330
1F
100
AcDbEntity
  8
0-0_補助線
  6
Continuous
 62
   120
370
     5
100
AcDbLine
 10
-2041.201717325952
 20
2727.592721788164
 30
0.0
 11
-1993.794755837082
 21
2774.999683277033
 31
0.0
  0
LINE
  5
122
330
1F
100
AcDbEntity
  8
0-0_補助線
  6
Continuous
 62
   120
370
     5
100
AcDbLine
 10
-2125.201717325951
 20
2643.592721788166
 30
0.0
 11
-2050.794755837102
 21
2717.999683277014
 31
0.0
  0
LINE
  5
123
330
1F
100
AcDbEntity
  8
0-0_補助線
  6
Continuous
 62
   120
370
     5
100
AcDbLine
 10
-2125.201717325944
 20
2584.195752168468
 30
0.0
 11
-1984.201717325963
 21
2725.19575216845
 31
0.0
  0
LINE
  5
124
330
1F
100
AcDbEntity
  8
0-0_補助線
  6
Continuous
 62
   120
370
     5
100
AcDbLine
 10
-2125.201717325947
 20
2524.798782548819
 30
0.0
 11
-1984.201717325949
 21
2665.798782548815
 31
0.0
  0
LINE
  5
125
330
1F
100
AcDbEntity
  8
0-0_補助線
  6
Continuous
 62
   120
370
     5
100
AcDbLine
 10
-2125.201717325947
 20
2465.401812929115
 30
0.0
 11
-1984.201717325956
 21
2606.401812929107
 31
0.0
  0
LINE
  5
126
330
1F
100
AcDbEntity
  8
0-0_補助線
  6
Continuous
 62
   120
370
     5
100
AcDbLine
 10
-2125.201717325957
 20
2168.416964830762
 30
0.0
 11
-1984.201717325956
 21
2309.416964830761
 31
0.0
  0
LINE
  5
127
330
1F
100
AcDbEntity
  8
0-0_補助線
  6
Continuous
 62
   120
370
     5
100
AcDbLine
 10
-2074.222029260038
 20
2159.999683277033
 30
0.0
 11
-1984.201717325949
 21
2250.01999521112
 31
0.0
  0
LINE
  5
128
330
1F
100
AcDbEntity
  8
0-0_補助線
  6
Continuous
 62
   120
370
     5
100
AcDbLine
 10
-2125.201717325951
 20
2109.019995211119
 30
0.0
 11
-2095.201717325961
 21
2139.01999521111
 31
0.0
  0
LINE
  5
129
330
1F
100
AcDbEntity
  8
0-0_補助線
  6
Continuous
 62
   120
370
     5
100
AcDbLine
 10
-2041.201717325962
 20
2133.623025591461
 30
0.0
 11
-1984.201717325956
 21
2190.623025591468
 31
0.0
  0
LINE
  5
12A
330
1F
100
AcDbEntity
  8
0-0_補助線
  6
Continuous
 62
   120
370
     5
100
AcDbLine
 10
-2012.428090020695
 20
2102.999683277028
 30
0.0
 11
-1984.201717325956
 21
2131.226055971764
 31
0.0
  0
LINE
  5
12B
330
1F
100
AcDbEntity
  8
0-0_補助線
  6
Continuous
 62
    92
370
    13
100
AcDbLine
 10
-2041.201717325959
 20
2717.999683277027
 30
0.0
 11
-2041.201717325959
 21
2777.999683277027
 31
0.0
  0
LINE
  5
12C
330
1F
100
AcDbEntity
  8
0-0_補助線
  6
Continuous
 62
    92
370
    13
100
AcDbLine
 10
-1984.201717325959
 20
2774.999683277028
 30
0.0
 11
-2041.201717325959
 21
2774.999683277028
 31
0.0
  0
LINE
  5
12D
330
1F
100
AcDbEntity
  8
0-0_補助線
  6
Continuous
 62
    92
370
    13
100
AcDbLine
 10
-1981.201717325959
 20
2777.999683277027
 30
0.0
 11
-2041.201717325959
 21
2777.999683277027
 31
0.0
  0
LINE
  5
12E
330
1F
100
AcDbEntity
  8
0-0_補助線
  6
Continuous
 62
    92
370
    13
100
AcDbLine
 10
-2095.201717325957
 20
2777.999683277027
 30
0.0
 11
-2095.201717325957
 21
2717.999683277027
 31
0.0
  0
LINE
  5
12F
330
1F
100
AcDbEntity
  8
0-0_補助線
  6
Continuous
 62
    92
370
    13
100
AcDbLine
 10
-2125.201717325957
 20
2777.999683277027
 30
0.0
 11
-2095.201717325957
 21
2777.999683277027
 31
0.0
  0
LINE
  5
130
330
1F
100
AcDbEntity
  8
0-0_補助線
  6
Continuous
 62
    92
370
    13
100
AcDbLine
 10
-2095.201717325957
 20
2717.999683277027
 30
0.0
 11
-2041.201717325959
 21
2717.999683277027
 31
0.0
  0
LINE
  5
131
330
1F
100
AcDbEntity
  8
0-0_補助線
  6
Continuous
 62
    92
370
    13
100
AcDbLine
 10
-2041.201717325959
 20
2159.999683277028
 30
0.0
 11
-2041.201717325959
 21
2099.999683277028
 31
0.0
  0
LINE
  5
132
330
1F
100
AcDbEntity
  8
0-0_補助線
  6
Continuous
 62
    92
370
    13
100
AcDbLine
 10
-1984.201717325959
 20
2102.999683277027
 30
0.0
 11
-2041.201717325959
 21
2102.999683277027
 31
0.0
  0
LINE
  5
133
330
1F
100
AcDbEntity
  8
0-0_補助線
  6
Continuous
 62
    92
370
    13
100
AcDbLine
 10
-1981.201717325959
 20
2099.999683277028
 30
0.0
 11
-2041.201717325959
 21
2099.999683277028
 31
0.0
  0
LINE
  5
134
330
1F
100
AcDbEntity
  8
0-0_補助線
  6
Continuous
 62
    92
370
    13
100
AcDbLine
 10
-2125.201717325957
 20
2099.999683277028
 30
0.0
 11
-2095.201717325957
 21
2099.999683277028
 31
0.0
  0
LINE
  5
135
330
1F
100
AcDbEntity
  8
0-0_補助線
  6
Continuous
 62
    92
370
    13
100
AcDbLine
 10
-2095.201717325957
 20
2159.999683277028
 30
0.0
 11
-2095.201717325957
 21
2099.999683277028
 31
0.0
  0
LINE
  5
136
330
1F
100
AcDbEntity
  8
0-0_補助線
  6
Continuous
 62
    92
370
    13
100
AcDbLine
 10
-2095.201717325957
 20
2159.999683277028
 30
0.0
 11
-2041.201717325959
 21
2159.999683277028
 31
0.0
  0
LINE
  5
137
330
1F
100
AcDbEntity
  8
0-0_補助線
  6
Continuous
 62
   200
370
    20
100
AcDbLine
 10
-1951.201717325959
 20
2345.999683277027
 30
0.0
 11
-1951.201717325959
 21
2129.999683277028
 31
0.0
  0
LINE
  5
138
330
1F
100
AcDbEntity
  8
0-0_補助線
  6
Continuous
 62
    92
370
    13
100
AcDbLine
 10
-2125.201717325957
 20
2777.999683277027
 30
0.0
 11
-2125.201717325957
 21
2099.999683277028
 31
0.0
  0
LINE
  5
139
330
1F
100
AcDbEntity
  8
0-0_補助線
  6
Continuous
 62
     7
370
     9
100
AcDbLine
 10
-2155.201717325957
 20
2777.999683277027
 30
0.0
 11
-2155.201717325957
 21
2099.999683277028
 31
0.0
  0
LINE
  5
13A
330
1F
100
AcDbEntity
  8
0-0_補助線
  6
Continuous
 62
     7
370
     9
100
AcDbLine
 10
-2128.201331319839
 20
2384.999653584247
 30
0.0
 11
-2125.201717325957
 21
2384.999653584247
 31
0.0
  0
LINE
  5
13B
330
1F
100
AcDbEntity
  8
0-0_補助線
  6
Continuous
 62
     7
370
     9
100
AcDbLine
 10
-2128.201331319839
 20
2492.999712969806
 30
0.0
 11
-2125.201717325957
 21
2492.999712969806
 31
0.0
  0
LINE
  5
13C
330
1F
100
AcDbEntity
  8
0-0_補助線
  6
Continuous
 62
     7
370
     9
100
AcDbLine
 10
-2140.201296678264
 20
2528.999980204815
 30
0.0
 11
-2140.201296678264
 21
2349.000128668707
 31
0.0
  0
LINE
  5
13D
330
1F
100
AcDbEntity
  8
0-0_補助線
  6
Continuous
 62
     7
370
     9
100
AcDbLine
 10
-2155.201717325957
 20
2528.999980204815
 30
0.0
 11
-2155.201717325957
 21
2349.000128668707
 31
0.0
  0
LINE
  5
13E
330
1F
100
AcDbEntity
  8
0-0_補助線
  6
Continuous
 62
     7
370
     9
100
AcDbLine
 10
-2140.201296678264
 20
2498.999881228884
 30
0.0
 11
-2128.201331319839
 21
2498.999881228884
 31
0.0
  0
LINE
  5
13F
330
1F
100
AcDbEntity
  8
0-0_補助線
  6
Continuous
 62
     7
370
     9
100
AcDbLine
 10
-2140.201296678264
 20
2379.000227644637
 30
0.0
 11
-2128.201331319839
 21
2379.000227644637
 31
0.0
  0
LINE
  5
140
330
1F
100
AcDbEntity
  8
0-0_補助線
  6
Continuous
 62
     7
370
     9
100
AcDbLine
 10
-2128.201331319839
 20
2498.999881228884
 30
0.0
 11
-2128.201331319839
 21
2379.000227644637
 31
0.0
  0
LINE
  5
141
330
1F
100
AcDbEntity
  8
0-0_補助線
  6
Continuous
 62
     7
370
     9
100
AcDbLine
 10
-2155.201717325957
 20
2528.999980204815
 30
0.0
 11
-2140.201296678264
 21
2528.999980204815
 31
0.0
  0
LINE
  5
142
330
1F
100
AcDbEntity
  8
0-0_補助線
  6
Continuous
 62
     7
370
     9
100
AcDbLine
 10
-2155.201717325957
 20
2349.000128668707
 30
0.0
 11
-2140.201296678264
 21
2349.000128668707
 31
0.0
  0
LINE
  5
143
330
1F
100
AcDbEntity
  8
0-0_補助線
  6
Continuous
 62
    92
370
    13
100
AcDbLine
 10
-1993.207203818751
 20
2516.944383737856
 30
0.0
 11
-1981.201717325959
 21
2516.944383737856
 31
0.0
  0
LINE
  5
144
330
1F
100
AcDbEntity
  8
0-0_補助線
  6
Continuous
 62
    92
370
    13
100
AcDbLine
 10
-1993.207203818751
 20
2360.944383737856
 30
0.0
 11
-1993.207203818751
 21
2516.944383737856
 31
0.0
  0
INSERT
  5
145
330
1F
100
AcDbEntity
  8
0-0_補助線
  6
Continuous
 62
     7
370
     9
100
AcDbBlockReference
  2
13@@SfigorgFlag@@4
 10
-1962.098163576949
 20
2430.460353406974
 30
0.0
 41
30.0
 42
30.0
  0
LINE
  5
146
330
1F
100
AcDbEntity
  8
0-0_補助線
  6
Continuous
 62
   120
370
     5
100
AcDbLine
 10
-2125.201717325947
 20
2287.21090407012
 30
0.0
 11
-1993.207203818751
 21
2419.205417577317
 31
0.0
  0
LINE
  5
147
330
1F
100
AcDbEntity
  8
0-0_補助線
  6
Continuous
 62
   120
370
     5
100
AcDbLine
 10
-2125.201717325957
 20
2346.607873689812
 30
0.0
 11
-1993.207203818751
 21
2478.60238719702
 31
0.0
  0
LINE
  5
148
330
1F
100
AcDbEntity
  8
0-0_補助線
  6
Continuous
 62
   120
370
     5
100
AcDbLine
 10
-2125.201717325951
 20
2406.004843309464
 30
0.0
 11
-1984.201717325959
 21
2547.004843309455
 31
0.0
  0
LINE
  5
149
330
1F
100
AcDbEntity
  8
0-0_補助線
  6
Continuous
 62
    92
370
    13
100
AcDbLine
 10
-1984.201717325959
 20
2774.999683277028
 30
0.0
 11
-1984.201717325959
 21
2516.944383737856
 31
0.0
  0
LINE
  5
14A
330
1F
100
AcDbEntity
  8
0-0_補助線
  6
Continuous
 62
    92
370
    13
100
AcDbLine
 10
-1981.201717325959
 20
2777.999683277027
 30
0.0
 11
-1981.201717325959
 21
2516.944383737856
 31
0.0
  0
LINE
  5
14B
330
1F
100
AcDbEntity
  8
0-0_補助線
  6
Continuous
 62
    92
370
    13
100
AcDbLine
 10
-1984.201717325959
 20
2360.944383737856
 30
0.0
 11
-1984.201717325959
 21
2102.999683277027
 31
0.0
  0
LINE
  5
14C
330
1F
100
AcDbEntity
  8
0-0_補助線
  6
Continuous
 62
    92
370
    13
100
AcDbLine
 10
-1981.201717325959
 20
2360.944383737856
 30
0.0
 11
-1993.207203818751
 21
2360.944383737856
 31
0.0
  0
LINE
  5
14D
330
1F
100
AcDbEntity
  8
0-0_補助線
  6
Continuous
 62
    92
370
    13
100
AcDbLine
 10
-1981.201717325959
 20
2360.944383737856
 30
0.0
 11
-1981.201717325959
 21
2099.999683277028
 31
0.0
  0
LINE
  5
14E
330
1F
100
AcDbEntity
  8
0-0_補助線
  6
Continuous
 62
   200
370
    20
100
AcDbLine
 10
1989.038803012593
 20
2345.999683277027
 30
0.0
 11
1989.038803012593
 21
2129.999683277028
 31
0.0
  0
LINE
  5
14F
330
1F
100
AcDbEntity
  8
0-0_補助線
  6
Continuous
 62
   120
370
     5
100
AcDbLine
 10
2004.038803012587
 20
2773.999913044847
 30
0.0
 11
2005.038573244772
 21
2774.999683277033
 31
0.0
  0
LINE
  5
150
330
1F
100
AcDbEntity
  8
0-0_補助線
  6
Continuous
 62
   120
370
     5
100
AcDbLine
 10
2004.038803012588
 20
2714.602943425146
 30
0.0
 11
2061.038803012591
 21
2771.60294342515
 31
0.0
  0
LINE
  5
151
330
1F
100
AcDbEntity
  8
0-0_補助線
  6
Continuous
 62
   120
370
     5
100
AcDbLine
 10
2115.038803012607
 20
2766.205973805518
 30
0.0
 11
2126.832512484104
 21
2777.999683277016
 31
0.0
  0
LINE
  5
152
330
1F
100
AcDbEntity
  8
0-0_補助線
  6
Continuous
 62
   120
370
     5
100
AcDbLine
 10
2004.038803012593
 20
2655.205973805504
 30
0.0
 11
2066.832512484094
 21
2717.999683277006
 31
0.0
  0
LINE
  5
153
330
1F
100
AcDbEntity
  8
0-0_補助線
  6
Continuous
 62
   120
370
     5
100
AcDbLine
 10
2004.038803012599
 20
2595.809004185862
 30
0.0
 11
2145.038803012602
 21
2736.809004185865
 31
0.0
  0
LINE
  5
154
330
1F
100
AcDbEntity
  8
0-0_補助線
  6
Continuous
 62
   120
370
     5
100
AcDbLine
 10
2004.038803012584
 20
2536.412034566145
 30
0.0
 11
2145.038803012586
 21
2677.412034566149
 31
0.0
  0
LINE
  5
155
330
1F
100
AcDbEntity
  8
0-0_補助線
  6
Continuous
 62
   120
370
     5
100
AcDbLine
 10
2004.038803012593
 20
2298.824156087457
 30
0.0
 11
2145.03880301259
 21
2439.824156087452
 31
0.0
  0
LINE
  5
156
330
1F
100
AcDbEntity
  8
0-0_補助線
  6
Continuous
 62
   120
370
     5
100
AcDbLine
 10
2004.038803012584
 20
2239.4271864678
 30
0.0
 11
2145.038803012586
 21
2380.427186467803
 31
0.0
  0
LINE
  5
157
330
1F
100
AcDbEntity
  8
0-0_補助線
  6
Continuous
 62
   120
370
     5
100
AcDbLine
 10
2004.038803012595
 20
2180.030216848165
 30
0.0
 11
2145.03880301258
 21
2321.030216848149
 31
0.0
  0
LINE
  5
158
330
1F
100
AcDbEntity
  8
0-0_補助線
  6
Continuous
 62
   120
370
     5
100
AcDbLine
 10
2004.038803012592
 20
2120.63324722846
 30
0.0
 11
2145.03880301259
 21
2261.633247228458
 31
0.0
  0
LINE
  5
159
330
1F
100
AcDbEntity
  8
0-0_補助線
  6
Continuous
 62
   120
370
     5
100
AcDbLine
 10
2102.802208680809
 20
2159.999683277029
 30
0.0
 11
2145.038803012583
 21
2202.236277608802
 31
0.0
  0
LINE
  5
15A
330
1F
100
AcDbEntity
  8
0-0_補助線
  6
Continuous
 62
   120
370
     5
100
AcDbLine
 10
2045.802208680799
 20
2102.99968327702
 30
0.0
 11
2061.0388030126
 21
2118.23627760882
 31
0.0
  0
LINE
  5
15B
330
1F
100
AcDbEntity
  8
0-0_補助線
  6
Continuous
 62
   120
370
     5
100
AcDbLine
 10
2115.038803012573
 20
2112.839307989092
 30
0.0
 11
2145.038803012581
 21
2142.839307989099
 31
0.0
  0
LINE
  5
15C
330
1F
100
AcDbEntity
  8
0-0_補助線
  6
Continuous
 62
    92
370
    13
100
AcDbLine
 10
2145.038803012592
 20
2099.999683277028
 30
0.0
 11
2115.038803012593
 21
2099.999683277028
 31
0.0
  0
LINE
  5
15D
330
1F
100
AcDbEntity
  8
0-0_補助線
  6
Continuous
 62
    92
370
    13
100
AcDbLine
 10
2115.038803012593
 20
2159.999683277028
 30
0.0
 11
2115.038803012593
 21
2099.999683277028
 31
0.0
  0
LINE
  5
15E
330
1F
100
AcDbEntity
  8
0-0_補助線
  6
Continuous
 62
    92
370
    13
100
AcDbLine
 10
2115.038803012593
 20
2159.999683277028
 30
0.0
 11
2061.038803012593
 21
2159.999683277028
 31
0.0
  0
LINE
  5
15F
330
1F
100
AcDbEntity
  8
0-0_補助線
  6
Continuous
 62
    92
370
    13
100
AcDbLine
 10
2061.038803012593
 20
2159.999683277028
 30
0.0
 11
2061.038803012593
 21
2099.999683277028
 31
0.0
  0
LINE
  5
160
330
1F
100
AcDbEntity
  8
0-0_補助線
  6
Continuous
 62
    92
370
    13
100
AcDbLine
 10
2145.038803012592
 20
2777.999683277027
 30
0.0
 11
2115.038803012593
 21
2777.999683277027
 31
0.0
  0
LINE
  5
161
330
1F
100
AcDbEntity
  8
0-0_補助線
  6
Continuous
 62
    92
370
    13
100
AcDbLine
 10
2115.038803012593
 20
2717.999683277027
 30
0.0
 11
2115.038803012593
 21
2777.999683277027
 31
0.0
  0
LINE
  5
162
330
1F
100
AcDbEntity
  8
0-0_補助線
  6
Continuous
 62
    92
370
    13
100
AcDbLine
 10
2115.038803012593
 20
2717.999683277027
 30
0.0
 11
2061.038803012593
 21
2717.999683277027
 31
0.0
  0
LINE
  5
163
330
1F
100
AcDbEntity
  8
0-0_補助線
  6
Continuous
 62
    92
370
    13
100
AcDbLine
 10
2061.038803012593
 20
2717.999683277027
 30
0.0
 11
2061.038803012593
 21
2777.999683277027
 31
0.0
  0
LINE
  5
164
330
1F
100
AcDbEntity
  8
0-0_補助線
  6
Continuous
 62
    92
370
    13
100
AcDbLine
 10
2061.038803012593
 20
2777.999683277027
 30
0.0
 11
2001.038803012593
 21
2777.999683277027
 31
0.0
  0
LINE
  5
165
330
1F
100
AcDbEntity
  8
0-0_補助線
  6
Continuous
 62
    92
370
    13
100
AcDbLine
 10
2061.038629804716
 20
2102.999683277027
 30
0.0
 11
2004.038803012593
 21
2102.999683277027
 31
0.0
  0
LINE
  5
166
330
1F
100
AcDbEntity
  8
0-0_補助線
  6
Continuous
 62
    92
370
    13
100
AcDbLine
 10
2061.038629804716
 20
2099.999683277028
 30
0.0
 11
2001.038803012593
 21
2099.999683277028
 31
0.0
  0
LINE
  5
167
330
1F
100
AcDbEntity
  8
0-0_補助線
  6
Continuous
 62
    92
370
    13
100
AcDbLine
 10
2061.038629804716
 20
2774.999683277028
 30
0.0
 11
2004.038803012593
 21
2774.999683277028
 31
0.0
  0
LINE
  5
168
330
1F
100
AcDbEntity
  8
0-0_補助線
  6
Continuous
 62
     7
370
     9
100
AcDbLine
 10
2175.038803012593
 20
2777.999683277027
 30
0.0
 11
2175.038803012593
 21
2099.999683277028
 31
0.0
  0
LINE
  5
169
330
1F
100
AcDbEntity
  8
0-0_補助線
  6
Continuous
 62
    92
370
    13
100
AcDbLine
 10
2145.038803012592
 20
2777.999683277027
 30
0.0
 11
2145.038803012592
 21
2099.999683277028
 31
0.0
  0
LINE
  5
16A
330
1F
100
AcDbEntity
  8
0-0_補助線
  6
Continuous
 62
     7
370
     9
100
AcDbLine
 10
2148.038417006471
 20
2384.999653584247
 30
0.0
 11
2145.038803012592
 21
2384.999653584247
 31
0.0
  0
LINE
  5
16B
330
1F
100
AcDbEntity
  8
0-0_補助線
  6
Continuous
 62
     7
370
     9
100
AcDbLine
 10
2148.038417006471
 20
2492.999712969806
 30
0.0
 11
2145.038803012592
 21
2492.999712969806
 31
0.0
  0
LINE
  5
16C
330
1F
100
AcDbEntity
  8
0-0_補助線
  6
Continuous
 62
     7
370
     9
100
AcDbLine
 10
2175.038803012593
 20
2349.000128668707
 30
0.0
 11
2160.038382364896
 21
2349.000128668707
 31
0.0
  0
LINE
  5
16D
330
1F
100
AcDbEntity
  8
0-0_補助線
  6
Continuous
 62
     7
370
     9
100
AcDbLine
 10
2175.038803012593
 20
2528.999980204815
 30
0.0
 11
2160.038382364896
 21
2528.999980204815
 31
0.0
  0
LINE
  5
16E
330
1F
100
AcDbEntity
  8
0-0_補助線
  6
Continuous
 62
     7
370
     9
100
AcDbLine
 10
2148.038417006471
 20
2498.999881228884
 30
0.0
 11
2148.038417006471
 21
2379.000227644637
 31
0.0
  0
LINE
  5
16F
330
1F
100
AcDbEntity
  8
0-0_補助線
  6
Continuous
 62
     7
370
     9
100
AcDbLine
 10
2160.038382364896
 20
2379.000227644637
 30
0.0
 11
2148.038417006471
 21
2379.000227644637
 31
0.0
  0
LINE
  5
170
330
1F
100
AcDbEntity
  8
0-0_補助線
  6
Continuous
 62
     7
370
     9
100
AcDbLine
 10
2160.038382364896
 20
2498.999881228884
 30
0.0
 11
2148.038417006471
 21
2498.999881228884
 31
0.0
  0
LINE
  5
171
330
1F
100
AcDbEntity
  8
0-0_補助線
  6
Continuous
 62
     7
370
     9
100
AcDbLine
 10
2175.038803012593
 20
2528.999980204815
 30
0.0
 11
2175.038803012593
 21
2349.000128668707
 31
0.0
  0
LINE
  5
172
330
1F
100
AcDbEntity
  8
0-0_補助線
  6
Continuous
 62
     7
370
     9
100
AcDbLine
 10
2160.038382364896
 20
2528.999980204815
 30
0.0
 11
2160.038382364896
 21
2349.000128668707
 31
0.0
  0
LINE
  5
173
330
1F
100
AcDbEntity
  8
0-0_補助線
  6
Continuous
 62
    92
370
    13
100
AcDbLine
 10
2013.044289505385
 20
2516.944383737856
 30
0.0
 11
2001.038803012593
 21
2516.944383737856
 31
0.0
  0
LINE
  5
174
330
1F
100
AcDbEntity
  8
0-0_補助線
  6
Continuous
 62
    92
370
    13
100
AcDbLine
 10
2013.044289505385
 20
2360.944383737856
 30
0.0
 11
2013.044289505385
 21
2516.944383737856
 31
0.0
  0
INSERT
  5
175
330
1F
100
AcDbEntity
  8
0-0_補助線
  6
Continuous
 62
     7
370
     9
100
AcDbBlockReference
  2
02@@SfigorgFlag@@4
 10
1981.852266312129
 20
2425.377716824172
 30
0.0
 41
-30.0
 42
30.0
  0
LINE
  5
176
330
1F
100
AcDbEntity
  8
0-0_補助線
  6
Continuous
 62
    92
370
    13
100
AcDbLine
 10
2001.038803012593
 20
2360.944383737856
 30
0.0
 11
2013.044289505385
 21
2360.944383737856
 31
0.0
  0
LINE
  5
177
330
1F
100
AcDbEntity
  8
0-0_補助線
  6
Continuous
 62
   120
370
     5
100
AcDbLine
 10
2013.044289505385
 20
2367.22661219995
 30
0.0
 11
2145.03880301259
 21
2499.221125707156
 31
0.0
  0
LINE
  5
178
330
1F
100
AcDbEntity
  8
0-0_補助線
  6
Continuous
 62
   120
370
     5
100
AcDbLine
 10
2013.044289505385
 20
2426.623581819599
 30
0.0
 11
2145.038803012592
 21
2558.618095326805
 31
0.0
  0
LINE
  5
179
330
1F
100
AcDbEntity
  8
0-0_補助線
  6
Continuous
 62
   120
370
     5
100
AcDbLine
 10
2013.044289505385
 20
2486.020551439298
 30
0.0
 11
2145.038803012588
 21
2618.015064946503
 31
0.0
  0
LINE
  5
17A
330
1F
100
AcDbEntity
  8
0-0_補助線
  6
Continuous
 62
    92
370
    13
100
AcDbLine
 10
2001.038803012593
 20
2516.944383737856
 30
0.0
 11
2001.038803012593
 21
2777.999683277027
 31
0.0
  0
LINE
  5
17B
330
1F
100
AcDbEntity
  8
0-0_補助線
  6
Continuous
 62
    92
370
    13
100
AcDbLine
 10
2004.038803012593
 20
2516.944383737856
 30
0.0
 11
2004.038803012593
 21
2774.999683277028
 31
0.0
  0
LINE
  5
17C
330
1F
100
AcDbEntity
  8
0-0_補助線
  6
Continuous
 62
    92
370
    13
100
AcDbLine
 10
2004.038803012593
 20
2360.944383737856
 30
0.0
 11
2004.038803012593
 21
2102.999683277027
 31
0.0
  0
LINE
  5
17D
330
1F
100
AcDbEntity
  8
0-0_補助線
  6
Continuous
 62
    92
370
    13
100
AcDbLine
 10
2001.038803012593
 20
2360.944383737856
 30
0.0
 11
2001.038803012593
 21
2099.999683277028
 31
0.0
  0
LINE
  5
17E
330
1F
100
AcDbEntity
  8
0-A_文字
  6
Continuous
 62
    92
370
    13
100
AcDbLine
 10
-5659.999495325861
 20
3730.000181455871
 30
0.0
 11
-5659.999495325861
 21
4000.000181455871
 31
0.0
  0
LINE
  5
17F
330
1F
100
AcDbEntity
  8
0-3_仕上げ
  6
Continuous
 62
     7
370
     9
100
AcDbLine
 10
-1873.756058553832
 20
9.00000806869059
 30
0.0
 11
-1873.756058553832
 21
-272.9999919582031
 31
0.0
  0
LINE
  5
180
330
1F
100
AcDbEntity
  8
0-3_仕上げ
  6
Continuous
 62
     7
370
     9
100
AcDbLine
 10
-1195.756058553833
 20
9.00000806869059
 30
0.0
 11
-1195.756058553833
 21
-272.9999919582031
 31
0.0
  0
MTEXT
  5
181
330
1F
100
AcDbEntity
  8
0-B_寸法
  6
Continuous
 62
     7
370
   211
100
AcDbMText
 10
-1397.50605855383
 20
-1095.569367228522
 30
0.0
 40
97.15499999999999
 41
127.5
 46
0.0
 71
     7
 72
     1
  1
{\fＭＳ ゴシック|b0|i0|c128|p49;36}
 73
     1
 44
1.0
  0
LWPOLYLINE
  5
182
330
1F
100
AcDbEntity
  8
0-B_寸法
  6
Continuous
 62
     7
370
     9
100
AcDbPolyline
 90
        4
 70
     1
 43
3.0
 10
-618.5818283164182
 20
-3087.000403945509
 42
0.4142135623731
 10
-620.0818283164182
 20
-3085.500403945509
 42
0.4142135623731
 10
-621.5818283164182
 20
-3087.000403945509
 42
0.4142135623731
 10
-620.0818283164182
 20
-3088.500403945509
 42
0.4142135623731
  0
LINE
  5
183
330
1F
100
AcDbEntity
  8
0-3_仕上げ
  6
Continuous
 62
     7
370
     9
100
AcDbLine
 10
-830.0818285538309
 20
-3096.000403945509
 30
0.0
 11
-2290.225075582635
 21
-3096.000403945509
 31
0.0
  0
LINE
  5
184
330
1F
100
AcDbEntity
  8
0-3_仕上げ
  6
Continuous
 62
     7
370
     9
100
AcDbLine
 10
-830.0818285538309
 20
-3105.000403945509
 30
0.0
 11
-2290.225075582635
 21
-3105.000403945509
 31
0.0
  0
LINE
  5
185
330
1F
100
AcDbEntity
  8
0-3_仕上げ
  6
Continuous
 62
     7
370
     9
100
AcDbLine
 10
-830.0818285538309
 20
-3114.000403945508
 30
0.0
 11
-2290.225075582635
 21
-3114.000403945508
 31
0.0
  0
LINE
  5
186
330
1F
100
AcDbEntity
  8
0-3_仕上げ
  6
Continuous
 62
     7
370
     9
100
AcDbLine
 10
-830.0818285538309
 20
-3123.000403945509
 30
0.0
 11
-2290.225075582635
 21
-3123.000403945509
 31
0.0
  0
LINE
  5
187
330
1F
100
AcDbEntity
  8
0-3_仕上げ
  6
Continuous
 62
     7
370
     9
100
AcDbLine
 10
-830.0818285538309
 20
-3132.000403945509
 30
0.0
 11
-2290.225075582635
 21
-3132.000403945509
 31
0.0
  0
LINE
  5
188
330
1F
100
AcDbEntity
  8
0-3_仕上げ
  6
Continuous
 62
     7
370
     9
100
AcDbLine
 10
-830.0818285538309
 20
-3141.000403945509
 30
0.0
 11
-2290.225075582635
 21
-3141.000403945509
 31
0.0
  0
LINE
  5
189
330
1F
100
AcDbEntity
  8
0-3_仕上げ
  6
Continuous
 62
     7
370
     9
100
AcDbLine
 10
-830.0818285538309
 20
-3150.000403945508
 30
0.0
 11
-2290.225075582635
 21
-3150.000403945508
 31
0.0
  0
LINE
  5
18A
330
1F
100
AcDbEntity
  8
0-3_仕上げ
  6
Continuous
 62
    40
370
    15
100
AcDbLine
 10
-830.0818285538309
 20
-3159.00040394551
 30
0.0
 11
-2290.225075582635
 21
-3159.00040394551
 31
0.0
  0
LINE
  5
18B
330
1F
100
AcDbEntity
  8
0-3_仕上げ
  6
Continuous
 62
    40
370
    15
100
AcDbLine
 10
-830.0818285538309
 20
-3087.000403945509
 30
0.0
 11
-2290.225075582635
 21
-3087.000403945509
 31
0.0
  0
LWPOLYLINE
  5
18C
330
1F
100
AcDbEntity
  8
0-B_寸法
  6
Continuous
 62
     7
370
     9
100
AcDbPolyline
 90
        4
 70
     1
 43
3.0
 10
-408.5818283164182
 20
-3087.000403945509
 42
0.4142135623731
 10
-410.0818283164182
 20
-3085.500403945509
 42
0.4142135623731
 10
-411.5818283164182
 20
-3087.000403945509
 42
0.4142135623731
 10
-410.0818283164182
 20
-3088.500403945509
 42
0.4142135623731
  0
LINE
  5
18D
330
1F
100
AcDbEntity
  8
0-B_寸法
  6
Continuous
 62
   120
370
     5
100
AcDbLine
 10
-200.0818283164182
 20
-3087.000403945509
 30
0.0
 11
-830.0818283164186
 21
-3087.000403945509
 31
0.0
  0
LWPOLYLINE
  5
18E
330
1F
100
AcDbEntity
  8
0-B_寸法
  6
Continuous
 62
     7
370
     9
100
AcDbPolyline
 90
        4
 70
     1
 43
3.0
 10
-198.5818283164182
 20
-3087.000403945509
 42
0.4142135623731
 10
-200.0818283164182
 20
-3085.500403945509
 42
0.4142135623731
 10
-201.5818283164182
 20
-3087.000403945509
 42
0.4142135623731
 10
-200.0818283164182
 20
-3088.500403945509
 42
0.4142135623731
  0
LINE
  5
18F
330
1F
100
AcDbEntity
  8
0-B_寸法
  6
Continuous
 62
   120
370
     5
100
AcDbLine
 10
-2500.225075582637
 20
-3159.000197951857
 30
0.0
 11
-2282.67489264585
 21
-3159.000197951857
 31
0.0
  0
LWPOLYLINE
  5
190
330
1F
100
AcDbEntity
  8
0-B_寸法
  6
Continuous
 62
     7
370
     9
100
AcDbPolyline
 90
        4
 70
     1
 43
3.0
 10
-2498.725075582637
 20
-3159.000197951857
 42
0.4142135623731
 10
-2500.225075582637
 20
-3157.500197951857
 42
0.4142135623731
 10
-2501.725075582636
 20
-3159.000197951857
 42
0.4142135623731
 10
-2500.225075582637
 20
-3160.500197951857
 42
0.4142135623731
  0
LINE
  5
191
330
1F
100
AcDbEntity
  8
0-B_寸法
  6
Continuous
 62
   120
370
     5
100
AcDbLine
 10
-2500.225075582637
 20
-272.9999919582031
 30
0.0
 11
-2282.67489264585
 21
-272.9999919582031
 31
0.0
  0
LINE
  5
192
330
1F
100
AcDbEntity
  8
0-B_寸法
  6
Continuous
 62
   120
370
     5
100
AcDbLine
 10
-2500.225075582637
 20
-272.9999919582031
 30
0.0
 11
-2500.225075582637
 21
-3159.000197951857
 31
0.0
  0
LWPOLYLINE
  5
193
330
1F
100
AcDbEntity
  8
0-B_寸法
  6
Continuous
 62
     7
370
     9
100
AcDbPolyline
 90
        4
 70
     1
 43
3.0
 10
-2498.725075582637
 20
-272.9999919582031
 42
0.4142135623731
 10
-2500.225075582637
 20
-271.4999919582031
 42
0.4142135623731
 10
-2501.725075582636
 20
-272.9999919582031
 42
0.4142135623731
 10
-2500.225075582637
 20
-274.4999919582031
 42
0.4142135623731
  0
LINE
  5
194
330
1F
100
AcDbEntity
  8
0-1_通り芯
  6
JWW_CENTER1
 62
   120
370
     5
100
AcDbLine
 10
-200.0818283164182
 20
-272.9999919582031
 30
0.0
 11
-2571.595099564577
 21
-272.9999919582031
 31
0.0
  0
LINE
  5
195
330
1F
100
AcDbEntity
  8
0-0_補助線
  6
JWW_HOJO
 62
    92
370
    13
100
AcDbLine
 10
-1215.086822093702
 20
-271.7999931026122
 30
0.0
 11
-1099.755772451535
 21
-271.7999931026122
 31
0.0
  0
LINE
  5
196
330
1F
100
AcDbEntity
  8
0-B_寸法
  6
Continuous
 62
   120
370
     5
100
AcDbLine
 10
-200.0818283164182
 20
-3159.000197951857
 30
0.0
 11
-830.0818283164186
 21
-3159.000197951858
 31
0.0
  0
LWPOLYLINE
  5
197
330
1F
100
AcDbEntity
  8
0-B_寸法
  6
Continuous
 62
     7
370
     9
100
AcDbPolyline
 90
        4
 70
     1
 43
3.0
 10
-198.5818283164182
 20
-3159.000197951857
 42
0.4142135623731
 10
-200.0818283164182
 20
-3157.500197951857
 42
0.4142135623731
 10
-201.5818283164182
 20
-3159.000197951857
 42
0.4142135623731
 10
-200.0818283164182
 20
-3160.500197951857
 42
0.4142135623731
  0
LINE
  5
198
330
1F
100
AcDbEntity
  8
0-1_通り芯
  6
JWW_CENTER1
 62
   120
370
     5
100
AcDbLine
 10
-2571.595099564577
 20
-3159.000197951857
 30
0.0
 11
-125.0659428169803
 21
-3159.000197951857
 31
0.0
  0
LINE
  5
199
330
1F
100
AcDbEntity
  8
0-0_補助線
  6
JWW_HOJO
 62
   120
370
     5
100
AcDbLine
 10
-2134.756058553829
 20
-1737.000197951857
 30
0.0
 11
-968.1731335085503
 21
-1737.000197951857
 31
0.0
  0
LINE
  5
19A
330
1F
100
AcDbEntity
  8
0-0_補助線
  6
JWW_HOJO
 62
   120
370
     5
100
AcDbLine
 10
-2134.756058553829
 20
-1857.000197951857
 30
0.0
 11
-968.1731335085503
 21
-1857.000197951857
 31
0.0
  0
LINE
  5
19B
330
1F
100
AcDbEntity
  8
0-0_補助線
  6
JWW_HOJO
 62
   120
370
     5
100
AcDbLine
 10
-1735.756058553829
 20
-8.999991958202713
 30
0.0
 11
-1735.756058553829
 21
-3346.451439426648
 31
0.0
  0
LINE
  5
19C
330
1F
100
AcDbEntity
  8
0-4_枠
  6
Continuous
 62
   120
370
     5
100
AcDbLine
 10
-1873.756058553832
 20
-1857.000197951857
 30
0.0
 11
-1873.756058553832
 21
-3087.000403945509
 31
0.0
  0
LINE
  5
19D
330
1F
100
AcDbEntity
  8
0-4_枠
  6
Continuous
 62
   120
370
     5
100
AcDbLine
 10
-1195.756058553831
 20
-1857.000197951857
 30
0.0
 11
-1195.756058553831
 21
-3087.000403945509
 31
0.0
  0
LINE
  5
19E
330
1F
100
AcDbEntity
  8
0-B_寸法
  6
Continuous
 62
   120
370
     5
100
AcDbLine
 10
-1441.756058553832
 20
-1099.146867228523
 30
0.0
 11
-1225.756058553831
 21
-1099.146867228523
 31
0.0
  0
LWPOLYLINE
  5
19F
330
1F
100
AcDbEntity
  8
0-B_寸法
  6
Continuous
 62
     7
370
     9
100
AcDbPolyline
 90
        4
 70
     1
 43
3.0
 10
-1440.256058553832
 20
-1099.146867228523
 42
0.4142135623731
 10
-1441.756058553832
 20
-1097.646867228523
 42
0.4142135623731
 10
-1443.256058553832
 20
-1099.146867228523
 42
0.4142135623731
 10
-1441.756058553832
 20
-1100.646867228523
 42
0.4142135623731
  0
LWPOLYLINE
  5
1A0
330
1F
100
AcDbEntity
  8
0-B_寸法
  6
Continuous
 62
     7
370
     9
100
AcDbPolyline
 90
        4
 70
     1
 43
3.0
 10
-1224.256058553831
 20
-1099.146867228523
 42
0.4142135623731
 10
-1225.756058553831
 20
-1097.646867228523
 42
0.4142135623731
 10
-1227.256058553831
 20
-1099.146867228523
 42
0.4142135623731
 10
-1225.756058553831
 20
-1100.646867228523
 42
0.4142135623731
  0
LINE
  5
1A1
330
1F
100
AcDbEntity
  8
0-7_金物
  6
Continuous
 62
     7
370
     9
100
AcDbLine
 10
-1624.756361822265
 20
-285.0003295589103
 30
0.0
 11
-1444.756499151367
 21
-285.0003295589103
 31
0.0
  0
LINE
  5
1A2
330
1F
100
AcDbEntity
  8
0-7_金物
  6
Continuous
 62
     7
370
     9
100
AcDbLine
 10
-1444.756499151367
 20
-272.9999919582031
 30
0.0
 11
-1444.756499151367
 21
-285.0003295589103
 31
0.0
  0
LINE
  5
1A3
330
1F
100
AcDbEntity
  8
0-7_金物
  6
Continuous
 62
     7
370
     9
100
AcDbLine
 10
-1624.756361822265
 20
-272.9999919582031
 30
0.0
 11
-1624.756361822265
 21
-285.0003295589103
 31
0.0
  0
LINE
  5
1A4
330
1F
100
AcDbEntity
  8
0-7_金物
  6
Continuous
 62
     7
370
     9
100
AcDbLine
 10
-1624.756361822265
 20
-272.9999919582031
 30
0.0
 11
-1444.756499151367
 21
-272.9999919582031
 31
0.0
  0
LINE
  5
1A5
330
1F
100
AcDbEntity
  8
0-7_金物
  6
Continuous
 62
     7
370
     9
100
AcDbLine
 10
-1594.756258825438
 20
-285.0003295589103
 30
0.0
 11
-1594.756258825438
 21
-296.9999232936507
 31
0.0
  0
LINE
  5
1A6
330
1F
100
AcDbEntity
  8
0-7_金物
  6
Continuous
 62
     7
370
     9
100
AcDbLine
 10
-1474.756602148192
 20
-285.0003295589103
 30
0.0
 11
-1474.756602148192
 21
-296.9999232936507
 31
0.0
  0
LINE
  5
1A7
330
1F
100
AcDbEntity
  8
0-7_金物
  6
Continuous
 62
     7
370
     9
100
AcDbLine
 10
-1594.756258825438
 20
-296.9999232936507
 30
0.0
 11
-1474.756602148192
 21
-296.9999232936507
 31
0.0
  0
LINE
  5
1A8
330
1F
100
AcDbEntity
  8
0-3_仕上げ
  6
Continuous
 62
     7
370
     9
100
AcDbLine
 10
-1873.756058553832
 20
-272.9999919582031
 30
0.0
 11
-1195.756058553833
 21
-272.9999919582031
 31
0.0
  0
MTEXT
  5
1A9
330
1F
100
AcDbEntity
  8
0-B_寸法
  6
Continuous
 62
     7
370
     0
100
AcDbMText
 10
-633.162648961097
 20
-2173.584846403228
 30
0.0
 40
101.8309090909091
 41
735.0
 46
0.0
 71
     7
 72
     1
  1
{\fＭＳ ゴシック|b0|i0|c128|p49;ＤＨ＝1,995}
 11
6.123031769111886E-17
 21
1.0
 31
0.0
 73
     1
 44
1.0
  0
MTEXT
  5
1AA
330
1F
100
AcDbEntity
  8
0-B_寸法
  6
Continuous
 62
     7
370
     0
100
AcDbMText
 10
-2528.070379450041
 20
-2193.004813336472
 30
0.0
 40
101.9907692307692
 41
870.0
 46
0.0
 71
     7
 72
     1
  1
{\fＭＳ ゴシック|b0|i0|c128|p49;ＲＯＨ＝2,055}
 11
6.123031769111886E-17
 21
1.0
 31
0.0
 73
     1
 44
1.0
  0
LINE
  5
1AB
330
1F
100
AcDbEntity
  8
0-0_補助線
  6
JWW_HOJO
 62
   120
370
     5
100
AcDbLine
 10
-2282.67489288784
 20
9.000008041797116
 30
0.0
 11
-2282.67489288784
 21
-3328.451439426648
 31
0.0
  0
LINE
  5
1AC
330
1F
100
AcDbEntity
  8
0-0_補助線
  6
JWW_HOJO
 62
   120
370
     5
100
AcDbLine
 10
-2282.67489288784
 20
9.000008041797116
 30
0.0
 11
-830.0818285538309
 21
9.000008041797116
 31
0.0
  0
LINE
  5
1AD
330
1F
100
AcDbEntity
  8
0-0_補助線
  6
JWW_HOJO
 62
   120
370
     5
100
AcDbLine
 10
-830.0818285538309
 20
9.000008041797116
 30
0.0
 11
-830.0818285538309
 21
-3328.451439426648
 31
0.0
  0
LINE
  5
1AE
330
1F
100
AcDbEntity
  8
0-B_寸法
  6
Continuous
 62
   120
370
     5
100
AcDbLine
 10
-620.0818283164182
 20
-3009.000403945509
 30
0.0
 11
-830.0818283164186
 21
-3009.000403945509
 31
0.0
  0
LWPOLYLINE
  5
1AF
330
1F
100
AcDbEntity
  8
0-B_寸法
  6
Continuous
 62
     7
370
     9
100
AcDbPolyline
 90
        4
 70
     1
 43
3.0
 10
-618.5818283164182
 20
-3009.000403945509
 42
0.4142135623731
 10
-620.0818283164182
 20
-3007.500403945509
 42
0.4142135623731
 10
-621.5818283164182
 20
-3009.000403945509
 42
0.4142135623731
 10
-620.0818283164182
 20
-3010.500403945509
 42
0.4142135623731
  0
LINE
  5
1B0
330
1F
100
AcDbEntity
  8
0-6_扉
  6
Continuous
 62
   200
370
    20
100
AcDbLine
 10
-1225.756058553831
 20
-3009.000403945509
 30
0.0
 11
-1441.756058553832
 21
-3009.000403945509
 31
0.0
  0
MTEXT
  5
1B1
330
1F
100
AcDbEntity
  8
0-B_寸法
  6
Continuous
 62
     7
370
     0
100
AcDbMText
 10
-636.3338963241068
 20
-3013.342942142871
 30
0.0
 40
97.15499999999999
 41
127.5
 46
0.0
 71
     7
 72
     1
  1
{\fＭＳ ゴシック|b0|i0|c128|p49;13}
 11
6.123031769111886E-17
 21
1.0
 31
0.0
 73
     1
 44
1.0
  0
LINE
  5
1B2
330
1F
100
AcDbEntity
  8
0-6_扉
  6
Continuous
 62
   200
370
    20
100
AcDbLine
 10
-1441.756058553832
 20
-1857.000197951857
 30
0.0
 11
-1441.756058553832
 21
-3009.000403945509
 31
0.0
  0
LINE
  5
1B3
330
1F
100
AcDbEntity
  8
0-6_扉
  6
Continuous
 62
   200
370
    20
100
AcDbLine
 10
-1225.756058553831
 20
-1857.000197951857
 30
0.0
 11
-1225.756058553831
 21
-3009.000403945509
 31
0.0
  0
MTEXT
  5
1B4
330
1F
100
AcDbEntity
  8
0-B_寸法
  6
Continuous
 62
     7
370
     0
100
AcDbMText
 10
-208.9964787431242
 20
-2173.584846403228
 30
0.0
 40
101.830909090909
 41
734.9999999999998
 46
0.0
 71
     7
 72
     1
  1
{\fＭＳ ゴシック|b0|i0|c128|p49;枠外＝2,035}
 11
6.123031769111886E-17
 21
1.0
 31
0.0
 73
     1
 44
1.0
  0
MTEXT
  5
1B5
330
1F
100
AcDbEntity
  8
0-A_文字
  6
Continuous
 62
     7
370
     9
100
AcDbMText
 10
-2556.671257470709
 20
39.82821798363741
 30
0.0
 40
100.584
 41
660.0
 46
0.0
 71
     7
 72
     1
  1
{\fＭＳ ゴシック|b0|i0|c128|p49;■縦断面図}
 73
     1
 44
1.0
  0
LINE
  5
1B6
330
1F
100
AcDbEntity
  8
0-A_文字
  6
Continuous
 62
    92
370
    13
100
AcDbLine
 10
219.9181716835818
 20
-272.9999919582031
 30
0.0
 11
219.9181716835818
 21
-1992.041548837789
 31
0.0
  0
LINE
  5
1B7
330
1F
100
AcDbEntity
  8
0-A_文字
  6
Continuous
 62
    92
370
    13
100
AcDbLine
 10
1719.918171683584
 20
-1992.041548837789
 30
0.0
 11
219.9181716835818
 21
-1992.041548837789
 31
0.0
  0
LINE
  5
1B8
330
1F
100
AcDbEntity
  8
0-A_文字
  6
Continuous
 62
    92
370
    13
100
AcDbLine
 10
1719.918171683582
 20
-272.9999919582031
 30
0.0
 11
219.918171683581
 21
-272.9999919582031
 31
0.0
  0
LINE
  5
1B9
330
1F
100
AcDbEntity
  8
0-A_文字
  6
Continuous
 62
    92
370
    13
100
AcDbLine
 10
1719.918171683584
 20
-452.9999919582031
 30
0.0
 11
219.918171683581
 21
-452.9999919582031
 31
0.0
  0
LINE
  5
1BA
330
1F
100
AcDbEntity
  8
0-A_文字
  6
Continuous
 62
    92
370
    13
100
AcDbLine
 10
1719.918171683584
 20
-272.9999919582031
 30
0.0
 11
1719.918171683584
 21
-1992.041548837789
 31
0.0
  0
MTEXT
  5
1BB
330
1F
100
AcDbEntity
  8
0-A_文字
  6
Continuous
 62
     7
370
     9
100
AcDbMText
 10
549.9181716835818
 20
-437.279991958203
 30
0.0
 40
91.44
 41
840.0
 46
0.0
 71
     7
 72
     1
  1
{\fＭＳ ゴシック|b0|i0|c128|p49;竪枠下端形状図}
 73
     1
 44
1.0
  0
LINE
  5
1BC
330
1F
100
AcDbEntity
  8
0-B_寸法
  6
Continuous
 62
   120
370
     5
100
AcDbLine
 10
-620.0818283164182
 20
-482.9999919582028
 30
0.0
 11
-830.0818283164186
 21
-482.9999919582028
 31
0.0
  0
LWPOLYLINE
  5
1BD
330
1F
100
AcDbEntity
  8
0-B_寸法
  6
Continuous
 62
     7
370
     9
100
AcDbPolyline
 90
        4
 70
     1
 43
3.0
 10
-618.5818283164182
 20
-482.9999919582028
 42
0.4142135623731
 10
-620.0818283164182
 20
-481.4999919582028
 42
0.4142135623731
 10
-621.5818283164182
 20
-482.9999919582028
 42
0.4142135623731
 10
-620.0818283164182
 20
-484.4999919582029
 42
0.4142135623731
  0
LWPOLYLINE
  5
1BE
330
1F
100
AcDbEntity
  8
0-B_寸法
  6
Continuous
 62
     7
370
     9
100
AcDbPolyline
 90
        4
 70
     1
 43
3.0
 10
-408.5818283164182
 20
-320.9999919582023
 42
0.4142135623731
 10
-410.0818283164182
 20
-319.4999919582023
 42
0.4142135623731
 10
-411.5818283164182
 20
-320.9999919582023
 42
0.4142135623731
 10
-410.0818283164182
 20
-322.4999919582023
 42
0.4142135623731
  0
LINE
  5
1BF
330
1F
100
AcDbEntity
  8
0-0_補助線
  6
JWW_HOJO
 62
    92
370
    13
100
AcDbLine
 10
-200.0818283164182
 20
-374.9999919582031
 30
0.0
 11
-200.0818283164182
 21
-428.999991958203
 31
0.0
  0
LINE
  5
1C0
330
1F
100
AcDbEntity
  8
0-B_寸法
  6
Continuous
 62
   120
370
     5
100
AcDbLine
 10
-200.0818283164182
 20
-320.9999919582023
 30
0.0
 11
-830.0818283164186
 21
-320.9999919582023
 31
0.0
  0
LWPOLYLINE
  5
1C1
330
1F
100
AcDbEntity
  8
0-B_寸法
  6
Continuous
 62
     7
370
     9
100
AcDbPolyline
 90
        4
 70
     1
 43
3.0
 10
-198.5818283164182
 20
-320.9999919582023
 42
0.4142135623731
 10
-200.0818283164182
 20
-319.4999919582023
 42
0.4142135623731
 10
-201.5818283164182
 20
-320.9999919582023
 42
0.4142135623731
 10
-200.0818283164182
 20
-322.4999919582023
 42
0.4142135623731
  0
LINE
  5
1C2
330
1F
100
AcDbEntity
  8
0-7_金物
  6
Continuous
 62
     7
370
     9
100
AcDbLine
 10
-1588.756092886107
 20
-296.9999232936507
 30
0.0
 11
-1588.756092886107
 21
-320.9999919582023
 31
0.0
  0
LINE
  5
1C3
330
1F
100
AcDbEntity
  8
0-7_金物
  6
Continuous
 62
     7
370
     9
100
AcDbLine
 10
-1480.756024221556
 20
-320.9999919582023
 30
0.0
 11
-1480.756024221556
 21
-296.9999232936507
 31
0.0
  0
LINE
  5
1C4
330
1F
100
AcDbEntity
  8
0-6_扉
  6
Continuous
 62
   200
370
    20
100
AcDbLine
 10
-1441.756058553832
 20
-482.9999919582028
 30
0.0
 11
-1441.756058553832
 21
-1737.000197951857
 31
0.0
  0
LINE
  5
1C5
330
1F
100
AcDbEntity
  8
0-6_扉
  6
Continuous
 62
   200
370
    20
100
AcDbLine
 10
-1225.756058553831
 20
-482.9999919582028
 30
0.0
 11
-1225.756058553831
 21
-1737.000197951857
 31
0.0
  0
MTEXT
  5
1C6
330
1F
100
AcDbEntity
  8
0-B_寸法
  6
Continuous
 62
     7
370
   211
100
AcDbMText
 10
-531.881457156687
 20
1566.099021486439
 30
0.0
 40
102.1976470588235
 41
1140.0
 46
0.0
 71
     7
 72
     1
  1
{\fＭＳ ゴシック|b0|i0|c128|p49;有効開口寸法＝536}
 73
     1
 44
1.0
  0
MTEXT
  5
1C7
330
1F
100
AcDbEntity
  8
0-B_寸法
  6
Continuous
 62
     7
370
     0
100
AcDbMText
 10
-285.8814571566825
 20
1359.715329582354
 30
0.0
 40
101.6
 41
600.0
 46
0.0
 71
     7
 72
     1
  1
{\fＭＳ ゴシック|b0|i0|c128|p49;ＤＷ＝599}
 73
     1
 44
1.0
  0
MTEXT
  5
1C8
330
1F
100
AcDbEntity
  8
0-B_寸法
  6
Continuous
 62
     7
370
   211
100
AcDbMText
 10
-285.8814571566825
 20
1145.800197957027
 30
0.0
 40
101.6
 41
600.0
 46
0.0
 71
     7
 72
     1
  1
{\fＭＳ ゴシック|b0|i0|c128|p49;枠内＝606}
 73
     1
 44
1.0
  0
MTEXT
  5
1C9
330
1F
100
AcDbEntity
  8
0-B_寸法
  6
Continuous
 62
     7
370
     0
100
AcDbMText
 10
-285.8814571566825
 20
928.6387446185238
 30
0.0
 40
101.6
 41
600.0
 46
0.0
 71
     7
 72
     1
  1
{\fＭＳ ゴシック|b0|i0|c128|p49;枠外＝654}
 73
     1
 44
1.0
  0
MTEXT
  5
1CA
330
1F
100
AcDbEntity
  8
0-B_寸法
  6
Continuous
 62
     7
370
   211
100
AcDbMText
 10
-353.381457156684
 20
725.915652502482
 30
0.0
 40
101.8309090909091
 41
735.0000000000002
 46
0.0
 71
     7
 72
     1
  1
{\fＭＳ ゴシック|b0|i0|c128|p49;ＲＯＷ＝664}
 73
     1
 44
1.0
  0
MTEXT
  5
1CB
330
1F
100
AcDbEntity
  8
F-A_文字
  6
Continuous
 62
     7
370
     0
100
AcDbMText
 10
-5080.08132364228
 20
-4045.081526987481
 30
0.0
 40
79.83681818181815
 41
3457.5
 46
0.0
 71
     7
 72
     1
  1
{\fＭＳ ゴシック|b0|i0|c128|p49;ピノアース　トイレドア　調整枠　通気　３方枠　枠外H2,035　枠外W654}
 73
     1
 44
1.0
  0
MTEXT
  5
1CC
330
1F
100
AcDbEntity
  8
0-A_文字
  6
Continuous
 62
    92
370
    13
100
AcDbMText
 10
-5510.0
 20
3758.855566071256
 30
0.0
 40
147.7107692307692
 41
2520.0
 46
0.0
 71
     7
 72
     1
  1
{\fＭＳ ゴシック|b0|i0|c128|p49;トイレドア　調整枠　３方枠}
 73
     1
 44
1.0
  0
LINE
  5
1CD
330
1F
100
AcDbEntity
  8
F-0_補助線
  6
JWW_HOJO
 62
   120
370
     5
100
AcDbLine
 10
-5509.999495325861
 20
4000.000181455871
 30
0.0
 11
-5509.999495325861
 21
3730.000181455871
 31
0.0
  0
LINE
  5
1CE
330
1F
100
AcDbEntity
  8
0-A_文字
  6
Continuous
 62
    92
370
    13
100
AcDbLine
 10
-5659.999495325861
 20
4000.000181455871
 30
0.0
 11
-2828.571428571428
 21
4000.000181455871
 31
0.0
  0
LINE
  5
1CF
330
1F
100
AcDbEntity
  8
0-A_文字
  6
Continuous
 62
    92
370
    13
100
AcDbLine
 10
-2828.571428571428
 20
3730.000181455871
 30
0.0
 11
-2828.571428571428
 21
4000.000181455871
 31
0.0
  0
LINE
  5
1D0
330
1F
100
AcDbEntity
  8
0-A_文字
  6
Continuous
 62
    92
370
    13
100
AcDbLine
 10
-5659.999495325861
 20
3730.000181455871
 30
0.0
 11
-2828.571428571428
 21
3730.000181455871
 31
0.0
  0
LINE
  5
1D1
330
1F
100
AcDbEntity
  8
F-0_補助線
  6
JWW_HOJO
 62
   120
370
     5
100
AcDbLine
 10
-2978.571428571428
 20
3730.000181455871
 30
0.0
 11
-2978.571428571428
 21
4000.000181455871
 31
0.0
  0
MTEXT
  5
1D2
330
1F
100
AcDbEntity
  8
0-B_寸法
  6
Continuous
 62
     7
370
   211
100
AcDbMText
 10
-2109.773538079727
 20
930.7201979570275
 30
0.0
 40
91.44
 41
60.0
 46
0.0
 71
     7
 72
     1
  1
{\fＭＳ ゴシック|b0|i0|c128|p49;5}
 73
     1
 44
1.0
  0
MTEXT
  5
1D3
330
1F
100
AcDbEntity
  8
0-B_寸法
  6
Continuous
 62
     7
370
   211
100
AcDbMText
 10
2068.743601675197
 20
930.7201979570275
 30
0.0
 40
91.44
 41
60.0
 46
0.0
 71
     7
 72
     1
  1
{\fＭＳ ゴシック|b0|i0|c128|p49;5}
 73
     1
 44
1.0
  0
LINE
  5
1D4
330
1F
100
AcDbEntity
  8
0-0_補助線
  6
Continuous
 62
   120
370
     5
100
AcDbLine
 10
637.1398227985281
 20
-752.999991958203
 30
0.0
 11
1315.139822798526
 21
-752.999991958203
 31
0.0
  0
LWPOLYLINE
  5
1D5
330
1F
100
AcDbEntity
  8
0-0_補助線
  6
Continuous
 62
     7
370
     9
100
AcDbPolyline
 90
        4
 70
     1
 43
3.0
 10
638.6398227985281
 20
-752.999991958203
 42
0.4142135623731
 10
637.1398227985281
 20
-751.499991958203
 42
0.4142135623731
 10
635.6398227985281
 20
-752.999991958203
 42
0.4142135623731
 10
637.1398227985281
 20
-754.499991958203
 42
0.4142135623731
  0
LWPOLYLINE
  5
1D6
330
1F
100
AcDbEntity
  8
0-0_補助線
  6
Continuous
 62
     7
370
     9
100
AcDbPolyline
 90
        4
 70
     1
 43
3.0
 10
1316.639822798526
 20
-752.999991958203
 42
0.4142135623731
 10
1315.139822798526
 20
-751.499991958203
 42
0.4142135623731
 10
1313.639822798526
 20
-752.999991958203
 42
0.4142135623731
 10
1315.139822798526
 20
-754.499991958203
 42
0.4142135623731
  0
LINE
  5
1D7
330
1F
100
AcDbEntity
  8
0-0_補助線
  6
Continuous
 62
   120
370
     5
100
AcDbLine
 10
637.1398227985281
 20
-752.999991958203
 30
0.0
 11
637.1398227985281
 21
-902.999991958203
 31
0.0
  0
LINE
  5
1D8
330
1F
100
AcDbEntity
  8
0-0_補助線
  6
Continuous
 62
   120
370
     5
100
AcDbLine
 10
1315.139822798526
 20
-752.999991958203
 30
0.0
 11
1315.139822798526
 21
-902.999991958203
 31
0.0
  0
MTEXT
  5
1D9
330
1F
100
AcDbEntity
  8
0-0_補助線
  6
Continuous
 62
     7
370
   211
100
AcDbMText
 10
878.6398227985276
 20
-748.4699919582031
 30
0.0
 40
99.06
 41
195.0
 46
0.0
 71
     7
 72
     1
  1
{\fＭＳ ゴシック|b0|i0|c128|p49;113}
 73
     1
 44
1.0
  0
LINE
  5
1DA
330
1F
100
AcDbEntity
  8
0-4_枠
  6
Continuous
 62
    92
370
    13
100
AcDbLine
 10
637.1398227985281
 20
-1692.041548837789
 30
0.0
 11
1315.139822798526
 21
-1692.041548837789
 31
0.0
  0
LINE
  5
1DB
330
1F
100
AcDbEntity
  8
0-4_枠
  6
Continuous
 62
    92
370
    13
100
AcDbLine
 10
637.1398227985281
 20
-974.5931710037916
 30
0.0
 11
637.1398227985281
 21
-1692.041548837789
 31
0.0
  0
LINE
  5
1DC
330
1F
100
AcDbEntity
  8
0-4_枠
  6
Continuous
 62
    92
370
    13
100
AcDbLine
 10
1315.139822798526
 20
-974.5931710037916
 30
0.0
 11
1315.139822798526
 21
-1692.041548837789
 31
0.0
  0
LWPOLYLINE
  5
1DD
330
1F
100
AcDbEntity
  8
0-B_寸法
  6
Continuous
 62
     7
370
     9
100
AcDbPolyline
 90
        4
 70
     1
 43
3.0
 10
-198.5818283164182
 20
-272.9999919582031
 42
0.4142135623731
 10
-200.0818283164182
 20
-271.4999919582031
 42
0.4142135623731
 10
-201.5818283164182
 20
-272.9999919582031
 42
0.4142135623731
 10
-200.0818283164182
 20
-274.4999919582031
 42
0.4142135623731
  0
MTEXT
  5
1DE
330
1F
100
AcDbEntity
  8
0-B_寸法
  6
Continuous
 62
     7
370
     0
100
AcDbMText
 10
-207.3255433190287
 20
-279.2999058993847
 30
0.0
 40
91.44
 41
60.0
 46
0.0
 71
     7
 72
     1
  1
{\fＭＳ ゴシック|b0|i0|c128|p49;8}
 11
6.123031769111886E-17
 21
1.0
 31
0.0
 73
     1
 44
1.0
  0
LINE
  5
1DF
330
1F
100
AcDbEntity
  8
0-B_寸法
  6
Continuous
 62
   120
370
     5
100
AcDbLine
 10
-410.0818283164182
 20
-320.9999919582023
 30
0.0
 11
-410.0818283164182
 21
-3087.000403945509
 31
0.0
  0
LINE
  5
1E0
330
1F
100
AcDbEntity
  8
0-B_寸法
  6
Continuous
 62
   120
370
     5
100
AcDbLine
 10
-200.0818283164182
 20
-272.9999919582031
 30
0.0
 11
-830.0818283164186
 21
-272.9999919582031
 31
0.0
  0
LINE
  5
1E1
330
1F
100
AcDbEntity
  8
0-B_寸法
  6
Continuous
 62
   120
370
     5
100
AcDbLine
 10
-200.0818283164182
 20
-278.9999919582023
 30
0.0
 11
-200.0818283164182
 21
-3159.000197951857
 31
0.0
  0
MTEXT
  5
1E2
330
1F
100
AcDbEntity
  8
0-B_寸法
  6
Continuous
 62
     7
370
   211
100
AcDbMText
 10
-215.0818283164182
 20
-3321.283094074763
 30
0.0
 40
97.15499999999999
 41
127.5
 46
0.0
 71
     7
 72
     1
  1
{\fＭＳ ゴシック|b0|i0|c128|p49;12}
 11
6.123031769111886E-17
 21
1.0
 31
0.0
 73
     1
 44
1.0
  0
LINE
  5
1E3
330
1F
100
AcDbEntity
  8
F-0_補助線
  6
JWW_HOJO
 62
     7
370
     9
100
AcDbLine
 10
1349.918584083287
 20
-3795.000003092998
 30
0.0
 11
1349.918584083287
 21
-4195.000008247994
 31
0.0
  0
LINE
  5
1E4
330
1F
100
AcDbEntity
  8
F-0_補助線
  6
JWW_HOJO
 62
     7
370
     9
100
AcDbLine
 10
4889.917891251784
 20
-3795.000003092998
 30
0.0
 11
4889.917891251784
 21
-4195.000008247994
 31
0.0
  0
MTEXT
  5
1E5
330
1F
100
AcDbEntity
  8
F-0_補助線
  6
Continuous
 62
     7
370
     0
100
AcDbMText
 10
1349.918584083287
 20
-3945.948482732445
 30
0.0
 40
78.105
 41
615.0
 46
0.0
 71
     7
 72
     1
  1
{\fＭＳ ゴシック|b0|i0|c128|p49;建具納まり図}
 73
     1
 44
1.0
  0
MTEXT
  5
1E6
330
1F
100
AcDbEntity
  8
F-0_補助線
  6
Continuous
 62
     7
370
     0
100
AcDbMText
 10
509.9185840832865
 20
-3956.425201962234
 30
0.0
 40
57.15
 41
675.0
 46
0.0
 71
     7
 72
     1
  1
{\fＭＳ ゴシック|b0|i0|c128|p49;ＰＩＮＯＥＡＲＴＨ}
 73
     1
 44
1.0
  0
MTEXT
  5
1E7
330
1F
100
AcDbEntity
  8
0-B_寸法
  6
Continuous
 62
     7
370
   211
100
AcDbMText
 10
-2125.225075582635
 20
-422.2800119853637
 30
0.0
 40
91.44000000000001
 41
60.0
 46
0.0
 71
     7
 72
     1
  1
{\fＭＳ ゴシック|b0|i0|c128|p49;9}
 11
6.123031769111886E-17
 21
1.0
 31
0.0
 73
     1
 44
1.0
  0
LINE
  5
1E8
330
1F
100
AcDbEntity
  8
0-B_寸法
  6
Continuous
 62
   120
370
     5
100
AcDbLine
 10
-2290.225075582635
 20
-320.9999919582023
 30
0.0
 11
-1930.225075582635
 21
-320.9999919582023
 31
0.0
  0
LINE
  5
1E9
330
1F
100
AcDbEntity
  8
0-B_寸法
  6
Continuous
 62
   120
370
     5
100
AcDbLine
 10
-2110.225075582635
 20
-351.0000320125242
 30
0.0
 11
-1930.225075582635
 21
-351.0000320125242
 31
0.0
  0
LINE
  5
1EA
330
1F
100
AcDbEntity
  8
0-B_寸法
  6
Continuous
 62
   120
370
     5
100
AcDbLine
 10
-2110.225075582635
 20
-404.9999919582031
 30
0.0
 11
-1930.225075582635
 21
-404.9999919582031
 31
0.0
  0
LWPOLYLINE
  5
1EB
330
1F
100
AcDbEntity
  8
0-B_寸法
  6
Continuous
 62
     7
370
     9
100
AcDbPolyline
 90
        4
 70
     1
 43
3.0
 10
-2108.725075582635
 20
-320.9999919582023
 42
0.4142135623731
 10
-2110.225075582635
 20
-319.4999919582023
 42
0.4142135623731
 10
-2111.725075582635
 20
-320.9999919582023
 42
0.4142135623731
 10
-2110.225075582635
 20
-322.4999919582023
 42
0.4142135623731
  0
LWPOLYLINE
  5
1EC
330
1F
100
AcDbEntity
  8
0-B_寸法
  6
Continuous
 62
     7
370
     9
100
AcDbPolyline
 90
        4
 70
     1
 43
3.0
 10
-2108.725075582635
 20
-351.0000320125242
 42
0.4142135623731
 10
-2110.225075582635
 20
-349.5000320125242
 42
0.4142135623731
 10
-2111.725075582635
 20
-351.0000320125242
 42
0.4142135623731
 10
-2110.225075582635
 20
-352.5000320125242
 42
0.4142135623731
  0
LWPOLYLINE
  5
1ED
330
1F
100
AcDbEntity
  8
0-B_寸法
  6
Continuous
 62
     7
370
     9
100
AcDbPolyline
 90
        4
 70
     1
 43
3.0
 10
-2108.725075582635
 20
-404.9999919582031
 42
0.4142135623731
 10
-2110.225075582635
 20
-403.4999919582031
 42
0.4142135623731
 10
-2111.725075582635
 20
-404.9999919582031
 42
0.4142135623731
 10
-2110.225075582635
 20
-406.4999919582031
 42
0.4142135623731
  0
LWPOLYLINE
  5
1EE
330
1F
100
AcDbEntity
  8
0-B_寸法
  6
Continuous
 62
     7
370
     9
100
AcDbPolyline
 90
        4
 70
     1
 43
3.0
 10
-2288.725075582635
 20
-320.9999919582023
 42
0.4142135623731
 10
-2290.225075582635
 20
-319.4999919582023
 42
0.4142135623731
 10
-2291.725075582635
 20
-320.9999919582023
 42
0.4142135623731
 10
-2290.225075582635
 20
-322.4999919582023
 42
0.4142135623731
  0
LINE
  5
1EF
330
1F
100
AcDbEntity
  8
0-B_寸法
  6
Continuous
 62
   120
370
     5
100
AcDbLine
 10
-2290.225075582635
 20
-446.9999919582031
 30
0.0
 11
-1930.225075582635
 21
-446.9999919582031
 31
0.0
  0
LWPOLYLINE
  5
1F0
330
1F
100
AcDbEntity
  8
0-B_寸法
  6
Continuous
 62
     7
370
     9
100
AcDbPolyline
 90
        4
 70
     1
 43
3.0
 10
-2108.725075582635
 20
-446.9999919582031
 42
0.4142135623731
 10
-2110.225075582635
 20
-445.4999919582031
 42
0.4142135623731
 10
-2111.725075582635
 20
-446.9999919582031
 42
0.4142135623731
 10
-2110.225075582635
 20
-448.4999919582031
 42
0.4142135623731
  0
LWPOLYLINE
  5
1F1
330
1F
100
AcDbEntity
  8
0-B_寸法
  6
Continuous
 62
     7
370
     9
100
AcDbPolyline
 90
        4
 70
     1
 43
3.0
 10
-2288.725075582635
 20
-446.9999919582031
 42
0.4142135623731
 10
-2290.225075582635
 20
-445.4999919582031
 42
0.4142135623731
 10
-2291.725075582635
 20
-446.9999919582031
 42
0.4142135623731
 10
-2290.225075582635
 20
-448.4999919582031
 42
0.4142135623731
  0
LINE
  5
1F2
330
1F
100
AcDbEntity
  8
0-B_寸法
  6
Continuous
 62
   120
370
     5
100
AcDbLine
 10
-2290.225075582635
 20
-320.9999919582023
 30
0.0
 11
-2290.225075582635
 21
-446.9999919582031
 31
0.0
  0
LINE
  5
1F3
330
1F
100
AcDbEntity
  8
0-B_寸法
  6
Continuous
 62
   120
370
     5
100
AcDbLine
 10
-2110.225075582635
 20
-320.9999919582023
 30
0.0
 11
-2110.225075582635
 21
-567.9904752611525
 31
0.0
  0
MTEXT
  5
1F4
330
1F
100
AcDbEntity
  8
0-B_寸法
  6
Continuous
 62
     7
370
   211
100
AcDbMText
 10
-2305.225075582637
 20
-468.1724919582017
 30
0.0
 40
97.155
 41
127.5
 46
0.0
 71
     7
 72
     1
  1
{\fＭＳ ゴシック|b0|i0|c128|p49;21}
 11
6.123031769111886E-17
 21
1.0
 31
0.0
 73
     1
 44
1.0
  0
MTEXT
  5
1F5
330
1F
100
AcDbEntity
  8
0-B_寸法
  6
Continuous
 62
     7
370
   211
100
AcDbMText
 10
-2125.225075582635
 20
-564.2520063317486
 30
0.0
 40
91.44000000000017
 41
60.00000000000011
 46
0.0
 71
     7
 72
     1
  1
{\fＭＳ ゴシック|b0|i0|c128|p49;7}
 11
6.123031769111886E-17
 21
1.0
 31
0.0
 73
     1
 44
1.0
  0
LINE
  5
1F6
330
1F
100
AcDbEntity
  8
0-0_補助線
  6
Continuous
 62
   120
370
     5
100
AcDbLine
 10
-1289.906213935062
 20
-444.0004268336911
 30
0.0
 11
-1250.905779059574
 21
-404.9999919582013
 31
0.0
  0
LINE
  5
1F7
330
1F
100
AcDbEntity
  8
0-0_補助線
  6
Continuous
 62
   200
370
    20
100
AcDbLine
 10
-1441.756058553829
 20
-482.9999919582028
 30
0.0
 11
-1225.756058553828
 21
-482.9999919582028
 31
0.0
  0
LINE
  5
1F8
330
1F
100
AcDbEntity
  8
0-0_補助線
  6
Continuous
 62
   120
370
     5
100
AcDbLine
 10
-1456.631932124727
 20
-432.5352361643611
 30
0.0
 11
-1345.096687918576
 21
-320.9999919582095
 31
0.0
  0
LINE
  5
1F9
330
1F
100
AcDbEntity
  8
0-0_補助線
  6
Continuous
 62
    92
370
    13
100
AcDbLine
 10
-1456.631932124727
 20
-396.0000949550302
 30
0.0
 11
-1478.831932124727
 21
-396.0000949550302
 31
0.0
  0
LINE
  5
1FA
330
1F
100
AcDbEntity
  8
0-0_補助線
  6
Continuous
 62
    92
370
    13
100
AcDbLine
 10
-1478.831932124727
 20
-446.999991958203
 30
0.0
 11
-1590.431932124726
 21
-446.999991958203
 31
0.0
  0
LINE
  5
1FB
330
1F
100
AcDbEntity
  8
0-0_補助線
  6
Continuous
 62
    92
370
    13
100
AcDbLine
 10
-1456.631932124727
 20
-396.0000949550302
 30
0.0
 11
-1456.631932124727
 21
-447.000094955029
 31
0.0
  0
LINE
  5
1FC
330
1F
100
AcDbEntity
  8
0-0_補助線
  6
Continuous
 62
    92
370
    13
100
AcDbLine
 10
-1478.831932124727
 20
-446.999991958203
 30
0.0
 11
-1478.831932124727
 21
-396.0000949550302
 31
0.0
  0
LINE
  5
1FD
330
1F
100
AcDbEntity
  8
0-0_補助線
  6
Continuous
 62
    92
370
    13
100
AcDbLine
 10
-1590.431932124726
 20
-446.999991958203
 30
0.0
 11
-1590.431932124726
 21
-395.9999919582033
 31
0.0
  0
LINE
  5
1FE
330
1F
100
AcDbEntity
  8
0-0_補助線
  6
Continuous
 62
    92
370
    13
100
AcDbLine
 10
-1590.431932124726
 20
-395.9999919582033
 30
0.0
 11
-1612.631932124727
 21
-395.9999919582033
 31
0.0
  0
LINE
  5
1FF
330
1F
100
AcDbEntity
  8
0-0_補助線
  6
Continuous
 62
    92
370
    13
100
AcDbLine
 10
-1612.631932124727
 20
-395.9999919582033
 30
0.0
 11
-1612.631932124727
 21
-447.000094955029
 31
0.0
  0
ARC
  5
200
330
1F
100
AcDbEntity
  8
0-0_補助線
  6
Continuous
 62
     7
370
     9
100
AcDbCircle
 10
-1480.331932124728
 20
-477.9599919582025
 30
0.0
 40
7.199999999999999
100
AcDbArc
 50
342.6701739020166
 51
41.40962210927217
  0
LINE
  5
201
330
1F
100
AcDbEntity
  8
0-0_補助線
  6
Continuous
 62
     7
370
     9
100
AcDbLine
 10
-1472.531932124728
 20
-497.9999919582022
 30
0.0
 11
-1472.531932124728
 21
-473.9999919582015
 31
0.0
  0
LINE
  5
202
330
1F
100
AcDbEntity
  8
0-0_補助線
  6
Continuous
 62
     7
370
     9
100
AcDbLine
 10
-1610.531932124725
 20
-497.9999919582022
 30
0.0
 11
-1610.531932124725
 21
-485.399991958203
 31
0.0
  0
LINE
  5
203
330
1F
100
AcDbEntity
  8
0-0_補助線
  6
Continuous
 62
     7
370
     9
100
AcDbLine
 10
-1610.531932124725
 20
-485.399991958203
 30
0.0
 11
-1598.531932124726
 21
-485.399991958203
 31
0.0
  0
LINE
  5
204
330
1F
100
AcDbEntity
  8
0-0_補助線
  6
Continuous
 62
     7
370
     9
100
AcDbLine
 10
-1598.531932124726
 20
-485.399991958203
 30
0.0
 11
-1598.531932124726
 21
-478.1999919582028
 31
0.0
  0
LINE
  5
205
330
1F
100
AcDbEntity
  8
0-0_補助線
  6
Continuous
 62
     7
370
     9
100
AcDbLine
 10
-1598.531932124726
 20
-478.1999919582028
 30
0.0
 11
-1610.531932124725
 21
-478.1999919582028
 31
0.0
  0
LINE
  5
206
330
1F
100
AcDbEntity
  8
0-0_補助線
  6
Continuous
 62
     7
370
     9
100
AcDbLine
 10
-1610.531932124725
 20
-478.1999919582028
 30
0.0
 11
-1610.531932124725
 21
-461.999991958203
 31
0.0
  0
ARC
  5
207
330
1F
100
AcDbEntity
  8
0-0_補助線
  6
Continuous
 62
     7
370
     9
100
AcDbCircle
 10
-1617.731932124726
 20
-448.7999919582031
 30
0.0
 40
1.8
100
AcDbArc
 50
41.34777721969273
 51
180.0
  0
LINE
  5
208
330
1F
100
AcDbEntity
  8
0-0_補助線
  6
Continuous
 62
     7
370
     9
100
AcDbLine
 10
-1619.531932124727
 20
-500.9999919582025
 30
0.0
 11
-1619.531932124727
 21
-448.7999919582031
 31
0.0
  0
ARC
  5
209
330
1F
100
AcDbEntity
  8
0-0_補助線
  6
Continuous
 62
     7
370
     9
100
AcDbCircle
 10
-1613.531932124728
 20
-500.9999919582025
 30
0.0
 40
6.0
100
AcDbArc
 50
180.0
 51
270.0
  0
LINE
  5
20A
330
1F
100
AcDbEntity
  8
0-0_補助線
  6
Continuous
 62
     7
370
     9
100
AcDbLine
 10
-1444.872970215782
 20
-466.8316019219246
 30
0.0
 11
-1463.531932124728
 21
-503.9999919582015
 31
0.0
  0
LINE
  5
20B
330
1F
100
AcDbEntity
  8
0-0_補助線
  6
Continuous
 62
     7
370
     9
100
AcDbLine
 10
-1454.531932124727
 20
-451.1999919582017
 30
0.0
 11
-1463.531932124728
 21
-451.1999919582017
 31
0.0
  0
ARC
  5
20C
330
1F
100
AcDbEntity
  8
0-0_補助線
  6
Continuous
 62
     7
370
     9
100
AcDbCircle
 10
-1466.531932124727
 20
-503.9999919582015
 30
0.0
 40
3.0
100
AcDbArc
 50
270.0
 51
0.0
  0
LINE
  5
20D
330
1F
100
AcDbEntity
  8
0-0_補助線
  6
Continuous
 62
     7
370
     9
100
AcDbLine
 10
-1463.531932124728
 20
-461.9999919582013
 30
0.0
 11
-1467.731932124726
 21
-461.9999919582013
 31
0.0
  0
LINE
  5
20E
330
1F
100
AcDbEntity
  8
0-0_補助線
  6
Continuous
 62
     7
370
     9
100
AcDbLine
 10
-1472.531932124728
 20
-497.9999919582022
 30
0.0
 11
-1610.531932124725
 21
-497.9999919582022
 31
0.0
  0
LINE
  5
20F
330
1F
100
AcDbEntity
  8
0-0_補助線
  6
Continuous
 62
     7
370
     9
100
AcDbLine
 10
-1463.531932124728
 20
-503.9999919582015
 30
0.0
 11
-1463.531932124728
 21
-461.9999919582013
 31
0.0
  0
LINE
  5
210
330
1F
100
AcDbEntity
  8
0-0_補助線
  6
Continuous
 62
     7
370
     9
100
AcDbLine
 10
-1613.531932124728
 20
-506.9999919582029
 30
0.0
 11
-1466.531932124727
 21
-506.9999919582017
 31
0.0
  0
ARC
  5
211
330
1F
100
AcDbEntity
  8
0-0_補助線
  6
Continuous
 62
     7
370
     9
100
AcDbCircle
 10
-1454.531932124727
 20
-461.9999919582013
 30
0.0
 40
10.8
100
AcDbArc
 50
333.4248464959397
 51
89.99999999999994
  0
ARC
  5
212
330
1F
100
AcDbEntity
  8
0-0_補助線
  6
Continuous
 62
     7
370
     9
100
AcDbCircle
 10
-1454.531932124727
 20
-461.9999919582013
 30
0.0
 40
6.6
100
AcDbArc
 50
333.4248464959397
 51
89.99999999999994
  0
LINE
  5
213
330
1F
100
AcDbEntity
  8
0-0_補助線
  6
Continuous
 62
     7
370
     9
100
AcDbLine
 10
-1448.626539331827
 20
-464.9472667895587
 30
0.0
 11
-1463.531932124728
 21
-494.6385998698203
 31
0.0
  0
LINE
  5
214
330
1F
100
AcDbEntity
  8
0-0_補助線
  6
Continuous
 62
     7
370
     9
100
AcDbLine
 10
-1605.731932124726
 20
-446.999991958203
 30
0.0
 11
-1607.231932124728
 21
-446.999991958203
 31
0.0
  0
LINE
  5
215
330
1F
100
AcDbEntity
  8
0-0_補助線
  6
Continuous
 62
     7
370
     9
100
AcDbLine
 10
-1607.231932124728
 20
-446.999991958203
 30
0.0
 11
-1607.231932124728
 21
-461.999991958203
 31
0.0
  0
LINE
  5
216
330
1F
100
AcDbEntity
  8
0-0_補助線
  6
Continuous
 62
     7
370
     9
100
AcDbLine
 10
-1605.731932124726
 20
-446.999991958203
 30
0.0
 11
-1605.731932124726
 21
-419.9999919582028
 31
0.0
  0
ARC
  5
217
330
1F
100
AcDbEntity
  8
0-0_補助線
  6
Continuous
 62
     7
370
     9
100
AcDbCircle
 10
-1604.231932124728
 20
-473.399991958202
 30
0.0
 40
3.600000000000001
100
AcDbArc
 50
196.7900255983375
 51
270.0
  0
ARC
  5
218
330
1F
100
AcDbEntity
  8
0-0_補助線
  6
Continuous
 62
     7
370
     9
100
AcDbCircle
 10
-1604.231932124728
 20
-473.399991958202
 30
0.0
 40
3.600000000000001
100
AcDbArc
 50
270.0
 51
23.33765268897096
  0
LINE
  5
219
330
1F
100
AcDbEntity
  8
0-0_補助線
  6
Continuous
 62
     7
370
     9
100
AcDbLine
 10
-1602.722285829943
 20
-467.0046139622532
 30
0.0
 11
-1600.847707168011
 21
-472.1723839416343
 31
0.0
  0
ARC
  5
21A
330
1F
100
AcDbEntity
  8
0-0_補助線
  6
Continuous
 62
     7
370
     9
100
AcDbCircle
 10
-1606.031932124726
 20
-461.999991958203
 30
0.0
 40
5.999999999999659
100
AcDbArc
 50
303.4773790501727
 51
0.0000000000000127
  0
LINE
  5
21B
330
1F
100
AcDbEntity
  8
0-0_補助線
  6
Continuous
 62
     7
370
     9
100
AcDbLine
 10
-1605.731932124726
 20
-419.9999919582028
 30
0.0
 11
-1612.631932124727
 21
-419.9999919582028
 31
0.0
  0
LINE
  5
21C
330
1F
100
AcDbEntity
  8
0-0_補助線
  6
Continuous
 62
     7
370
     9
100
AcDbLine
 10
-1592.231932124728
 20
-419.9999919582028
 30
0.0
 11
-1596.731932124728
 21
-419.9999919582028
 31
0.0
  0
LINE
  5
21D
330
1F
100
AcDbEntity
  8
0-0_補助線
  6
Continuous
 62
     7
370
     9
100
AcDbLine
 10
-1596.731932124728
 20
-419.9999919582028
 30
0.0
 11
-1596.731932124728
 21
-446.999991958203
 31
0.0
  0
LINE
  5
21E
330
1F
100
AcDbEntity
  8
0-0_補助線
  6
Continuous
 62
     7
370
     9
100
AcDbLine
 10
-1592.231932124728
 20
-419.9999919582028
 30
0.0
 11
-1601.231932124727
 21
-401.999991958203
 31
0.0
  0
LINE
  5
21F
330
1F
100
AcDbEntity
  8
0-0_補助線
  6
Continuous
 62
     7
370
     9
100
AcDbLine
 10
-1601.231932124727
 20
-401.999991958203
 30
0.0
 11
-1612.631932124727
 21
-419.9999919582028
 31
0.0
  0
LINE
  5
220
330
1F
100
AcDbEntity
  8
0-0_補助線
  6
Continuous
 62
     7
370
     9
100
AcDbLine
 10
-1600.031932124728
 20
-458.9999919582015
 30
0.0
 11
-1600.031932124728
 21
-461.999991958203
 31
0.0
  0
ARC
  5
221
330
1F
100
AcDbEntity
  8
0-0_補助線
  6
Continuous
 62
     7
370
     9
100
AcDbCircle
 10
-1597.031932124727
 20
-458.9999919582015
 30
0.0
 40
3.0
100
AcDbArc
 50
90.0
 51
180.0
  0
ARC
  5
222
330
1F
100
AcDbEntity
  8
0-0_補助線
  6
Continuous
 62
     7
370
     9
100
AcDbCircle
 10
-1487.531932124726
 20
-458.9999919582015
 30
0.0
 40
3.0
100
AcDbArc
 50
0.0000000000000035
 51
90.0
  0
LINE
  5
223
330
1F
100
AcDbEntity
  8
0-0_補助線
  6
Continuous
 62
     7
370
     9
100
AcDbLine
 10
-1484.531932124727
 20
-458.9999919582015
 30
0.0
 11
-1484.531932124727
 21
-470.7599919582022
 31
0.0
  0
LINE
  5
224
330
1F
100
AcDbEntity
  8
0-0_補助線
  6
Continuous
 62
     7
370
     9
100
AcDbLine
 10
-1487.531932124726
 20
-455.9999919582025
 30
0.0
 11
-1597.031932124727
 21
-455.9999919582025
 31
0.0
  0
ARC
  5
225
330
1F
100
AcDbEntity
  8
0-0_補助線
  6
Continuous
 62
     7
370
     9
100
AcDbCircle
 10
-1477.331932124727
 20
-470.7599919582022
 30
0.0
 40
7.199999999999999
100
AcDbArc
 50
180.0
 51
237.2112623503457
  0
LINE
  5
226
330
1F
100
AcDbEntity
  8
0-0_補助線
  6
Continuous
 62
     7
370
     9
100
AcDbLine
 10
-1481.23104153583
 20
-476.8128380491116
 30
0.0
 11
-1486.141276689194
 21
-492.5489299439938
 31
0.0
  0
ARC
  5
227
330
1F
100
AcDbEntity
  8
0-0_補助線
  6
Continuous
 62
     7
370
     9
100
AcDbCircle
 10
-1482.131932124726
 20
-493.7999919582022
 30
0.0
 40
4.2
100
AcDbArc
 50
162.6701702617455
 51
342.6701720818837
  0
LINE
  5
228
330
1F
100
AcDbEntity
  8
0-0_補助線
  6
Continuous
 62
     7
370
     9
100
AcDbLine
 10
-1473.458769877954
 20
-480.1046692601609
 30
0.0
 11
-1478.122587480778
 21
-495.0510537176784
 31
0.0
  0
ARC
  5
229
330
1F
100
AcDbEntity
  8
0-0_補助線
  6
Continuous
 62
     7
370
     9
100
AcDbCircle
 10
-1471.331932124727
 20
-470.0227380250071
 30
0.0
 40
4.800000000000001
100
AcDbArc
 50
180.0
 51
221.40962210927
  0
LINE
  5
22A
330
1F
100
AcDbEntity
  8
0-0_補助線
  6
Continuous
 62
     7
370
     9
100
AcDbLine
 10
-1476.131932124728
 20
-455.9999919582025
 30
0.0
 11
-1476.131932124728
 21
-470.0227380250071
 31
0.0
  0
LINE
  5
22B
330
1F
100
AcDbEntity
  8
0-0_補助線
  6
Continuous
 62
     7
370
     9
100
AcDbLine
 10
-1469.531932124727
 20
-455.9999919582025
 30
0.0
 11
-1476.131932124728
 21
-455.9999919582025
 31
0.0
  0
LINE
  5
22C
330
1F
100
AcDbEntity
  8
0-0_補助線
  6
Continuous
 62
     7
370
     9
100
AcDbLine
 10
-1469.531932124727
 20
-451.1999919582017
 30
0.0
 11
-1469.531932124727
 21
-455.9999919582025
 31
0.0
  0
LINE
  5
22D
330
1F
100
AcDbEntity
  8
0-0_補助線
  6
Continuous
 62
     7
370
     9
100
AcDbLine
 10
-1463.531932124728
 20
-451.1999919582017
 30
0.0
 11
-1469.531932124727
 21
-451.1999919582017
 31
0.0
  0
LINE
  5
22E
330
1F
100
AcDbEntity
  8
0-0_補助線
  6
Continuous
 62
     7
370
     9
100
AcDbLine
 10
-1463.531932124728
 20
-451.1999919582017
 30
0.0
 11
-1463.531932124728
 21
-419.999991958202
 31
0.0
  0
LINE
  5
22F
330
1F
100
AcDbEntity
  8
0-0_補助線
  6
Continuous
 62
     7
370
     9
100
AcDbLine
 10
-1472.531932124728
 20
-446.9999919582013
 30
0.0
 11
-1596.731932124728
 21
-446.999991958203
 31
0.0
  0
LINE
  5
230
330
1F
100
AcDbEntity
  8
0-0_補助線
  6
Continuous
 62
     7
370
     9
100
AcDbLine
 10
-1468.031932124725
 20
-401.9999919582013
 30
0.0
 11
-1456.631932124727
 21
-419.999991958202
 31
0.0
  0
LINE
  5
231
330
1F
100
AcDbEntity
  8
0-0_補助線
  6
Continuous
 62
     7
370
     9
100
AcDbLine
 10
-1477.031932124727
 20
-419.999991958202
 30
0.0
 11
-1468.031932124725
 21
-401.9999919582013
 31
0.0
  0
LINE
  5
232
330
1F
100
AcDbEntity
  8
0-0_補助線
  6
Continuous
 62
     7
370
     9
100
AcDbLine
 10
-1472.531932124728
 20
-419.999991958202
 30
0.0
 11
-1472.531932124728
 21
-446.9999919582013
 31
0.0
  0
LINE
  5
233
330
1F
100
AcDbEntity
  8
0-0_補助線
  6
Continuous
 62
     7
370
     9
100
AcDbLine
 10
-1477.031932124727
 20
-419.999991958202
 30
0.0
 11
-1472.531932124728
 21
-419.999991958202
 31
0.0
  0
LINE
  5
234
330
1F
100
AcDbEntity
  8
0-0_補助線
  6
Continuous
 62
     7
370
     9
100
AcDbLine
 10
-1463.531932124728
 20
-419.999991958202
 30
0.0
 11
-1456.631932124727
 21
-419.999991958202
 31
0.0
  0
LINE
  5
235
330
1F
100
AcDbEntity
  8
0-0_補助線
  6
Continuous
 62
     7
370
     9
100
AcDbLine
 10
-1454.531932124727
 20
-455.3999919582022
 30
0.0
 11
-1469.531932124727
 21
-455.3999919582022
 31
0.0
  0
ARC
  5
236
330
1F
100
AcDbEntity
  8
0-0_補助線
  6
Continuous
 62
     7
370
     9
100
AcDbCircle
 10
-1472.829407878231
 20
-470.9999919582025
 30
0.0
 40
3.0
100
AcDbArc
 50
143.6152131060223
 51
270.0
  0
LINE
  5
237
330
1F
100
AcDbEntity
  8
0-0_補助線
  6
Continuous
 62
     7
370
     9
100
AcDbLine
 10
-1467.731932124726
 20
-461.9999919582013
 30
0.0
 11
-1475.24456187677
 21
-469.2203765044185
 31
0.0
  0
LINE
  5
238
330
1F
100
AcDbEntity
  8
0-0_補助線
  6
Continuous
 62
     7
370
     9
100
AcDbLine
 10
-1472.829407878231
 20
-473.9999919582015
 30
0.0
 11
-1472.531932124728
 21
-473.9999919582015
 31
0.0
  0
LINE
  5
239
330
1F
100
AcDbEntity
  8
0-0_補助線
  6
Continuous
 62
     7
370
     9
100
AcDbLine
 10
-1609.031932124727
 20
-461.999991958203
 30
0.0
 11
-1610.531932124725
 21
-461.999991958203
 31
0.0
  0
ARC
  5
23A
330
1F
100
AcDbEntity
  8
0-0_補助線
  6
Continuous
 62
     7
370
     9
100
AcDbCircle
 10
-1609.031932124727
 20
-460.1999919582029
 30
0.0
 40
1.8
100
AcDbArc
 50
270.0
 51
41.34777721969354
  0
LINE
  5
23B
330
1F
100
AcDbEntity
  8
0-0_補助線
  6
Continuous
 62
     7
370
     9
100
AcDbLine
 10
-1616.380647794268
 20
-447.6108617473971
 30
0.0
 11
-1607.680647794267
 21
-459.0108617473969
 31
0.0
  0
LINE
  5
23C
330
1F
100
AcDbEntity
  8
0-0_補助線
  6
Continuous
 62
     7
370
     9
100
AcDbLine
 10
-1608.731932124727
 20
-461.999991958203
 30
0.0
 11
-1607.231932124728
 21
-461.999991958203
 31
0.0
  0
LINE
  5
23D
330
1F
100
AcDbEntity
  8
0-0_補助線
  6
Continuous
 62
     7
370
     9
100
AcDbLine
 10
-1610.455197763752
 20
-464.3199492039027
 30
0.0
 11
-1607.616157076905
 21
-474.6275999872781
 31
0.0
  0
ARC
  5
23E
330
1F
100
AcDbEntity
  8
0-0_補助線
  6
Continuous
 62
     7
370
     9
100
AcDbCircle
 10
-1608.731932124727
 20
-463.7999919582031
 30
0.0
 40
1.8
100
AcDbArc
 50
90.0
 51
196.7900255983358
  0
LINE
  5
23F
330
1F
100
AcDbEntity
  8
0-0_補助線
  6
Continuous
 62
   120
370
     5
100
AcDbLine
 10
-1824.478940512052
 20
-444.0004268336911
 30
0.0
 11
-1701.478505636558
 21
-320.9999919581984
 31
0.0
  0
LINE
  5
240
330
1F
100
AcDbEntity
  8
0-0_補助線
  6
Continuous
 62
   120
370
     5
100
AcDbLine
 10
-1765.081970892404
 20
-444.0004268336911
 30
0.0
 11
-1642.081536016928
 21
-320.9999919582138
 31
0.0
  0
LINE
  5
241
330
1F
100
AcDbEntity
  8
0-0_補助線
  6
Continuous
 62
   120
370
     5
100
AcDbLine
 10
-1705.685001272755
 20
-444.0004268336911
 30
0.0
 11
-1582.68456639727
 21
-320.9999919582027
 31
0.0
  0
LINE
  5
242
330
1F
100
AcDbEntity
  8
0-0_補助線
  6
Continuous
 62
   120
370
     5
100
AcDbLine
 10
-1586.891062033406
 20
-444.0004268336911
 30
0.0
 11
-1463.890627157921
 21
-320.999991958207
 31
0.0
  0
LINE
  5
243
330
1F
100
AcDbEntity
  8
0-0_補助線
  6
Continuous
 62
   120
370
     5
100
AcDbLine
 10
-1527.494092413705
 20
-444.0004268336911
 30
0.0
 11
-1404.493657538216
 21
-320.9999919582002
 31
0.0
  0
LINE
  5
244
330
1F
100
AcDbEntity
  8
0-0_補助線
  6
Continuous
 62
   120
370
     5
100
AcDbLine
 10
-1408.700153174356
 20
-444.0004268336911
 30
0.0
 11
-1285.699718298874
 21
-320.999991958207
 31
0.0
  0
LINE
  5
245
330
1F
100
AcDbEntity
  8
0-0_補助線
  6
Continuous
 62
   120
370
     5
100
AcDbLine
 10
-1646.288031653055
 20
-444.0004268336911
 30
0.0
 11
-1612.631932124727
 21
-410.3443273053628
 31
0.0
  0
LINE
  5
246
330
1F
100
AcDbEntity
  8
0-0_補助線
  6
Continuous
 62
   120
370
     5
100
AcDbLine
 10
-1598.287596777568
 20
-395.9999919582037
 30
0.0
 11
-1523.287596777558
 21
-320.999991958195
 31
0.0
  0
LINE
  5
247
330
1F
100
AcDbEntity
  8
0-0_補助線
  6
Continuous
 62
   120
370
     5
100
AcDbLine
 10
-1813.756058553828
 20
-373.8805752557639
 30
0.0
 11
-1760.875475256274
 21
-320.9999919582112
 31
0.0
  0
LINE
  5
248
330
1F
100
AcDbEntity
  8
0-0_補助線
  6
Continuous
 62
    92
370
    13
100
AcDbLine
 10
-1819.756058553828
 20
-404.9999919582013
 30
0.0
 11
-1879.756058553828
 21
-404.9999919582013
 31
0.0
  0
LINE
  5
249
330
1F
100
AcDbEntity
  8
0-0_補助線
  6
Continuous
 62
    92
370
    13
100
AcDbLine
 10
-1819.756058553828
 20
-350.9999919582027
 30
0.0
 11
-1819.756058553828
 21
-404.9999919582013
 31
0.0
  0
LINE
  5
24A
330
1F
100
AcDbEntity
  8
0-0_補助線
  6
Continuous
 62
    92
370
    13
100
AcDbLine
 10
-1819.756058553828
 20
-350.9999919582027
 30
0.0
 11
-1879.756058553828
 21
-350.9999919582027
 31
0.0
  0
LINE
  5
24B
330
1F
100
AcDbEntity
  8
0-0_補助線
  6
Continuous
 62
   120
370
     5
100
AcDbLine
 10
-1856.272444875981
 20
-350.9999919582025
 30
0.0
 11
-1826.272444875989
 21
-320.9999919582112
 31
0.0
  0
LINE
  5
24C
330
1F
100
AcDbEntity
  8
0-0_補助線
  6
Continuous
 62
   120
370
     5
100
AcDbLine
 10
-1876.756493429317
 20
-436.881010131253
 30
0.0
 11
-1844.875475256265
 21
-404.9999919582031
 31
0.0
  0
LINE
  5
24D
330
1F
100
AcDbEntity
  8
0-0_補助線
  6
Continuous
 62
    92
370
    13
100
AcDbLine
 10
-1876.756493429317
 20
-404.9999919582013
 30
0.0
 11
-1876.756493429317
 21
-444.0004268336911
 31
0.0
  0
LINE
  5
24E
330
1F
100
AcDbEntity
  8
0-0_補助線
  6
Continuous
 62
    92
370
    13
100
AcDbLine
 10
-1876.756493429317
 20
-444.0004268336911
 30
0.0
 11
-1612.631932124727
 21
-444.0004268336911
 31
0.0
  0
LINE
  5
24F
330
1F
100
AcDbEntity
  8
0-0_補助線
  6
Continuous
 62
    92
370
    13
100
AcDbLine
 10
-1879.756058553828
 20
-446.9999919582013
 30
0.0
 11
-1612.631932124727
 21
-446.9999919582013
 31
0.0
  0
LINE
  5
250
330
1F
100
AcDbEntity
  8
0-0_補助線
  6
Continuous
 62
    92
370
    13
100
AcDbLine
 10
-1879.756058553828
 20
-404.9999919582013
 30
0.0
 11
-1879.756058553828
 21
-446.9999919582013
 31
0.0
  0
LINE
  5
251
330
1F
100
AcDbEntity
  8
0-0_補助線
  6
Continuous
 62
    92
370
    13
100
AcDbLine
 10
-1879.756058553828
 20
-320.9999919582027
 30
0.0
 11
-1879.756058553828
 21
-350.9999919582027
 31
0.0
  0
LINE
  5
252
330
1F
100
AcDbEntity
  8
0-0_補助線
  6
Continuous
 62
    92
370
    13
100
AcDbLine
 10
-1249.755646566526
 20
-350.9999919582027
 30
0.0
 11
-1249.755646566526
 21
-404.9999919582013
 31
0.0
  0
LINE
  5
253
330
1F
100
AcDbEntity
  8
0-0_補助線
  6
Continuous
 62
    92
370
    13
100
AcDbLine
 10
-1189.75605855383
 20
-404.9999919582013
 30
0.0
 11
-1249.755646566526
 21
-404.9999919582013
 31
0.0
  0
LINE
  5
254
330
1F
100
AcDbEntity
  8
0-0_補助線
  6
Continuous
 62
    92
370
    13
100
AcDbLine
 10
-1249.755646566526
 20
-350.9999919582027
 30
0.0
 11
-1189.75605855383
 21
-350.9999919582027
 31
0.0
  0
LINE
  5
255
330
1F
100
AcDbEntity
  8
0-0_補助線
  6
Continuous
 62
    92
370
    13
100
AcDbLine
 10
-1192.756218771113
 20
-444.0004268336911
 30
0.0
 11
-1456.631932124727
 21
-444.0004268336911
 31
0.0
  0
LINE
  5
256
330
1F
100
AcDbEntity
  8
0-0_補助線
  6
Continuous
 62
    92
370
    13
100
AcDbLine
 10
-1192.756218771113
 20
-444.0004268336911
 30
0.0
 11
-1192.756218771113
 21
-404.9999919582013
 31
0.0
  0
LINE
  5
257
330
1F
100
AcDbEntity
  8
0-0_補助線
  6
Continuous
 62
    92
370
    13
100
AcDbLine
 10
-1189.75605855383
 20
-446.9999919582013
 30
0.0
 11
-1189.75605855383
 21
-404.9999919582013
 31
0.0
  0
LINE
  5
258
330
1F
100
AcDbEntity
  8
0-0_補助線
  6
Continuous
 62
    92
370
    13
100
AcDbLine
 10
-1189.75605855383
 20
-446.9999919582013
 30
0.0
 11
-1456.631932124727
 21
-446.9999919582013
 31
0.0
  0
LINE
  5
259
330
1F
100
AcDbEntity
  8
0-0_補助線
  6
Continuous
 62
    92
370
    13
100
AcDbLine
 10
-1189.75605855383
 20
-320.9999919582027
 30
0.0
 11
-1879.756058553828
 21
-320.9999919582027
 31
0.0
  0
LINE
  5
25A
330
1F
100
AcDbEntity
  8
0-0_補助線
  6
Continuous
 62
    92
370
    13
100
AcDbLine
 10
-1189.75605855383
 20
-320.9999919582027
 30
0.0
 11
-1189.75605855383
 21
-350.9999919582027
 31
0.0
  0
LINE
  5
25B
330
1F
100
AcDbEntity
  8
0-0_補助線
  6
Continuous
 62
   120
370
     5
100
AcDbLine
 10
-1349.303183554709
 20
-444.0004268336911
 30
0.0
 11
-1226.302748679223
 21
-320.9999919582027
 31
0.0
  0
LINE
  5
25C
330
1F
100
AcDbEntity
  8
0-0_補助線
  6
Continuous
 62
   120
370
     5
100
AcDbLine
 10
-1230.509244315359
 20
-444.0004268336911
 30
0.0
 11
-1192.756218771113
 21
-406.2474012894438
 31
0.0
  0
LWPOLYLINE
  5
25D
330
1F
100
AcDbEntity
  8
0-0_補助線
  6
Continuous
 62
     7
370
     9
100
AcDbPolyline
 90
        4
 70
     1
 43
3.0
 10
-1878.256058553828
 20
-798.7161272645604
 42
0.4142135623731
 10
-1879.756058553828
 20
-797.2161272645604
 42
0.4142135623731
 10
-1881.256058553828
 20
-798.7161272645604
 42
0.4142135623731
 10
-1879.756058553828
 20
-800.2161272645604
 42
0.4142135623731
  0
LINE
  5
25E
330
1F
100
AcDbEntity
  8
0-0_補助線
  6
Continuous
 62
   120
370
     5
100
AcDbLine
 10
-1879.756058553828
 20
-798.7161272645604
 30
0.0
 11
-1879.756058553828
 21
-599.2584173882843
 31
0.0
  0
LINE
  5
25F
330
1F
100
AcDbEntity
  8
0-0_補助線
  6
Continuous
 62
   120
370
     5
100
AcDbLine
 10
-1879.756058553828
 20
-798.7161272645604
 30
0.0
 11
-1189.75605855383
 21
-798.7161272645604
 31
0.0
  0
LWPOLYLINE
  5
260
330
1F
100
AcDbEntity
  8
0-0_補助線
  6
Continuous
 62
     7
370
     9
100
AcDbPolyline
 90
        4
 70
     1
 43
3.0
 10
-1188.25605855383
 20
-798.7161272645604
 42
0.4142135623731
 10
-1189.75605855383
 20
-797.2161272645604
 42
0.4142135623731
 10
-1191.256058553829
 20
-798.7161272645604
 42
0.4142135623731
 10
-1189.75605855383
 20
-800.2161272645604
 42
0.4142135623731
  0
LINE
  5
261
330
1F
100
AcDbEntity
  8
0-0_補助線
  6
Continuous
 62
   120
370
     5
100
AcDbLine
 10
-1189.75605855383
 20
-798.7161272645604
 30
0.0
 11
-1189.75605855383
 21
-599.2584173882843
 31
0.0
  0
MTEXT
  5
262
330
1F
100
AcDbEntity
  8
0-0_補助線
  6
Continuous
 62
     7
370
   211
100
AcDbMText
 10
-1632.256058553829
 20
-794.1861272645605
 30
0.0
 40
99.06
 41
195.0
 46
0.0
 71
     7
 72
     1
  1
{\fＭＳ ゴシック|b0|i0|c128|p49;115}
 73
     1
 44
1.0
  0
MTEXT
  5
263
330
1F
100
AcDbEntity
  8
0-B_寸法
  6
Continuous
 62
     7
370
   211
100
AcDbMText
 10
-2125.225075582635
 20
-325.0327247561731
 30
0.0
 40
91.44000000000001
 41
60.0
 46
0.0
 71
     7
 72
     1
  1
{\fＭＳ ゴシック|b0|i0|c128|p49;5}
 11
6.123031769111886E-17
 21
1.0
 31
0.0
 73
     1
 44
1.0
  0
LINE
  5
264
330
1F
100
AcDbEntity
  8
0-4_枠
  6
Continuous
 62
   120
370
     5
100
AcDbLine
 10
-1873.756058553832
 20
-446.9999919582031
 30
0.0
 11
-1873.756058553832
 21
-1737.000197951857
 31
0.0
  0
LINE
  5
265
330
1F
100
AcDbEntity
  8
0-4_枠
  6
Continuous
 62
   120
370
     5
100
AcDbLine
 10
-1195.756058553831
 20
-446.9999919582031
 30
0.0
 11
-1195.756058553831
 21
-1737.000197951857
 31
0.0
  0
LWPOLYLINE
  5
266
330
1F
100
AcDbEntity
  8
0-B_寸法
  6
Continuous
 62
     7
370
     9
100
AcDbPolyline
 90
        4
 70
     1
 43
3.0
 10
-618.5818283164182
 20
-446.9999919582031
 42
0.4142135623731
 10
-620.0818283164182
 20
-445.4999919582031
 42
0.4142135623731
 10
-621.5818283164182
 20
-446.9999919582031
 42
0.4142135623731
 10
-620.0818283164182
 20
-448.4999919582031
 42
0.4142135623731
  0
LINE
  5
267
330
1F
100
AcDbEntity
  8
0-B_寸法
  6
Continuous
 62
   120
370
     5
100
AcDbLine
 10
-620.0818283164182
 20
-446.9999919582031
 30
0.0
 11
-620.0818283164182
 21
-3087.000403945509
 31
0.0
  0
LINE
  5
268
330
1F
100
AcDbEntity
  8
0-B_寸法
  6
Continuous
 62
   120
370
     5
100
AcDbLine
 10
-410.0818283164182
 20
-446.9999919582031
 30
0.0
 11
-830.0818283164186
 21
-446.9999919582031
 31
0.0
  0
LWPOLYLINE
  5
269
330
1F
100
AcDbEntity
  8
0-B_寸法
  6
Continuous
 62
     7
370
     9
100
AcDbPolyline
 90
        4
 70
     1
 43
3.0
 10
-408.5818283164182
 20
-446.9999919582031
 42
0.4142135623731
 10
-410.0818283164182
 20
-445.4999919582031
 42
0.4142135623731
 10
-411.5818283164182
 20
-446.9999919582031
 42
0.4142135623731
 10
-410.0818283164182
 20
-448.4999919582031
 42
0.4142135623731
  0
MTEXT
  5
26A
330
1F
100
AcDbEntity
  8
0-B_寸法
  6
Continuous
 62
     7
370
     0
100
AcDbMText
 10
-623.698360994778
 20
-565.4983099805248
 30
0.0
 40
91.44
 41
60.0
 46
0.0
 71
     7
 72
     1
  1
{\fＭＳ ゴシック|b0|i0|c128|p49;6}
 11
6.123031769111886E-17
 21
1.0
 31
0.0
 73
     1
 44
1.0
  0
MTEXT
  5
26B
330
1F
100
AcDbEntity
  8
0-B_寸法
  6
Continuous
 62
     7
370
   211
100
AcDbMText
 10
-425.0818283164182
 20
-456.7223970811361
 30
0.0
 40
97.15499999999999
 41
127.5
 46
0.0
 71
     7
 72
     1
  1
{\fＭＳ ゴシック|b0|i0|c128|p49;21}
 11
6.123031769111886E-17
 21
1.0
 31
0.0
 73
     1
 44
1.0
  0
MTEXT
  5
26C
330
1F
100
AcDbEntity
  8
0-B_寸法
  6
Continuous
 62
     7
370
   211
100
AcDbMText
 10
-425.0818283164182
 20
-2173.584846403228
 30
0.0
 40
101.8309090909091
 41
735.0
 46
0.0
 71
     7
 72
     1
  1
{\fＭＳ ゴシック|b0|i0|c128|p49;枠内＝2,014}
 11
6.123031769111886E-17
 21
1.0
 31
0.0
 73
     1
 44
1.0
  0
LINE
  5
26D
330
1F
100
AcDbEntity
  8
0-B_寸法
  6
Continuous
 62
   120
370
     5
100
AcDbLine
 10
-1358.582995699059
 20
2129.999683277028
 30
0.0
 11
-1358.582995699059
 21
2345.999683277027
 31
0.0
  0
LWPOLYLINE
  5
26E
330
1F
100
AcDbEntity
  8
0-B_寸法
  6
Continuous
 62
     7
370
     9
100
AcDbPolyline
 90
        4
 70
     1
 43
3.0
 10
-1357.082995699059
 20
2129.999683277028
 42
0.4142135623731
 10
-1358.582995699059
 20
2131.499683277028
 42
0.4142135623731
 10
-1360.082995699059
 20
2129.999683277028
 42
0.4142135623731
 10
-1358.582995699059
 20
2128.499683277028
 42
0.4142135623731
  0
LWPOLYLINE
  5
26F
330
1F
100
AcDbEntity
  8
0-B_寸法
  6
Continuous
 62
     7
370
     9
100
AcDbPolyline
 90
        4
 70
     1
 43
3.0
 10
-1357.082995699059
 20
2345.999683277027
 42
0.4142135623731
 10
-1358.582995699059
 20
2347.499683277027
 42
0.4142135623731
 10
-1360.082995699059
 20
2345.999683277027
 42
0.4142135623731
 10
-1358.582995699059
 20
2344.499683277027
 42
0.4142135623731
  0
MTEXT
  5
270
330
1F
100
AcDbEntity
  8
0-B_寸法
  6
Continuous
 62
     7
370
   211
100
AcDbMText
 10
-1373.582995699059
 20
2162.827183277027
 30
0.0
 40
97.15499999999999
 41
127.5
 46
0.0
 71
     7
 72
     1
  1
{\fＭＳ ゴシック|b0|i0|c128|p49;36}
 11
6.123031769111886E-17
 21
1.0
 31
0.0
 73
     1
 44
1.0
  0
LINE
  5
271
330
1F
100
AcDbEntity
  8
0-B_寸法
  6
Continuous
 62
   120
370
     5
100
AcDbLine
 10
-1058.582995699059
 20
2237.999683277027
 30
0.0
 11
-1058.582995699059
 21
2438.999683277028
 31
0.0
  0
LWPOLYLINE
  5
272
330
1F
100
AcDbEntity
  8
0-B_寸法
  6
Continuous
 62
     7
370
     9
100
AcDbPolyline
 90
        4
 70
     1
 43
3.0
 10
-1057.082995699059
 20
2237.999683277027
 42
0.4142135623731
 10
-1058.582995699059
 20
2239.499683277027
 42
0.4142135623731
 10
-1060.082995699059
 20
2237.999683277027
 42
0.4142135623731
 10
-1058.582995699059
 20
2236.499683277028
 42
0.4142135623731
  0
LWPOLYLINE
  5
273
330
1F
100
AcDbEntity
  8
0-B_寸法
  6
Continuous
 62
     7
370
     9
100
AcDbPolyline
 90
        4
 70
     1
 43
3.0
 10
-1057.082995699059
 20
2438.999683277028
 42
0.4142135623731
 10
-1058.582995699059
 20
2440.499683277027
 42
0.4142135623731
 10
-1060.082995699059
 20
2438.999683277028
 42
0.4142135623731
 10
-1058.582995699059
 20
2437.499683277028
 42
0.4142135623731
  0
MTEXT
  5
274
330
1F
100
AcDbEntity
  8
0-B_寸法
  6
Continuous
 62
     7
370
   211
100
AcDbMText
 10
-1073.582995699059
 20
2197.255933277027
 30
0.0
 40
100.0125
 41
262.5
 46
0.0
 71
     7
 72
     1
  1
{\fＭＳ ゴシック|b0|i0|c128|p49;33.5}
 11
6.123031769111886E-17
 21
1.0
 31
0.0
 73
     1
 44
1.0
  0
LINE
  5
275
330
1F
100
AcDbEntity
  8
0-B_寸法
  6
Continuous
 62
   120
370
     5
100
AcDbLine
 10
-1534.75605855383
 20
-1399.146867228523
 30
0.0
 11
-1333.756058553832
 21
-1399.146867228523
 31
0.0
  0
LWPOLYLINE
  5
276
330
1F
100
AcDbEntity
  8
0-B_寸法
  6
Continuous
 62
     7
370
     9
100
AcDbPolyline
 90
        4
 70
     1
 43
3.0
 10
-1533.25605855383
 20
-1399.146867228523
 42
0.4142135623731
 10
-1534.75605855383
 20
-1397.646867228523
 42
0.4142135623731
 10
-1536.256058553829
 20
-1399.146867228523
 42
0.4142135623731
 10
-1534.75605855383
 20
-1400.646867228523
 42
0.4142135623731
  0
LWPOLYLINE
  5
277
330
1F
100
AcDbEntity
  8
0-B_寸法
  6
Continuous
 62
     7
370
     9
100
AcDbPolyline
 90
        4
 70
     1
 43
3.0
 10
-1332.256058553832
 20
-1399.146867228523
 42
0.4142135623731
 10
-1333.756058553832
 20
-1397.646867228523
 42
0.4142135623731
 10
-1335.256058553832
 20
-1399.146867228523
 42
0.4142135623731
 10
-1333.756058553832
 20
-1400.646867228523
 42
0.4142135623731
  0
MTEXT
  5
278
330
1F
100
AcDbEntity
  8
0-B_寸法
  6
Continuous
 62
     7
370
   211
100
AcDbMText
 10
-1565.506058553831
 20
-1394.140617228523
 30
0.0
 40
100.0125
 41
262.5
 46
0.0
 71
     7
 72
     1
  1
{\fＭＳ ゴシック|b0|i0|c128|p49;33.5}
 73
     1
 44
1.0
  0
MTEXT
  5
279
330
1F
100
AcDbEntity
  8
F-A_文字
  6
Continuous
 62
     7
370
     0
100
AcDbMText
 10
4889.917891251784
 20
-3945.570773120548
 30
0.0
 40
78.86699999999999
 41
517.5
 46
0.0
 71
     7
 72
     1
  1
{\fＭＳ ゴシック|b0|i0|c128|p49;2022.04.01}
 73
     1
 44
1.0
  0
LINE
  5
27A
330
1F
100
AcDbEntity
  8
0-1_通り芯
  6
JWW_CENTER1
 62
   120
370
     5
100
AcDbLine
 10
2001.038803012593
 20
2237.999683277027
 30
0.0
 11
-1981.201717325959
 21
2237.999683277027
 31
0.0
  0
LINE
  5
27B
330
1F
100
AcDbEntity
  8
0-1_通り芯
  6
JWW_CENTER1
 62
   120
370
     5
100
AcDbLine
 10
-1534.75605855383
 20
-8.999991958202713
 30
0.0
 11
-1534.75605855383
 21
-3346.451439426648
 31
0.0
  0
LINE
  5
27C
330
1F
100
AcDbEntity
  8
0-1_通り芯
  6
JWW_CENTER1
 62
   120
370
     5
100
AcDbLine
 10
-1333.756058553832
 20
-446.9999919582031
 30
0.0
 11
-1333.756058553832
 21
-3087.000403945509
 31
0.0
  0
ENDSEC
  0
SECTION
  2
OBJECTS
  0
DICTIONARY
  5
C
330
0
100
AcDbDictionary
281
     1
  3
ACAD_GROUP
350
D
  3
ACAD_LAYOUT
350
1A
  3
ACAD_MATERIAL
350
3B
  3
ACAD_MLEADERSTYLE
350
29B
  3
ACAD_MLINESTYLE
350
17
  3
ACAD_PLOTSETTINGS
350
19
  3
ACAD_PLOTSTYLENAME
350
E
  3
ACAD_TABLESTYLE
350
29A
  3
ACAD_VISUALSTYLE
350
2A
  0
DICTIONARY
  5
D
102
{ACAD_REACTORS
330
C
102
}
330
C
100
AcDbDictionary
281
     1
  0
DICTIONARY
  5
1A
102
{ACAD_REACTORS
330
C
102
}
330
C
100
AcDbDictionary
281
     1
  3
Layout1
350
1E
  3
Layout2
350
26
  3
Model
350
22
  0
DICTIONARY
  5
3B
102
{ACAD_REACTORS
330
C
102
}
330
C
100
AcDbDictionary
281
     1
  3
ByBlock
350
3D
  3
ByLayer
350
3C
  3
Global
350
3E
  0
DICTIONARY
  5
29B
102
{ACAD_REACTORS
330
C
102
}
330
C
100
AcDbDictionary
281
     1
  0
DICTIONARY
  5
17
102
{ACAD_REACTORS
330
C
102
}
330
C
100
AcDbDictionary
281
     1
  3
Standard
350
18
  0
DICTIONARY
  5
19
102
{ACAD_REACTORS
330
C
102
}
330
C
100
AcDbDictionary
281
     1
  0
ACDBDICTIONARYWDFLT
  5
E
102
{ACAD_REACTORS
330
C
102
}
330
C
100
AcDbDictionary
281
     1
  3
Normal
350
F
100
AcDbDictionaryWithDefault
340
F
  0
DICTIONARY
  5
29A
102
{ACAD_REACTORS
330
C
102
}
330
C
100
AcDbDictionary
281
     1
  0
DICTIONARY
  5
2A
102
{ACAD_REACTORS
330
C
102
}
330
C
100
AcDbDictionary
281
     1
  3
2dWireframe
350
2F
  3
3D Hidden
350
31
  3
3dWireframe
350
30
  3
Basic
350
32
  3
Brighten
350
36
  3
ColorChange
350
3A
  3
Conceptual
350
34
  3
Dim
350
35
  3
Facepattern
350
39
  3
Flat
350
2B
  3
FlatWithEdges
350
2C
  3
Gouraud
350
2D
  3
GouraudWithEdges
350
2E
  3
Linepattern
350
38
  3
Realistic
350
33
  3
Thicken
350
37
  0
LAYOUT
  5
1E
102
{ACAD_REACTORS
330
1A
102
}
330
1A
100
AcDbPlotSettings
  1

  2
none_device
  4

  6

 40
0.0
 41
0.0
 42
0.0
 43
0.0
 44
0.0
 45
0.0
 46
0.0
 47
0.0
 48
0.0
 49
0.0
140
0.0
141
0.0
142
1.0
143
1.0
 70
   688
 72
     0
 73
     0
 74
     5
  7

 75
    16
 76
     0
 77
     5
 78
   300
147
1.0
148
0.0
149
0.0
100
AcDbLayout
  1
Layout1
 70
     1
 71
     1
 10
0.0
 20
0.0
 11
420.0
 21
297.0
 12
0.0
 22
0.0
 32
0.0
 14
1.000000000000000E+20
 24
1.000000000000000E+20
 34
1.000000000000000E+20
 15
-1.000000000000000E+20
 25
-1.000000000000000E+20
 35
-1.000000000000000E+20
146
0.0
 13
0.0
 23
0.0
 33
0.0
 16
1.0
 26
0.0
 36
0.0
 17
0.0
 27
1.0
 37
0.0
 76
     0
330
1B
  0
LAYOUT
  5
26
102
{ACAD_REACTORS
330
1A
102
}
330
1A
100
AcDbPlotSettings
  1

  2
none_device
  4

  6

 40
0.0
 41
0.0
 42
0.0
 43
0.0
 44
0.0
 45
0.0
 46
0.0
 47
0.0
 48
0.0
 49
0.0
140
0.0
141
0.0
142
1.0
143
1.0
 70
   688
 72
     0
 73
     0
 74
     5
  7

 75
    16
 76
     0
 77
     5
 78
   300
147
1.0
148
0.0
149
0.0
100
AcDbLayout
  1
Layout2
 70
     1
 71
     2
 10
0.0
 20
0.0
 11
0.0
 21
0.0
 12
0.0
 22
0.0
 32
0.0
 14
0.0
 24
0.0
 34
0.0
 15
0.0
 25
0.0
 35
0.0
146
0.0
 13
0.0
 23
0.0
 33
0.0
 16
1.0
 26
0.0
 36
0.0
 17
0.0
 27
1.0
 37
0.0
 76
     0
330
23
  0
LAYOUT
  5
22
102
{ACAD_REACTORS
330
1A
102
}
330
1A
100
AcDbPlotSettings
  1

  2
none_device
  4

  6

 40
0.0
 41
0.0
 42
0.0
 43
0.0
 44
0.0
 45
0.0
 46
0.0
 47
0.0
 48
0.0
 49
0.0
140
0.0
141
0.0
142
1.0
143
1.0
 70
  1712
 72
     0
 73
     0
 74
     0
  7

 75
     0
 76
     0
 77
     5
 78
   300
147
1.0
148
0.0
149
0.0
100
AcDbLayout
  1
Model
 70
     1
 71
     0
 10
-8910.0
 20
-6300.0
 11
8910.0
 21
6300.0
 12
0.0
 22
0.0
 32
0.0
 14
-8910.0
 24
-6300.0
 34
0.0
 15
8910.0
 25
6300.0
 35
0.0
146
0.0
 13
0.0
 23
0.0
 33
0.0
 16
1.0
 26
0.0
 36
0.0
 17
0.0
 27
1.0
 37
0.0
 76
     0
330
1F
331
29
  0
MATERIAL
  5
3D
102
{ACAD_REACTORS
330
3B
102
}
330
3B
100
AcDbMaterial
  1
ByBlock
 72
     1
 94
      127
  0
MATERIAL
  5
3C
102
{ACAD_REACTORS
330
3B
102
}
330
3B
100
AcDbMaterial
  1
ByLayer
 72
     1
 94
      127
  0
MATERIAL
  5
3E
102
{ACAD_REACTORS
330
3B
102
}
330
3B
100
AcDbMaterial
  1
Global
 72
     1
 94
      127
  0
MLINESTYLE
  5
18
102
{ACAD_REACTORS
330
17
102
}
330
17
100
AcDbMlineStyle
  2
Standard
 70
     0
  3

 62
   256
 51
90.0
 52
90.0
 71
     2
 49
0.5
 62
   256
  6
BYLAYER
 49
-0.5
 62
   256
  6
BYLAYER
  0
ACDBPLACEHOLDER
  5
F
102
{ACAD_REACTORS
330
E
102
}
330
E
  0
VISUALSTYLE
  5
2F
102
{ACAD_REACTORS
330
2A
102
}
330
2A
100
AcDbVisualStyle
  2
2dWireframe
 70
     4
177
     2
291
     0
 71
     0
176
     1
 72
     2
176
     1
 73
     0
176
     1
 90
        0
176
     1
 40
-0.6
176
     1
 41
-30.0
176
     1
 62
     5
 63
     7
421
 16777215
176
     1
 74
     1
176
     1
 91
        4
176
     1
 64
     7
176
     1
 65
   257
176
     1
 75
     1
176
     1
175
     1
176
     1
 42
1.0
176
     1
 92
        0
176
     1
 66
   257
176
     1
 43
1.0
176
     1
 76
     1
176
     1
 77
     6
176
     1
 78
     2
176
     1
 67
     7
176
     1
 79
     5
176
     1
170
     0
176
     1
171
     0
176
     1
290
     0
176
     1
 93
        1
176
     1
 44
0.0
176
     1
173
     0
176
     1
  0
VISUALSTYLE
  5
31
102
{ACAD_REACTORS
330
2A
102
}
330
2A
100
AcDbVisualStyle
  2
3D Hidden
 70
     6
177
     2
291
     0
 71
     1
176
     1
 72
     2
176
     1
 73
     2
176
     1
 90
        0
176
     1
 40
-0.6
176
     1
 41
-30.0
176
     1
 62
     5
 63
     7
421
 16777215
176
     1
 74
     2
176
     1
 91
        2
176
     1
 64
     7
176
     1
 65
   257
176
     1
 75
     2
176
     1
175
     1
176
     1
 42
40.0
176
     1
 92
        0
176
     1
 66
   257
176
     1
 43
1.0
176
     1
 76
     1
176
     1
 77
     6
176
     1
 78
     2
176
     1
 67
     7
176
     1
 79
     3
176
     1
170
     0
176
     1
171
     0
176
     1
290
     0
176
     1
 93
        1
176
     1
 44
0.0
176
     1
173
     0
176
     1
  0
VISUALSTYLE
  5
30
102
{ACAD_REACTORS
330
2A
102
}
330
2A
100
AcDbVisualStyle
  2
3dWireframe
 70
     5
177
     2
291
     0
 71
     0
176
     1
 72
     2
176
     1
 73
     0
176
     1
 90
        0
176
     1
 40
-0.6
176
     1
 41
-30.0
176
     1
 62
     5
 63
     7
421
 16777215
176
     1
 74
     1
176
     1
 91
        4
176
     1
 64
     7
176
     1
 65
   257
176
     1
 75
     1
176
     1
175
     1
176
     1
 42
1.0
176
     1
 92
        0
176
     1
 66
   257
176
     1
 43
1.0
176
     1
 76
     1
176
     1
 77
     6
176
     1
 78
     2
176
     1
 67
     7
176
     1
 79
     5
176
     1
170
     0
176
     1
171
     0
176
     1
290
     0
176
     1
 93
        1
176
     1
 44
0.0
176
     1
173
     0
176
     1
  0
VISUALSTYLE
  5
32
102
{ACAD_REACTORS
330
2A
102
}
330
2A
100
AcDbVisualStyle
  2
Basic
 70
     7
177
     2
291
     1
 71
     1
176
     1
 72
     0
176
     1
 73
     1
176
     1
 90
        0
176
     1
 40
-0.6
176
     1
 41
-30.0
176
     1
 62
     5
 63
     7
421
 16777215
176
     1
 74
     0
176
     1
 91
        4
176
     1
 64
     7
176
     1
 65
   257
176
     1
 75
     1
176
     1
175
     1
176
     1
 42
1.0
176
     1
 92
        8
176
     1
 66
     7
176
     1
 43
1.0
176
     1
 76
     1
176
     1
 77
     6
176
     1
 78
     2
176
     1
 67
     7
176
     1
 79
     5
176
     1
170
     0
176
     1
171
     0
176
     1
290
     0
176
     1
 93
        1
176
     1
 44
0.0
176
     1
173
     0
176
     1
  0
VISUALSTYLE
  5
36
102
{ACAD_REACTORS
330
2A
102
}
330
2A
100
AcDbVisualStyle
  2
Brighten
 70
    12
177
     2
291
     1
 71
     2
176
     1
 72
     2
176
     1
 73
     0
176
     1
 90
        0
176
     1
 40
-0.6
176
     1
 41
-30.0
176
     1
 62
     5
 63
     7
421
 16777215
176
     1
 74
     1
176
     1
 91
        4
176
     1
 64
     7
176
     1
 65
   257
176
     1
 75
     1
176
     1
175
     1
176
     1
 42
1.0
176
     1
 92
        8
176
     1
 66
     7
176
     1
 43
1.0
176
     1
 76
     1
176
     1
 77
     6
176
     1
 78
     2
176
     1
 67
     7
176
     1
 79
     5
176
     1
170
     0
176
     1
171
     0
176
     1
290
     0
176
     1
 93
        1
176
     1
 44
50.0
176
     1
173
     0
176
     1
  0
VISUALSTYLE
  5
3A
102
{ACAD_REACTORS
330
2A
102
}
330
2A
100
AcDbVisualStyle
  2
ColorChange
 70
    16
177
     2
291
     1
 71
     2
176
     1
 72
     2
176
     1
 73
     3
176
     1
 90
        0
176
     1
 40
-0.6
176
     1
 41
-30.0
176
     1
 62
     5
 63
     8
421
  8421504
176
     1
 74
     1
176
     1
 91
        4
176
     1
 64
     7
176
     1
 65
   257
176
     1
 75
     1
176
     1
175
     1
176
     1
 42
1.0
176
     1
 92
        8
176
     1
 66
     8
424
  8421504
176
     1
 43
1.0
176
     1
 76
     1
176
     1
 77
     6
176
     1
 78
     2
176
     1
 67
     7
176
     1
 79
     5
176
     1
170
     0
176
     1
171
     0
176
     1
290
     0
176
     1
 93
        1
176
     1
 44
0.0
176
     1
173
     0
176
     1
  0
VISUALSTYLE
  5
34
102
{ACAD_REACTORS
330
2A
102
}
330
2A
100
AcDbVisualStyle
  2
Conceptual
 70
     9
177
     2
291
     0
 71
     3
176
     1
 72
     2
176
     1
 73
     0
176
     1
 90
        0
176
     1
 40
-0.6
176
     1
 41
-30.0
176
     1
 62
     5
 63
     7
421
 16777215
176
     1
 74
     2
176
     1
 91
        2
176
     1
 64
     7
176
     1
 65
   257
176
     1
 75
     1
176
     1
175
     1
176
     1
 42
40.0
176
     1
 92
        8
176
     1
 66
     7
176
     1
 43
1.0
176
     1
 76
     1
176
     1
 77
     6
176
     1
 78
     2
176
     1
 67
     7
176
     1
 79
     3
176
     1
170
     0
176
     1
171
     0
176
     1
290
     0
176
     1
 93
        1
176
     1
 44
0.0
176
     1
173
     0
176
     1
  0
VISUALSTYLE
  5
35
102
{ACAD_REACTORS
330
2A
102
}
330
2A
100
AcDbVisualStyle
  2
Dim
 70
    11
177
     2
291
     1
 71
     2
176
     1
 72
     2
176
     1
 73
     0
176
     1
 90
        0
176
     1
 40
-0.6
176
     1
 41
-30.0
176
     1
 62
     5
 63
     7
421
 16777215
176
     1
 74
     1
176
     1
 91
        4
176
     1
 64
     7
176
     1
 65
   257
176
     1
 75
     1
176
     1
175
     1
176
     1
 42
1.0
176
     1
 92
        8
176
     1
 66
     7
176
     1
 43
1.0
176
     1
 76
     1
176
     1
 77
     6
176
     1
 78
     2
176
     1
 67
     7
176
     1
 79
     5
176
     1
170
     0
176
     1
171
     0
176
     1
290
     0
176
     1
 93
        1
176
     1
 44
-50.0
176
     1
173
     0
176
     1
  0
VISUALSTYLE
  5
39
102
{ACAD_REACTORS
330
2A
102
}
330
2A
100
AcDbVisualStyle
  2
Facepattern
 70
    15
177
     2
291
     1
 71
     2
176
     1
 72
     2
176
     1
 73
     0
176
     1
 90
        0
176
     1
 40
-0.6
176
     1
 41
-30.0
176
     1
 62
     5
 63
     7
421
 16777215
176
     1
 74
     1
176
     1
 91
        4
176
     1
 64
     7
176
     1
 65
   257
176
     1
 75
     1
176
     1
175
     1
176
     1
 42
1.0
176
     1
 92
        8
176
     1
 66
     7
176
     1
 43
1.0
176
     1
 76
     1
176
     1
 77
     6
176
     1
 78
     2
176
     1
 67
     7
176
     1
 79
     5
176
     1
170
     0
176
     1
171
     0
176
     1
290
     0
176
     1
 93
        1
176
     1
 44
0.0
176
     1
173
     0
176
     1
  0
VISUALSTYLE
  5
2B
102
{ACAD_REACTORS
330
2A
102
}
330
2A
100
AcDbVisualStyle
  2
Flat
 70
     0
177
     2
291
     1
 71
     2
176
     1
 72
     1
176
     1
 73
     1
176
     1
 90
        2
176
     1
 40
-0.6
176
     1
 41
30.0
176
     1
 62
     5
 63
     7
421
 16777215
176
     1
 74
     0
176
     1
 91
        4
176
     1
 64
     7
176
     1
 65
   257
176
     1
 75
     1
176
     1
175
     1
176
     1
 42
1.0
176
     1
 92
        8
176
     1
 66
     7
176
     1
 43
1.0
176
     1
 76
     1
176
     1
 77
     6
176
     1
 78
     2
176
     1
 67
     7
176
     1
 79
     5
176
     1
170
     0
176
     1
171
     0
176
     1
290
     0
176
     1
 93
       13
176
     1
 44
0.0
176
     1
173
     0
176
     1
  0
VISUALSTYLE
  5
2C
102
{ACAD_REACTORS
330
2A
102
}
330
2A
100
AcDbVisualStyle
  2
FlatWithEdges
 70
     1
177
     2
291
     1
 71
     2
176
     1
 72
     1
176
     1
 73
     1
176
     1
 90
        2
176
     1
 40
-0.6
176
     1
 41
30.0
176
     1
 62
     5
 63
     7
421
 16777215
176
     1
 74
     1
176
     1
 91
        4
176
     1
 64
     7
176
     1
 65
   257
176
     1
 75
     1
176
     1
175
     1
176
     1
 42
1.0
176
     1
 92
        0
176
     1
 66
   257
176
     1
 43
1.0
176
     1
 76
     1
176
     1
 77
     6
176
     1
 78
     2
176
     1
 67
     7
176
     1
 79
     5
176
     1
170
     0
176
     1
171
     0
176
     1
290
     0
176
     1
 93
       13
176
     1
 44
0.0
176
     1
173
     0
176
     1
  0
VISUALSTYLE
  5
2D
102
{ACAD_REACTORS
330
2A
102
}
330
2A
100
AcDbVisualStyle
  2
Gouraud
 70
     2
177
     2
291
     1
 71
     2
176
     1
 72
     2
176
     1
 73
     1
176
     1
 90
        2
176
     1
 40
-0.6
176
     1
 41
30.0
176
     1
 62
     5
 63
     7
421
 16777215
176
     1
 74
     0
176
     1
 91
        4
176
     1
 64
     7
176
     1
 65
   257
176
     1
 75
     1
176
     1
175
     1
176
     1
 42
1.0
176
     1
 92
        0
176
     1
 66
     7
176
     1
 43
1.0
176
     1
 76
     1
176
     1
 77
     6
176
     1
 78
     2
176
     1
 67
     7
176
     1
 79
     5
176
     1
170
     0
176
     1
171
     0
176
     1
290
     0
176
     1
 93
       13
176
     1
 44
0.0
176
     1
173
     0
176
     1
  0
VISUALSTYLE
  5
2E
102
{ACAD_REACTORS
330
2A
102
}
330
2A
100
AcDbVisualStyle
  2
GouraudWithEdges
 70
     3
177
     2
291
     1
 71
     2
176
     1
 72
     2
176
     1
 73
     1
176
     1
 90
        2
176
     1
 40
-0.6
176
     1
 41
30.0
176
     1
 62
     5
 63
     7
421
 16777215
176
     1
 74
     1
176
     1
 91
        4
176
     1
 64
     7
176
     1
 65
   257
176
     1
 75
     1
176
     1
175
     1
176
     1
 42
1.0
176
     1
 92
        0
176
     1
 66
   257
176
     1
 43
1.0
176
     1
 76
     1
176
     1
 77
     6
176
     1
 78
     2
176
     1
 67
     7
176
     1
 79
     5
176
     1
170
     0
176
     1
171
     0
176
     1
290
     0
176
     1
 93
       13
176
     1
 44
0.0
176
     1
173
     0
176
     1
  0
VISUALSTYLE
  5
38
102
{ACAD_REACTORS
330
2A
102
}
330
2A
100
AcDbVisualStyle
  2
Linepattern
 70
    14
177
     2
291
     1
 71
     2
176
     1
 72
     2
176
     1
 73
     0
176
     1
 90
        0
176
     1
 40
-0.6
176
     1
 41
-30.0
176
     1
 62
     5
 63
     7
421
 16777215
176
     1
 74
     1
176
     1
 91
        4
176
     1
 64
     7
176
     1
 65
   257
176
     1
 75
     7
176
     1
175
     7
176
     1
 42
1.0
176
     1
 92
        8
176
     1
 66
     7
176
     1
 43
1.0
176
     1
 76
     1
176
     1
 77
     6
176
     1
 78
     2
176
     1
 67
     7
176
     1
 79
     5
176
     1
170
     0
176
     1
171
     0
176
     1
290
     0
176
     1
 93
        1
176
     1
 44
0.0
176
     1
173
     0
176
     1
  0
VISUALSTYLE
  5
33
102
{ACAD_REACTORS
330
2A
102
}
330
2A
100
AcDbVisualStyle
  2
Realistic
 70
     8
177
     2
291
     0
 71
     2
176
     1
 72
     2
176
     1
 73
     0
176
     1
 90
        0
176
     1
 40
-0.6
176
     1
 41
-30.0
176
     1
 62
     5
 63
     7
421
 16777215
176
     1
 74
     1
176
     1
 91
        0
176
     1
 64
     7
176
     1
 65
   257
176
     1
 75
     1
176
     1
175
     1
176
     1
 42
1.0
176
     1
 92
        8
176
     1
 66
     8
424
  7895160
176
     1
 43
1.0
176
     1
 76
     1
176
     1
 77
     6
176
     1
 78
     2
176
     1
 67
     7
176
     1
 79
     5
176
     1
170
     0
176
     1
171
     0
176
     1
290
     0
176
     1
 93
       13
176
     1
 44
0.0
176
     1
173
     0
176
     1
  0
VISUALSTYLE
  5
37
102
{ACAD_REACTORS
330
2A
102
}
330
2A
100
AcDbVisualStyle
  2
Thicken
 70
    13
177
     2
291
     1
 71
     2
176
     1
 72
     2
176
     1
 73
     0
176
     1
 90
        0
176
     1
 40
-0.6
176
     1
 41
-30.0
176
     1
 62
     5
 63
     7
421
 16777215
176
     1
 74
     1
176
     1
 91
        4
176
     1
 64
     7
176
     1
 65
   257
176
     1
 75
     1
176
     1
175
     1
176
     1
 42
1.0
176
     1
 92
       12
176
     1
 66
     7
176
     1
 43
1.0
176
     1
 76
     1
176
     1
 77
     6
176
     1
 78
     2
176
     1
 67
     7
176
     1
 79
     5
176
     1
170
     0
176
     1
171
     0
176
     1
290
     0
176
     1
 93
        1
176
     1
 44
0.0
176
     1
173
     0
176
     1
  0
ENDSEC
  0
EOF
